999
FreeCAD v0.20 29177 +426 (Git)
  0
SECTION
  2
HEADER
  9
$ACADVER
  1
AC1014
  9
$ACADMAINTVER
 70
     9
  9
$DWGCODEPAGE
  3
ANSI_1252
  9
$TEXTSTYLE
  7
STANDARD
  9
$DIMSTYLE
  2
STANDARD
  9
$DIMTXSTY
  7
STANDARD
  9
$CMLSTYLE
  2
STANDARD
  9
$LUNITS
 70
2
  9
$INSUNITS
 70
4
  9
$PEXTMAX
 10
50
 20
50
 30
50
  9
$PEXTMIN
 10
0
 20
0
 30
0
  9
$HANDSEED
  5
FFFF
  0
ENDSEC
  0
SECTION
  2
CLASSES
  0
CLASS
  1
ACDBDICTIONARYWDFLT
  2
AcDbDictionaryWithDefault
  3
ObjectDBX Classes
 90
        0
280
     0
281
     0
  0
CLASS
  1
XRECORD
  2
AcDbXrecord
  3
ObjectDBX Classes
 90
        0
280
     0
281
     0
  0
CLASS
  1
LWPOLYLINE
  2
AcDbPolyline
  3
ObjectDBX Classes
 90
        0
280
     0
281
     1
  0
ENDSEC
  0
SECTION
  2
TABLES
  0
TABLE
  2
VPORT
  5
20
330
0
100
AcDbSymbolTable
 70
     1
  0
VPORT
  5
21
330
20
100
AcDbSymbolTableRecord
100
AcDbViewportTableRecord
  2
*ACTIVE
 70
     0
  0
ENDTAB
  0
TABLE
  2
LTYPE
  5
22
330
0
100
AcDbSymbolTable
 70
     1
  0
LTYPE
  5
23
330
21
100
AcDbSymbolTableRecord
100
AcDbLinetypeTableRecord
  2
BYBLOCK
 70
     0
  3

 72
    65
 73
     0
 40
0.0
  0
LTYPE
  5
24
330
21
100
AcDbSymbolTableRecord
100
AcDbLinetypeTableRecord
  2
BYLAYER
 70
     0
  3

 72
    65
 73
     0
 40
0.0
  0
LTYPE
  5
25
330
21
100
AcDbSymbolTableRecord
100
AcDbLinetypeTableRecord
  2
CONTINUOUS
 70
     0
  3
Solid line
 72
    65
 73
     0
 40
0.0
  0
ENDTAB
  0
TABLE
  2
LAYER
  5
A2B
330
0
100
AcDbSymbolTable
 70
3
  0
LAYER
  5
A2C
330
A2B
100
AcDbSymbolTableRecord
100
AcDbLayerTableRecord
  2
0
 70
   0
 62
   7
  6
CONTINUOUS
  0
LAYER
  5
A2D
330
A2B
100
AcDbSymbolTableRecord
100
AcDbLayerTableRecord
  2
none
 70
    0
 62
    7
  6
CONTINUOUS
  0
LAYER
  5
A2E
330
A2B
100
AcDbSymbolTableRecord
100
AcDbLayerTableRecord
  2
Shape2DView001
 70
    0
 62
    7
  6
CONTINUOUS
  0
ENDTAB
  0
TABLE
  2
STYLE
  5
70
330
0
100
AcDbSymbolTable
 70
     2
  0
STYLE
  5
71
330
70
100
AcDbSymbolTableRecord
100
AcDbTextStyleTableRecord
  2
STANDARD
 70
     0
 40
0.0
 41
1.0
 50
0.0
 71
     0
 42
2.5
  3
arial.ttf
  4

  0
STYLE
  5
72
330
70
100
AcDbSymbolTableRecord
100
AcDbTextStyleTableRecord
  2
ANNOTATIVE
 70
     0
 40
0.0
 41
1.0
 50
0.0
 71
     0
 42
2.5
  3
arial.ttf
  4

  0
ENDTAB
  0
TABLE
  2
VIEW
  5
73
330
0
100
AcDbSymbolTable
 70
     0
  0
ENDTAB
  0
TABLE
  2
UCS
  5
74
330
0
100
AcDbSymbolTable
 70
     0
  0
ENDTAB
  0
TABLE
  2
APPID
  5
75
330
0
100
AcDbSymbolTable
 70
     2
  0
APPID
  5
76
330
75
100
AcDbSymbolTableRecord
100
AcDbRegAppTableRecord
  2
ACAD
 70
     0
  0
APPID
  5
77
330
75
100
AcDbSymbolTableRecord
100
AcDbRegAppTableRecord
  2
ACADANNOTATIVE
 70
     0
  0
ENDTAB
  0
TABLE
  2
DIMSTYLE
  5
78
330
0
100
AcDbSymbolTable
 70
     2
  0
DIMSTYLE
105
79
330
78
100
AcDbSymbolTableRecord
100
AcDbDimStyleTableRecord
  2
STANDARD
 70
     0
  3

  4

  5

  6

  7

 40
0.0
 41
2.5
 42
0.625
 43
3.75
 44
1.25
 45
0.0
 46
0.0
 47
0.0
 48
0.0
140
2.5
141
2.5
142
0.0
143
0.03937007874016
144
1.0
145
0.0
146
1.0
147
0.625
 71
     0
 72
     0
 73
     0
 74
     0
 75
     0
 76
     0
 77
     1
 78
     8
170
     0
171
     3
172
     1
173
     0
174
     0
175
     0
176
     0
177
     0
178
     0
270
     2
271
     2
272
     2
273
     2
274
     3
340
71
275
     0
280
     0
281
     0
282
     0
283
     0
284
     8
285
     0
286
     0
287
     3
288
     0
  0
ENDTAB
  0
TABLE
  2
BLOCK_RECORD
  5
A01
330
0
100
AcDbSymbolTable
  70
5
  0
BLOCK_RECORD
  5
A02
330
A01
100
AcDbSymbolTableRecord
100
AcDbBlockTableRecord
  2
*MODEL_SPACE
  0
BLOCK_RECORD
  5
A03
330
A01
100
AcDbSymbolTableRecord
100
AcDbBlockTableRecord
  2
*PAPER_SPACE
  0
ENDTAB
  0
ENDSEC
  0
SECTION
  2
BLOCKS
  0
BLOCK
  5
A04
330
A02
100
AcDbEntity
  8
0
100
AcDbBlockBegin
  2
*MODEL_SPACE
 70
   0
 10
0
 20
0
 30
0
  3
*MODEL_SPACE
  1
 
  0
ENDBLK
  5
A05
330
A02
100
AcDbEntity
  8
0
100
AcDbBlockEnd
  0
BLOCK
  5
A06
330
A03
100
AcDbEntity
 67
1
  8
0
100
AcDbBlockBegin
  2
*PAPER_SPACE
 70
   0
 10
0
 20
0
 30
0
  3
*PAPER_SPACE
  1
 
  0
ENDBLK
  5
A07
330
A03
100
AcDbEntity
 67
    1
  8
0
100
AcDbBlockEnd
  0
ENDSEC
  0
SECTION
  2
ENTITIES
  0
LINE
  5
A08
330
A02
100
AcDbEntity
  8
Shape2DView001
100
AcDbLine
 10
-131.981
 20
-0.519978
 30
0
 11
-131.764
 21
-0.36364
 31
0
  0
SPLINE
  5
A09
330
A02
100
AcDbEntity
  8
Shape2DView001
100
AcDbSpline
210
0
220
0
230
1
 70
8
 71
3
 72
8
 73
4
 74
0
 40
0
 40
0
 40
0
 40
0
 40
0.0325686
 40
0.0325686
 40
0.0325686
 40
0.0325686
 10
-131.981
 20
-0.519978
 30
0
 10
-78.7217
 20
75.0115
 30
0
 10
-42.132
 20
110.21
 30
0
 10
-14.3497
 20
130.242
 30
0
  0
SPLINE
  5
A0A
330
A02
100
AcDbEntity
  8
Shape2DView001
100
AcDbSpline
210
0
220
0
230
1
 70
8
 71
3
 72
11
 73
7
 74
0
 40
0.620844
 40
0.620844
 40
0.620844
 40
0.620844
 40
0.666667
 40
0.666667
 40
0.666667
 40
0.688726
 40
0.688726
 40
0.688726
 40
0.688726
 10
217.537
 20
70.4138
 30
0
 10
215.786
 20
69.1511
 30
0
 10
202.45
 20
68.4428
 30
0
 10
192.081
 20
65.1259
 30
0
 10
187.09
 20
63.5291
 30
0
 10
182.786
 20
61.3278
 30
0
 10
179.585
 20
59.0398
 30
0
  0
SPLINE
  5
A0B
330
A02
100
AcDbEntity
  8
Shape2DView001
100
AcDbSpline
210
0
220
0
230
1
 70
8
 71
3
 72
14
 73
10
 74
0
 40
0.866668
 40
0.866668
 40
0.866668
 40
0.866668
 40
0.904762
 40
0.904762
 40
0.904762
 40
0.952381
 40
0.952381
 40
0.952381
 40
0.999965
 40
0.999965
 40
0.999965
 40
0.999965
 10
172.191
 20
19.4466
 30
0
 10
164.913
 20
14.1993
 30
0
 10
151.273
 20
8.35288
 30
0
 10
136.742
 20
8.39
 30
0
 10
118.577
 20
8.43641
 30
0
 10
99.0196
 20
17.6764
 30
0
 10
73.6368
 20
22.043
 30
0
 10
48.2726
 20
26.4064
 30
0
 10
17.0914
 20
25.9036
 30
0
 10
-80.919
 20
0.36371
 30
0
  0
SPLINE
  5
A0C
330
A02
100
AcDbEntity
  8
Shape2DView001
100
AcDbSpline
210
0
220
0
230
1
 70
8
 71
3
 72
8
 73
4
 74
0
 40
0
 40
0
 40
0
 40
0
 40
0.0325686
 40
0.0325686
 40
0.0325686
 40
0.0325686
 10
-131.764
 20
-0.36364
 30
0
 10
-78.5048
 20
75.1678
 30
0
 10
-41.9152
 20
110.367
 30
0
 10
-14.1329
 20
130.399
 30
0
  0
SPLINE
  5
A0D
330
A02
100
AcDbEntity
  8
Shape2DView001
100
AcDbSpline
210
0
220
0
230
1
 70
8
 71
3
 72
50
 73
46
 74
0
 40
0.0325686
 40
0.0325686
 40
0.0325686
 40
0.0325686
 40
0.047619
 40
0.047619
 40
0.047619
 40
0.0952381
 40
0.0952381
 40
0.0952381
 40
0.142857
 40
0.142857
 40
0.142857
 40
0.190476
 40
0.190476
 40
0.190476
 40
0.238095
 40
0.238095
 40
0.238095
 40
0.285714
 40
0.285714
 40
0.285714
 40
0.333333
 40
0.333333
 40
0.333333
 40
0.380952
 40
0.380952
 40
0.380952
 40
0.428571
 40
0.428571
 40
0.428571
 40
0.47619
 40
0.47619
 40
0.47619
 40
0.52381
 40
0.52381
 40
0.52381
 40
0.571429
 40
0.571429
 40
0.571429
 40
0.596136
 40
0.596136
 40
0.596136
 40
0.60849
 40
0.60849
 40
0.60849
 40
0.620844
 40
0.620844
 40
0.620844
 40
0.620844
 10
-14.1329
 20
130.399
 30
0
 10
-1.29433
 20
139.656
 30
0
 10
9.66342
 20
145.674
 30
0
 10
19.5162
 20
150.937
 30
0
 10
50.69
 20
167.588
 30
0
 10
70.8021
 20
176.678
 30
0
 10
80.234
 20
174.142
 30
0
 10
89.6659
 20
171.607
 30
0
 10
88.4175
 20
157.446
 30
0
 10
95.0753
 20
154.088
 30
0
 10
101.733
 20
150.73
 30
0
 10
116.297
 20
158.174
 30
0
 10
122.487
 20
153.877
 30
0
 10
128.677
 20
149.581
 30
0
 10
126.493
 20
133.543
 30
0
 10
130.491
 20
128.352
 30
0
 10
134.49
 20
123.16
 30
0
 10
144.67
 20
128.814
 30
0
 10
146.773
 20
125.904
 30
0
 10
148.876
 20
122.994
 30
0
 10
142.9
 20
111.521
 30
0
 10
145.709
 20
107.127
 30
0
 10
148.518
 20
102.734
 30
0
 10
160.111
 20
105.421
 30
0
 10
162.271
 20
101.999
 30
0
 10
164.43
 20
98.5771
 30
0
 10
157.156
 20
89.0455
 30
0
 10
159.202
 20
85.7945
 30
0
 10
161.248
 20
82.5434
 30
0
 10
172.614
 20
85.573
 30
0
 10
174.489
 20
83.6313
 30
0
 10
176.364
 20
81.6896
 30
0
 10
168.749
 20
74.7767
 30
0
 10
170.454
 20
72.7218
 30
0
 10
172.159
 20
70.667
 30
0
 10
183.184
 20
73.4702
 30
0
 10
194.833
 20
73.8244
 30
0
 10
200.878
 20
74.0082
 30
0
 10
207.091
 20
73.5326
 30
0
 10
211.551
 20
72.8422
 30
0
 10
213.781
 20
72.4969
 30
0
 10
215.573
 20
72.098
 30
0
 10
216.687
 20
71.7008
 30
0
 10
217.802
 20
71.3035
 30
0
 10
218.234
 20
70.9088
 30
0
 10
217.754
 20
70.5701
 30
0
  0
SPLINE
  5
A0E
330
A02
100
AcDbEntity
  8
Shape2DView001
100
AcDbSpline
210
0
220
0
230
1
 70
8
 71
3
 72
11
 73
7
 74
0
 40
0.620844
 40
0.620844
 40
0.620844
 40
0.620844
 40
0.666667
 40
0.666667
 40
0.666667
 40
0.688977
 40
0.688977
 40
0.688977
 40
0.688977
 10
217.754
 20
70.5701
 30
0
 10
216.003
 20
69.3075
 30
0
 10
202.667
 20
68.5991
 30
0
 10
192.298
 20
65.2822
 30
0
 10
187.25
 20
63.6673
 30
0
 10
182.905
 20
61.434
 30
0
 10
179.693
 20
59.118
 30
0
  0
SPLINE
  5
A0F
330
A02
100
AcDbEntity
  8
Shape2DView001
100
AcDbSpline
210
0
220
0
230
1
 70
8
 71
3
 72
20
 73
16
 74
0
 40
0.688977
 40
0.688977
 40
0.688977
 40
0.688977
 40
0.714286
 40
0.714286
 40
0.714286
 40
0.761905
 40
0.761905
 40
0.761905
 40
0.809524
 40
0.809524
 40
0.809524
 40
0.857143
 40
0.857143
 40
0.857143
 40
0.866668
 40
0.866668
 40
0.866668
 40
0.866668
 10
179.693
 20
59.118
 30
0
 10
176.049
 20
56.4907
 30
0
 10
173.863
 20
53.757
 30
0
 10
173.762
 20
51.6988
 30
0
 10
173.573
 20
47.8262
 30
0
 10
180.765
 20
46.3448
 30
0
 10
180.786
 20
43.6972
 30
0
 10
180.806
 20
41.0496
 30
0
 10
173.655
 20
37.2358
 30
0
 10
173.773
 20
34.2243
 30
0
 10
173.892
 20
31.2127
 30
0
 10
181.28
 20
29.0035
 30
0
 10
176.587
 20
23.3253
 30
0
 10
175.649
 20
22.1895
 30
0
 10
174.227
 20
20.9149
 30
0
 10
172.407
 20
19.6029
 30
0
  0
SPLINE
  5
A10
330
A02
100
AcDbEntity
  8
Shape2DView001
100
AcDbSpline
210
0
220
0
230
1
 70
8
 71
3
 72
14
 73
10
 74
0
 40
0.866668
 40
0.866668
 40
0.866668
 40
0.866668
 40
0.904762
 40
0.904762
 40
0.904762
 40
0.952381
 40
0.952381
 40
0.952381
 40
1
 40
1
 40
1
 40
1
 10
172.407
 20
19.6029
 30
0
 10
165.13
 20
14.3556
 30
0
 10
151.49
 20
8.50921
 30
0
 10
136.959
 20
8.54634
 30
0
 10
118.794
 20
8.59275
 30
0
 10
99.2365
 20
17.8327
 30
0
 10
73.8536
 20
22.1993
 30
0
 10
48.4707
 20
26.5659
 30
0
 10
17.2623
 20
26.0592
 30
0
 10
-80.919
 20
0.463535
 30
0
  0
LINE
  5
A11
330
A02
100
AcDbEntity
  8
Shape2DView001
100
AcDbLine
 10
-131.981
 20
-40.219
 30
0
 11
-131.764
 21
-40.0627
 31
0
  0
LINE
  5
A12
330
A02
100
AcDbEntity
  8
Shape2DView001
100
AcDbLine
 10
-131.981
 20
-0.519978
 30
0
 11
-131.981
 21
-40.219
 31
0
  0
LINE
  5
A13
330
A02
100
AcDbEntity
  8
Shape2DView001
100
AcDbLine
 10
-131.764
 20
-0.36364
 30
0
 11
-131.764
 21
-40.0627
 31
0
  0
LINE
  5
A14
330
A02
100
AcDbEntity
  8
Shape2DView001
100
AcDbLine
 10
-81.1358
 20
-40.4115
 30
0
 11
-80.919
 21
-40.2552
 31
0
  0
LINE
  5
A15
330
A02
100
AcDbEntity
  8
Shape2DView001
100
AcDbLine
 10
-80.919
 20
-40.2552
 30
0
 11
-80.919
 21
0.463535
 31
0
  0
LINE
  5
A16
330
A02
100
AcDbEntity
  8
Shape2DView001
100
AcDbLine
 10
-131.981
 20
-40.219
 30
0
 11
-81.1358
 21
-40.4115
 31
0
  0
ELLIPSE
  5
A17
330
A02
100
AcDbEntity
  8
Shape2DView001
100
AcDbEllipse
 10
-97.4371
 20
-23.2964
 30
0
 11
3.50915
 21
-4.86681
 31
0
 40
0.996022
 41
2.515
 42
3.11923
  0
ELLIPSE
  5
A18
330
A02
100
AcDbEntity
  8
Shape2DView001
100
AcDbEllipse
 10
-97.4371
 20
-23.2964
 30
0
 11
3.50915
 21
-4.86681
 31
0
 40
0.996022
 41
0.0223666
 42
2.515
  0
ELLIPSE
  5
A19
330
A02
100
AcDbEntity
  8
Shape2DView001
100
AcDbEllipse
 10
-119.717
 20
-22.9146
 30
0
 11
3.50915
 21
-4.86681
 31
0
 40
0.996022
 41
2.515
 42
3.11923
  0
ELLIPSE
  5
A1A
330
A02
100
AcDbEntity
  8
Shape2DView001
100
AcDbEllipse
 10
-119.717
 20
-22.9146
 30
0
 11
3.50915
 21
-4.86681
 31
0
 40
0.996022
 41
0.0223666
 42
2.515
  0
SPLINE
  5
A1B
330
A02
100
AcDbEntity
  8
Shape2DView001
100
AcDbSpline
210
0
220
0
230
1
 70
8
 71
3
 72
59
 73
55
 74
0
 40
0.36858
 40
0.36858
 40
0.36858
 40
0.36858
 40
0.370969
 40
0.370969
 40
0.370969
 40
0.38156
 40
0.38156
 40
0.38156
 40
0.389365
 40
0.389365
 40
0.389365
 40
0.402409
 40
0.402409
 40
0.402409
 40
0.421498
 40
0.421498
 40
0.421498
 40
0.44328
 40
0.44328
 40
0.44328
 40
0.478854
 40
0.478854
 40
0.478854
 40
0.502936
 40
0.502936
 40
0.502936
 40
0.527017
 40
0.527017
 40
0.527017
 40
0.560965
 40
0.560965
 40
0.560965
 40
0.586979
 40
0.586979
 40
0.586979
 40
0.605843
 40
0.605843
 40
0.605843
 40
0.624707
 40
0.624707
 40
0.624707
 40
0.645154
 40
0.645154
 40
0.645154
 40
0.666314
 40
0.666314
 40
0.666314
 40
0.687473
 40
0.687473
 40
0.687473
 40
0.719519
 40
0.719519
 40
0.719519
 40
0.744604
 40
0.744604
 40
0.744604
 40
0.744604
 10
150.349
 20
28.0939
 30
0
 10
150.764
 20
28.3987
 30
0
 10
151.16
 20
28.7218
 30
0
 10
151.536
 20
29.0634
 30
0
 10
153.209
 20
30.5768
 30
0
 10
154.496
 20
32.487
 30
0
 10
155.391
 20
34.5535
 30
0
 10
156.055
 20
36.0769
 30
0
 10
156.519
 20
37.6827
 30
0
 10
156.837
 20
39.3135
 30
0
 10
157.366
 20
42.0424
 30
0
 10
157.496
 20
44.8367
 30
0
 10
157.405
 20
47.6129
 30
0
 10
157.264
 20
51.6812
 30
0
 10
156.651
 20
55.7221
 30
0
 10
155.798
 20
59.7006
 30
0
 10
154.818
 20
64.2426
 30
0
 10
153.513
 20
68.7108
 30
0
 10
152.014
 20
73.1086
 30
0
 10
149.557
 20
80.2908
 30
0
 10
146.584
 20
87.2902
 30
0
 10
143.285
 20
94.126
 30
0
 10
141.05
 20
98.7527
 30
0
 10
138.655
 20
103.305
 30
0
 10
136.034
 20
107.726
 30
0
 10
133.414
 20
112.147
 30
0
 10
130.566
 20
116.436
 30
0
 10
127.43
 20
120.509
 30
0
 10
123.013
 20
126.247
 30
0
 10
118.006
 20
131.556
 30
0
 10
112.351
 20
136.089
 30
0
 10
108.022
 20
139.563
 30
0
 10
103.318
 20
142.572
 30
0
 10
98.3259
 20
144.994
 30
0
 10
94.7076
 20
146.752
 30
0
 10
90.9423
 20
148.204
 30
0
 10
87.087
 20
149.343
 30
0
 10
83.2316
 20
150.483
 30
0
 10
79.2865
 20
151.312
 30
0
 10
75.3063
 20
151.857
 30
0
 10
70.9923
 20
152.449
 30
0
 10
66.6313
 20
152.701
 30
0
 10
62.281
 20
152.57
 30
0
 10
57.7789
 20
152.438
 30
0
 10
53.2926
 20
151.899
 30
0
 10
48.8846
 20
150.992
 30
0
 10
44.4756
 20
150.086
 30
0
 10
40.1442
 20
148.817
 30
0
 10
35.9241
 20
147.261
 30
0
 10
29.5306
 20
144.903
 30
0
 10
23.3903
 20
141.896
 30
0
 10
17.5026
 20
138.476
 30
0
 10
12.8928
 20
135.798
 30
0
 10
8.43451
 20
132.864
 30
0
 10
4.10818
 20
129.749
 30
0
  0
LINE
  5
A1C
330
A02
100
AcDbEntity
  8
Shape2DView001
100
AcDbLine
 10
-131.764
 20
-40.0627
 30
0
 11
-80.919
 21
-40.2552
 31
0
  0
ELLIPSE
  5
A1D
330
A02
100
AcDbEntity
  8
Shape2DView001
100
AcDbEllipse
 10
-97.2203
 20
-23.14
 30
0
 11
3.50915
 21
-4.86681
 31
0
 40
0.996022
 41
2.515
 42
3.14159
  0
ELLIPSE
  5
A1E
330
A02
100
AcDbEntity
  8
Shape2DView001
100
AcDbEllipse
 10
-97.2203
 20
-23.14
 30
0
 11
3.50915
 21
-4.86681
 31
0
 40
0.996022
 41
3.14159
 42
0
  0
ELLIPSE
  5
A1F
330
A02
100
AcDbEntity
  8
Shape2DView001
100
AcDbEllipse
 10
-97.2203
 20
-23.14
 30
0
 11
3.50915
 21
-4.86681
 31
0
 40
0.996022
 41
0
 42
2.515
  0
ELLIPSE
  5
A20
330
A02
100
AcDbEntity
  8
Shape2DView001
100
AcDbEllipse
 10
-119.5
 20
-22.7582
 30
0
 11
3.50915
 21
-4.86681
 31
0
 40
0.996022
 41
2.515
 42
3.14159
  0
ELLIPSE
  5
A21
330
A02
100
AcDbEntity
  8
Shape2DView001
100
AcDbEllipse
 10
-119.5
 20
-22.7582
 30
0
 11
3.50915
 21
-4.86681
 31
0
 40
0.996022
 41
3.14159
 42
0
  0
ELLIPSE
  5
A22
330
A02
100
AcDbEntity
  8
Shape2DView001
100
AcDbEllipse
 10
-119.5
 20
-22.7582
 30
0
 11
3.50915
 21
-4.86681
 31
0
 40
0.996022
 41
0
 42
2.515
  0
SPLINE
  5
A23
330
A02
100
AcDbEntity
  8
Shape2DView001
100
AcDbSpline
210
0
220
0
230
1
 70
8
 71
3
 72
47
 73
43
 74
0
 40
0
 40
0
 40
0
 40
0
 40
0.0558008
 40
0.0558008
 40
0.0558008
 40
0.111602
 40
0.111602
 40
0.111602
 40
0.151591
 40
0.151591
 40
0.151591
 40
0.183436
 40
0.183436
 40
0.183436
 40
0.210704
 40
0.210704
 40
0.210704
 40
0.232914
 40
0.232914
 40
0.232914
 40
0.250976
 40
0.250976
 40
0.250976
 40
0.268315
 40
0.268315
 40
0.268315
 40
0.309376
 40
0.309376
 40
0.309376
 40
0.332155
 40
0.332155
 40
0.332155
 40
0.342431
 40
0.342431
 40
0.342431
 40
0.352707
 40
0.352707
 40
0.352707
 40
0.362367
 40
0.362367
 40
0.362367
 40
0.368374
 40
0.368374
 40
0.368374
 40
0.368374
 10
-102.463
 20
7.93172
 30
0
 10
-89.8345
 20
10.8114
 30
0
 10
-77.1899
 20
13.6193
 30
0
 10
-64.519
 20
16.308
 30
0
 10
-51.8478
 20
18.9945
 30
0
 10
-39.1513
 20
21.5663
 30
0
 10
-26.4124
 20
23.9176
 30
0
 10
-17.2828
 20
25.6002
 30
0
 10
-8.13126
 20
27.1703
 30
0
 10
1.05221
 20
28.5373
 30
0
 10
8.36509
 20
29.6238
 30
0
 10
15.6987
 20
30.5823
 30
0
 10
23.0568
 20
31.318
 30
0
 10
29.3573
 20
31.9464
 30
0
 10
35.6767
 20
32.4101
 30
0
 10
42.0076
 20
32.6083
 30
0
 10
47.1634
 20
32.7703
 30
0
 10
52.3266
 20
32.7501
 30
0
 10
57.4812
 20
32.5059
 30
0
 10
61.6733
 20
32.3096
 30
0
 10
65.8582
 20
31.963
 30
0
 10
70.03
 20
31.4993
 30
0
 10
74.0359
 20
31.0546
 30
0
 10
78.0263
 20
30.5116
 30
0
 10
82.0188
 20
29.9298
 30
0
 10
91.4748
 20
28.5528
 30
0
 10
100.893
 20
26.9165
 30
0
 10
110.359
 20
25.6086
 30
0
 10
115.609
 20
24.8904
 30
0
 10
120.877
 20
24.2676
 30
0
 10
126.169
 20
23.9724
 30
0
 10
128.555
 20
23.8417
 30
0
 10
130.945
 20
23.7806
 30
0
 10
133.334
 20
23.8373
 30
0
 10
135.722
 20
23.8956
 30
0
 10
138.109
 20
24.0691
 30
0
 10
140.467
 20
24.451
 30
0
 10
142.681
 20
24.8122
 30
0
 10
144.875
 20
25.3573
 30
0
 10
146.945
 20
26.227
 30
0
 10
148.233
 20
26.7665
 30
0
 10
149.404
 20
27.4148
 30
0
 10
150.458
 20
28.1717
 30
0
  0
SPLINE
  5
A24
330
A02
100
AcDbEntity
  8
Shape2DView001
100
AcDbSpline
210
0
220
0
230
1
 70
8
 71
3
 72
59
 73
55
 74
0
 40
0.368374
 40
0.368374
 40
0.368374
 40
0.368374
 40
0.370969
 40
0.370969
 40
0.370969
 40
0.38156
 40
0.38156
 40
0.38156
 40
0.389365
 40
0.389365
 40
0.389365
 40
0.402409
 40
0.402409
 40
0.402409
 40
0.421498
 40
0.421498
 40
0.421498
 40
0.44328
 40
0.44328
 40
0.44328
 40
0.478854
 40
0.478854
 40
0.478854
 40
0.502936
 40
0.502936
 40
0.502936
 40
0.527017
 40
0.527017
 40
0.527017
 40
0.560965
 40
0.560965
 40
0.560965
 40
0.586979
 40
0.586979
 40
0.586979
 40
0.605843
 40
0.605843
 40
0.605843
 40
0.624707
 40
0.624707
 40
0.624707
 40
0.645154
 40
0.645154
 40
0.645154
 40
0.666314
 40
0.666314
 40
0.666314
 40
0.687473
 40
0.687473
 40
0.687473
 40
0.719519
 40
0.719519
 40
0.719519
 40
0.744814
 40
0.744814
 40
0.744814
 40
0.744814
 10
150.458
 20
28.1717
 30
0
 10
150.913
 20
28.4994
 30
0
 10
151.344
 20
28.8487
 30
0
 10
151.752
 20
29.2198
 30
0
 10
153.425
 20
30.7331
 30
0
 10
154.713
 20
32.6434
 30
0
 10
155.608
 20
34.7098
 30
0
 10
156.272
 20
36.2332
 30
0
 10
156.736
 20
37.839
 30
0
 10
157.054
 20
39.4698
 30
0
 10
157.583
 20
42.1987
 30
0
 10
157.713
 20
44.993
 30
0
 10
157.622
 20
47.7693
 30
0
 10
157.481
 20
51.8376
 30
0
 10
156.868
 20
55.8785
 30
0
 10
156.015
 20
59.8569
 30
0
 10
155.035
 20
64.3989
 30
0
 10
153.73
 20
68.8671
 30
0
 10
152.231
 20
73.2649
 30
0
 10
149.774
 20
80.4471
 30
0
 10
146.801
 20
87.4466
 30
0
 10
143.502
 20
94.2823
 30
0
 10
141.267
 20
98.9091
 30
0
 10
138.872
 20
103.461
 30
0
 10
136.251
 20
107.883
 30
0
 10
133.631
 20
112.303
 30
0
 10
130.783
 20
116.592
 30
0
 10
127.647
 20
120.665
 30
0
 10
123.229
 20
126.404
 30
0
 10
118.222
 20
131.712
 30
0
 10
112.567
 20
136.245
 30
0
 10
108.239
 20
139.72
 30
0
 10
103.534
 20
142.728
 30
0
 10
98.5427
 20
145.15
 30
0
 10
94.9244
 20
146.909
 30
0
 10
91.1591
 20
148.36
 30
0
 10
87.3038
 20
149.499
 30
0
 10
83.4484
 20
150.64
 30
0
 10
79.5033
 20
151.468
 30
0
 10
75.5231
 20
152.013
 30
0
 10
71.2092
 20
152.605
 30
0
 10
66.8481
 20
152.857
 30
0
 10
62.4978
 20
152.727
 30
0
 10
57.9957
 20
152.595
 30
0
 10
53.5094
 20
152.055
 30
0
 10
49.1015
 20
151.148
 30
0
 10
44.6925
 20
150.242
 30
0
 10
40.361
 20
148.973
 30
0
 10
36.1409
 20
147.417
 30
0
 10
29.7474
 20
145.059
 30
0
 10
23.6071
 20
142.052
 30
0
 10
17.7194
 20
138.633
 30
0
 10
13.0711
 20
135.931
 30
0
 10
8.57686
 20
132.971
 30
0
 10
4.2166
 20
129.828
 30
0
  0
SPLINE
  5
A25
330
A02
100
AcDbEntity
  8
Shape2DView001
100
AcDbSpline
210
0
220
0
230
1
 70
8
 71
3
 72
20
 73
16
 74
0
 40
0.744814
 40
0.744814
 40
0.744814
 40
0.744814
 40
0.770052
 40
0.770052
 40
0.770052
 40
0.8029
 40
0.8029
 40
0.8029
 40
0.835749
 40
0.835749
 40
0.835749
 40
0.907781
 40
0.907781
 40
0.907781
 40
1
 40
1
 40
1
 40
1
 10
4.2166
 20
129.828
 30
0
 10
-0.133968
 20
126.69
 30
0
 10
-4.35096
 20
123.371
 30
0
 10
-8.45576
 20
119.918
 30
0
 10
-13.7981
 20
115.424
 30
0
 10
-18.9502
 20
110.706
 30
0
 10
-23.9507
 20
105.834
 30
0
 10
-28.9509
 20
100.962
 30
0
 10
-33.7989
 20
95.9343
 30
0
 10
-38.5247
 20
90.7946
 30
0
 10
-48.8851
 20
79.5193
 30
0
 10
-58.6651
 20
67.7196
 30
0
 10
-68.0616
 20
55.6297
 30
0
 10
-80.0862
 20
40.144
 30
0
 10
-91.4804
 20
24.1743
 30
0
 10
-102.463
 20
7.93172
 30
0
  0
LINE
  5
A26
330
A02
100
AcDbEntity
  8
Shape2DView001
100
AcDbLine
 10
-97.2203
 20
-17.1482
 30
0
 11
-97.4371
 21
-17.3046
 31
0
  0
LINE
  5
A27
330
A02
100
AcDbEntity
  8
Shape2DView001
100
AcDbLine
 10
-119.5
 20
-16.7664
 30
0
 11
-119.717
 21
-16.9228
 31
0
  0
SPLINE
  5
A28
330
A02
100
AcDbEntity
  8
Shape2DView001
100
AcDbSpline
210
0
220
0
230
1
 70
8
 71
1
 72
4
 73
2
 74
0
 40
0
 40
0
 40
1
 40
1
 10
-14.3497
 20
130.242
 30
0
 10
-14.1329
 20
130.399
 30
0
  0
SPLINE
  5
A29
330
A02
100
AcDbEntity
  8
Shape2DView001
100
AcDbSpline
210
0
220
0
230
1
 70
8
 71
1
 72
4
 73
2
 74
0
 40
0
 40
0
 40
1
 40
1
 10
217.537
 20
70.4138
 30
0
 10
217.754
 20
70.5701
 30
0
  0
SPLINE
  5
A2A
330
A02
100
AcDbEntity
  8
Shape2DView001
100
AcDbSpline
210
0
220
0
230
1
 70
8
 71
1
 72
4
 73
2
 74
0
 40
0
 40
0
 40
1
 40
1
 10
172.191
 20
19.4466
 30
0
 10
172.407
 20
19.6029
 30
0
  0
ENDSEC
  0
SECTION
  2
OBJECTS
  0
DICTIONARY
  5
F000
330
0
100
AcDbDictionary
  3
ACAD_GROUP
350
F001
  0
DICTIONARY
  5
F001
330
F000
100
AcDbDictionary
  0
ENDSEC
  0
EOF