999
FreeCAD v0.20 29177 +426 (Git)
  0
SECTION
  2
HEADER
  9
$ACADVER
  1
AC1014
  9
$ACADMAINTVER
 70
     9
  9
$DWGCODEPAGE
  3
ANSI_1252
  9
$TEXTSTYLE
  7
STANDARD
  9
$DIMSTYLE
  2
STANDARD
  9
$DIMTXSTY
  7
STANDARD
  9
$CMLSTYLE
  2
STANDARD
  9
$LUNITS
 70
2
  9
$INSUNITS
 70
4
  9
$PEXTMAX
 10
50
 20
50
 30
50
  9
$PEXTMIN
 10
0
 20
0
 30
0
  9
$HANDSEED
  5
FFFF
  0
ENDSEC
  0
SECTION
  2
CLASSES
  0
CLASS
  1
ACDBDICTIONARYWDFLT
  2
AcDbDictionaryWithDefault
  3
ObjectDBX Classes
 90
        0
280
     0
281
     0
  0
CLASS
  1
XRECORD
  2
AcDbXrecord
  3
ObjectDBX Classes
 90
        0
280
     0
281
     0
  0
CLASS
  1
LWPOLYLINE
  2
AcDbPolyline
  3
ObjectDBX Classes
 90
        0
280
     0
281
     1
  0
ENDSEC
  0
SECTION
  2
TABLES
  0
TABLE
  2
VPORT
  5
20
330
0
100
AcDbSymbolTable
 70
     1
  0
VPORT
  5
21
330
20
100
AcDbSymbolTableRecord
100
AcDbViewportTableRecord
  2
*ACTIVE
 70
     0
  0
ENDTAB
  0
TABLE
  2
LTYPE
  5
22
330
0
100
AcDbSymbolTable
 70
     1
  0
LTYPE
  5
23
330
21
100
AcDbSymbolTableRecord
100
AcDbLinetypeTableRecord
  2
BYBLOCK
 70
     0
  3

 72
    65
 73
     0
 40
0.0
  0
LTYPE
  5
24
330
21
100
AcDbSymbolTableRecord
100
AcDbLinetypeTableRecord
  2
BYLAYER
 70
     0
  3

 72
    65
 73
     0
 40
0.0
  0
LTYPE
  5
25
330
21
100
AcDbSymbolTableRecord
100
AcDbLinetypeTableRecord
  2
CONTINUOUS
 70
     0
  3
Solid line
 72
    65
 73
     0
 40
0.0
  0
ENDTAB
  0
TABLE
  2
LAYER
  5
A63
330
0
100
AcDbSymbolTable
 70
3
  0
LAYER
  5
A64
330
A63
100
AcDbSymbolTableRecord
100
AcDbLayerTableRecord
  2
0
 70
   0
 62
   7
  6
CONTINUOUS
  0
LAYER
  5
A65
330
A63
100
AcDbSymbolTableRecord
100
AcDbLayerTableRecord
  2
none
 70
    0
 62
    7
  6
CONTINUOUS
  0
LAYER
  5
A66
330
A63
100
AcDbSymbolTableRecord
100
AcDbLayerTableRecord
  2
Shape2DView
 70
    0
 62
    7
  6
CONTINUOUS
  0
ENDTAB
  0
TABLE
  2
STYLE
  5
70
330
0
100
AcDbSymbolTable
 70
     2
  0
STYLE
  5
71
330
70
100
AcDbSymbolTableRecord
100
AcDbTextStyleTableRecord
  2
STANDARD
 70
     0
 40
0.0
 41
1.0
 50
0.0
 71
     0
 42
2.5
  3
arial.ttf
  4

  0
STYLE
  5
72
330
70
100
AcDbSymbolTableRecord
100
AcDbTextStyleTableRecord
  2
ANNOTATIVE
 70
     0
 40
0.0
 41
1.0
 50
0.0
 71
     0
 42
2.5
  3
arial.ttf
  4

  0
ENDTAB
  0
TABLE
  2
VIEW
  5
73
330
0
100
AcDbSymbolTable
 70
     0
  0
ENDTAB
  0
TABLE
  2
UCS
  5
74
330
0
100
AcDbSymbolTable
 70
     0
  0
ENDTAB
  0
TABLE
  2
APPID
  5
75
330
0
100
AcDbSymbolTable
 70
     2
  0
APPID
  5
76
330
75
100
AcDbSymbolTableRecord
100
AcDbRegAppTableRecord
  2
ACAD
 70
     0
  0
APPID
  5
77
330
75
100
AcDbSymbolTableRecord
100
AcDbRegAppTableRecord
  2
ACADANNOTATIVE
 70
     0
  0
ENDTAB
  0
TABLE
  2
DIMSTYLE
  5
78
330
0
100
AcDbSymbolTable
 70
     2
  0
DIMSTYLE
105
79
330
78
100
AcDbSymbolTableRecord
100
AcDbDimStyleTableRecord
  2
STANDARD
 70
     0
  3

  4

  5

  6

  7

 40
0.0
 41
2.5
 42
0.625
 43
3.75
 44
1.25
 45
0.0
 46
0.0
 47
0.0
 48
0.0
140
2.5
141
2.5
142
0.0
143
0.03937007874016
144
1.0
145
0.0
146
1.0
147
0.625
 71
     0
 72
     0
 73
     0
 74
     0
 75
     0
 76
     0
 77
     1
 78
     8
170
     0
171
     3
172
     1
173
     0
174
     0
175
     0
176
     0
177
     0
178
     0
270
     2
271
     2
272
     2
273
     2
274
     3
340
71
275
     0
280
     0
281
     0
282
     0
283
     0
284
     8
285
     0
286
     0
287
     3
288
     0
  0
ENDTAB
  0
TABLE
  2
BLOCK_RECORD
  5
A01
330
0
100
AcDbSymbolTable
  70
5
  0
BLOCK_RECORD
  5
A02
330
A01
100
AcDbSymbolTableRecord
100
AcDbBlockTableRecord
  2
*MODEL_SPACE
  0
BLOCK_RECORD
  5
A03
330
A01
100
AcDbSymbolTableRecord
100
AcDbBlockTableRecord
  2
*PAPER_SPACE
  0
ENDTAB
  0
ENDSEC
  0
SECTION
  2
BLOCKS
  0
BLOCK
  5
A04
330
A02
100
AcDbEntity
  8
0
100
AcDbBlockBegin
  2
*MODEL_SPACE
 70
   0
 10
0
 20
0
 30
0
  3
*MODEL_SPACE
  1
 
  0
ENDBLK
  5
A05
330
A02
100
AcDbEntity
  8
0
100
AcDbBlockEnd
  0
BLOCK
  5
A06
330
A03
100
AcDbEntity
 67
1
  8
0
100
AcDbBlockBegin
  2
*PAPER_SPACE
 70
   0
 10
0
 20
0
 30
0
  3
*PAPER_SPACE
  1
 
  0
ENDBLK
  5
A07
330
A03
100
AcDbEntity
 67
    1
  8
0
100
AcDbBlockEnd
  0
ENDSEC
  0
SECTION
  2
ENTITIES
  0
SPLINE
  5
A08
330
A02
100
AcDbEntity
  8
Shape2DView
100
AcDbSpline
210
0
220
0
230
1
 70
9
 71
3
 72
98
 73
94
 74
0
 40
0
 40
0
 40
0
 40
0
 40
0.0322581
 40
0.0322581
 40
0.0322581
 40
0.0645161
 40
0.0645161
 40
0.0645161
 40
0.0967742
 40
0.0967742
 40
0.0967742
 40
0.129032
 40
0.129032
 40
0.129032
 40
0.16129
 40
0.16129
 40
0.16129
 40
0.193548
 40
0.193548
 40
0.193548
 40
0.225806
 40
0.225806
 40
0.225806
 40
0.258065
 40
0.258065
 40
0.258065
 40
0.290323
 40
0.290323
 40
0.290323
 40
0.322581
 40
0.322581
 40
0.322581
 40
0.354839
 40
0.354839
 40
0.354839
 40
0.387097
 40
0.387097
 40
0.387097
 40
0.419355
 40
0.419355
 40
0.419355
 40
0.451613
 40
0.451613
 40
0.451613
 40
0.483871
 40
0.483871
 40
0.483871
 40
0.516129
 40
0.516129
 40
0.516129
 40
0.548387
 40
0.548387
 40
0.548387
 40
0.580645
 40
0.580645
 40
0.580645
 40
0.612903
 40
0.612903
 40
0.612903
 40
0.645161
 40
0.645161
 40
0.645161
 40
0.677419
 40
0.677419
 40
0.677419
 40
0.709677
 40
0.709677
 40
0.709677
 40
0.741935
 40
0.741935
 40
0.741935
 40
0.774194
 40
0.774194
 40
0.774194
 40
0.806452
 40
0.806452
 40
0.806452
 40
0.83871
 40
0.83871
 40
0.83871
 40
0.870968
 40
0.870968
 40
0.870968
 40
0.903226
 40
0.903226
 40
0.903226
 40
0.935484
 40
0.935484
 40
0.935484
 40
0.967742
 40
0.967742
 40
0.967742
 40
1
 40
1
 40
1
 40
1
 10
-206.361
 20
-7.10543e-15
 30
0
 10
-180.159
 20
34.47
 30
0
 10
-171.342
 20
46.2256
 30
0
 10
-163.549
 20
54.7991
 30
0
 10
-155.756
 20
63.3726
 30
0
 10
-148.987
 20
68.7639
 30
0
 10
-142.634
 20
73.7084
 30
0
 10
-136.28
 20
78.6529
 30
0
 10
-130.343
 20
83.1505
 30
0
 10
-123.595
 20
86.6907
 30
0
 10
-116.847
 20
90.2308
 30
0
 10
-109.288
 20
92.8136
 30
0
 10
-102.414
 20
94.8378
 30
0
 10
-95.5389
 20
96.8621
 30
0
 10
-89.3483
 20
98.3278
 30
0
 10
-82.3852
 20
99.5219
 30
0
 10
-75.4222
 20
100.716
 30
0
 10
-67.6867
 20
101.638
 30
0
 10
-58.6589
 20
101.372
 30
0
 10
-49.6312
 20
101.106
 30
0
 10
-39.3111
 20
99.6507
 30
0
 10
-31.1765
 20
96.6228
 30
0
 10
-23.0418
 20
93.5949
 30
0
 10
-17.0926
 20
88.9943
 30
0
 10
-8.44665
 20
85.9617
 30
0
 10
0.199326
 20
82.9291
 30
0
 10
11.542
 20
81.4645
 30
0
 10
19.3393
 20
82.237
 30
0
 10
27.1366
 20
83.0095
 30
0
 10
31.3884
 20
86.0189
 30
0
 10
36.3483
 20
88.9257
 30
0
 10
41.3082
 20
91.8325
 30
0
 10
46.9761
 20
94.6366
 30
0
 10
56.2486
 20
97.1212
 30
0
 10
65.521
 20
99.6058
 30
0
 10
78.3979
 20
101.771
 30
0
 10
91.1335
 20
99.6711
 30
0
 10
103.869
 20
97.5713
 30
0
 10
116.463
 20
91.2064
 30
0
 10
126.847
 20
84.4721
 30
0
 10
137.231
 20
77.7377
 30
0
 10
145.404
 20
70.6338
 30
0
 10
153.85
 20
61.8603
 30
0
 10
162.296
 20
53.0868
 30
0
 10
171.014
 20
42.6437
 30
0
 10
177.691
 20
32.0554
 30
0
 10
184.368
 20
21.4671
 30
0
 10
189.004
 20
10.7336
 30
0
 10
189.004
 20
3.55271e-15
 30
0
 10
189.004
 20
-10.7336
 30
0
 10
184.368
 20
-21.4671
 30
0
 10
177.691
 20
-32.0554
 30
0
 10
171.014
 20
-42.6437
 30
0
 10
162.296
 20
-53.0868
 30
0
 10
153.85
 20
-61.8603
 30
0
 10
145.404
 20
-70.6338
 30
0
 10
137.231
 20
-77.7377
 30
0
 10
126.847
 20
-84.4721
 30
0
 10
116.463
 20
-91.2064
 30
0
 10
103.869
 20
-97.5713
 30
0
 10
91.1335
 20
-99.6711
 30
0
 10
78.3979
 20
-101.771
 30
0
 10
65.521
 20
-99.6058
 30
0
 10
56.2486
 20
-97.1212
 30
0
 10
46.9761
 20
-94.6366
 30
0
 10
41.3082
 20
-91.8325
 30
0
 10
36.3483
 20
-88.9257
 30
0
 10
31.3884
 20
-86.0189
 30
0
 10
27.1366
 20
-83.0095
 30
0
 10
19.3393
 20
-82.237
 30
0
 10
11.542
 20
-81.4645
 30
0
 10
0.199326
 20
-82.9291
 30
0
 10
-8.44664
 20
-85.9617
 30
0
 10
-17.0926
 20
-88.9943
 30
0
 10
-23.0418
 20
-93.5949
 30
0
 10
-31.1765
 20
-96.6228
 30
0
 10
-39.3111
 20
-99.6507
 30
0
 10
-49.6312
 20
-101.106
 30
0
 10
-58.6589
 20
-101.372
 30
0
 10
-67.6867
 20
-101.638
 30
0
 10
-75.4222
 20
-100.716
 30
0
 10
-82.3852
 20
-99.5219
 30
0
 10
-89.3483
 20
-98.3278
 30
0
 10
-95.5389
 20
-96.8621
 30
0
 10
-102.414
 20
-94.8378
 30
0
 10
-109.288
 20
-92.8136
 30
0
 10
-116.847
 20
-90.2308
 30
0
 10
-126.98
 20
-83.995
 30
0
 10
-137.113
 20
-77.7591
 30
0
 10
-149.819
 20
-67.8702
 30
0
 10
-160.581
 20
-57.0479
 30
0
 10
-171.342
 20
-46.2256
 30
0
 10
-180.159
 20
-34.47
 30
0
 10
-206.361
 20
0
 30
0
  0
CIRCLE
  5
A09
330
A02
100
AcDbEntity
  8
Shape2DView
100
AcDbCircle
 10
-172.836
 20
13.6924
 40
6.82683
  0
CIRCLE
  5
A0A
330
A02
100
AcDbEntity
  8
Shape2DView
100
AcDbCircle
 10
-179.947
 20
-12.9676
 40
7.53767
  0
CIRCLE
  5
A0B
330
A02
100
AcDbEntity
  8
Shape2DView
100
AcDbCircle
 10
-155.716
 20
-5.51507
 40
6.99034
  0
CIRCLE
  5
A0C
330
A02
100
AcDbEntity
  8
Shape2DView
100
AcDbCircle
 10
-153.364
 20
22.0937
 40
7.20148
  0
CIRCLE
  5
A0D
330
A02
100
AcDbEntity
  8
Shape2DView
100
AcDbCircle
 10
-145.465
 20
53.7658
 40
6.99033
  0
CIRCLE
  5
A0E
330
A02
100
AcDbEntity
  8
Shape2DView
100
AcDbCircle
 10
-129.761
 20
36.5307
 40
8.01203
  0
CIRCLE
  5
A0F
330
A02
100
AcDbEntity
  8
Shape2DView
100
AcDbCircle
 10
-131.823
 20
9.49
 40
9.61396
  0
CIRCLE
  5
A10
330
A02
100
AcDbEntity
  8
Shape2DView
100
AcDbCircle
 10
-104.341
 20
48.0324
 40
9.43852
  0
CIRCLE
  5
A11
330
A02
100
AcDbEntity
  8
Shape2DView
100
AcDbCircle
 10
-76.072
 20
38.5159
 40
7.34408
  0
CIRCLE
  5
A12
330
A02
100
AcDbEntity
  8
Shape2DView
100
AcDbCircle
 10
-92.5858
 20
84.6987
 40
8.56808
  0
CIRCLE
  5
A13
330
A02
100
AcDbEntity
  8
Shape2DView
100
AcDbCircle
 10
-136.509
 20
-15.1188
 40
5.36766
  0
CIRCLE
  5
A14
330
A02
100
AcDbEntity
  8
Shape2DView
100
AcDbCircle
 10
-140.267
 20
-51.4461
 40
9.03937
  0
CIRCLE
  5
A15
330
A02
100
AcDbEntity
  8
Shape2DView
100
AcDbCircle
 10
-159.057
 20
-31.4035
 40
6.5915
  0
CIRCLE
  5
A16
330
A02
100
AcDbEntity
  8
Shape2DView
100
AcDbCircle
 10
-81.6906
 20
-67.9014
 40
8.67502
  0
CIRCLE
  5
A17
330
A02
100
AcDbEntity
  8
Shape2DView
100
AcDbCircle
 10
-64.0968
 20
-51.9675
 40
7.27447
  0
CIRCLE
  5
A18
330
A02
100
AcDbEntity
  8
Shape2DView
100
AcDbCircle
 10
-69.1349
 20
-27.8965
 40
7.14589
  0
CIRCLE
  5
A19
330
A02
100
AcDbEntity
  8
Shape2DView
100
AcDbCircle
 10
-73.318
 20
8.26024
 40
8.17454
  0
CIRCLE
  5
A1A
330
A02
100
AcDbEntity
  8
Shape2DView
100
AcDbCircle
 10
-79.9905
 20
61.4674
 40
7.72262
  0
CIRCLE
  5
A1B
330
A02
100
AcDbEntity
  8
Shape2DView
100
AcDbCircle
 10
-62.3571
 20
88.0574
 40
9.48678
  0
CIRCLE
  5
A1C
330
A02
100
AcDbEntity
  8
Shape2DView
100
AcDbCircle
 10
-47.1223
 20
12.4541
 40
7.52157
  0
CIRCLE
  5
A1D
330
A02
100
AcDbEntity
  8
Shape2DView
100
AcDbCircle
 10
-55.4785
 20
-12.2731
 40
6.01283
  0
CIRCLE
  5
A1E
330
A02
100
AcDbEntity
  8
Shape2DView
100
AcDbCircle
 10
-45.91
 20
-36.6636
 40
6.86469
  0
CIRCLE
  5
A1F
330
A02
100
AcDbEntity
  8
Shape2DView
100
AcDbCircle
 10
-40.469
 20
-60.6789
 40
5.78361
  0
CIRCLE
  5
A20
330
A02
100
AcDbEntity
  8
Shape2DView
100
AcDbCircle
 10
-41.1602
 20
-86.4953
 40
6.17133
  0
CIRCLE
  5
A21
330
A02
100
AcDbEntity
  8
Shape2DView
100
AcDbCircle
 10
-23.9585
 20
-35.3503
 40
6.51243
  0
CIRCLE
  5
A22
330
A02
100
AcDbEntity
  8
Shape2DView
100
AcDbCircle
 10
-35.5178
 20
-9.25018
 40
6.33807
  0
CIRCLE
  5
A23
330
A02
100
AcDbEntity
  8
Shape2DView
100
AcDbCircle
 10
-29.2168
 20
30.8883
 40
6.33807
  0
CIRCLE
  5
A24
330
A02
100
AcDbEntity
  8
Shape2DView
100
AcDbCircle
 10
-50.1945
 20
35.1884
 40
6.24599
  0
CIRCLE
  5
A25
330
A02
100
AcDbEntity
  8
Shape2DView
100
AcDbCircle
 10
-52.1598
 20
57.8748
 40
7.38928
  0
CIRCLE
  5
A26
330
A02
100
AcDbEntity
  8
Shape2DView
100
AcDbCircle
 10
-17.3154
 20
-68.3783
 40
6.73044
  0
CIRCLE
  5
A27
330
A02
100
AcDbEntity
  8
Shape2DView
100
AcDbCircle
 10
-10.3318
 20
-15.9091
 40
8.18495
  0
CIRCLE
  5
A28
330
A02
100
AcDbEntity
  8
Shape2DView
100
AcDbCircle
 10
-16.5232
 20
9.98236
 40
7.45243
  0
CIRCLE
  5
A29
330
A02
100
AcDbEntity
  8
Shape2DView
100
AcDbCircle
 10
-3.49044
 20
25.2767
 40
6.67866
  0
CIRCLE
  5
A2A
330
A02
100
AcDbEntity
  8
Shape2DView
100
AcDbCircle
 10
-19.9512
 20
69.0612
 40
7.06999
  0
CIRCLE
  5
A2B
330
A02
100
AcDbEntity
  8
Shape2DView
100
AcDbCircle
 10
-12.2428
 20
47.1833
 40
7.13353
  0
CIRCLE
  5
A2C
330
A02
100
AcDbEntity
  8
Shape2DView
100
AcDbCircle
 10
9.14444
 20
60.4231
 40
6.26292
  0
CIRCLE
  5
A2D
330
A02
100
AcDbEntity
  8
Shape2DView
100
AcDbCircle
 10
-3.31275
 20
-43.1313
 40
8.50236
  0
CIRCLE
  5
A2E
330
A02
100
AcDbEntity
  8
Shape2DView
100
AcDbCircle
 10
14.498
 20
-21.5481
 40
6.31045
  0
CIRCLE
  5
A2F
330
A02
100
AcDbEntity
  8
Shape2DView
100
AcDbCircle
 10
10.2591
 20
-1.66256
 40
5.40905
  0
CIRCLE
  5
A30
330
A02
100
AcDbEntity
  8
Shape2DView
100
AcDbCircle
 10
18.3104
 20
19.346
 40
7.35271
  0
CIRCLE
  5
A31
330
A02
100
AcDbEntity
  8
Shape2DView
100
AcDbCircle
 10
15.8744
 20
-64.9341
 40
9.05848
  0
CIRCLE
  5
A32
330
A02
100
AcDbEntity
  8
Shape2DView
100
AcDbCircle
 10
41.1042
 20
-54.7909
 40
6.98519
  0
CIRCLE
  5
A33
330
A02
100
AcDbEntity
  8
Shape2DView
100
AcDbCircle
 10
33.6514
 20
-33.1407
 40
6.95682
  0
CIRCLE
  5
A34
330
A02
100
AcDbEntity
  8
Shape2DView
100
AcDbCircle
 10
30.3344
 20
-5.79019
 40
4.87407
  0
CIRCLE
  5
A35
330
A02
100
AcDbEntity
  8
Shape2DView
100
AcDbCircle
 10
39.5278
 20
11.6585
 40
6.16979
  0
CIRCLE
  5
A36
330
A02
100
AcDbEntity
  8
Shape2DView
100
AcDbCircle
 10
45.1564
 20
-17.4226
 40
6.86422
  0
CIRCLE
  5
A37
330
A02
100
AcDbEntity
  8
Shape2DView
100
AcDbCircle
 10
19.6683
 20
43.1096
 40
7.14979
  0
CIRCLE
  5
A38
330
A02
100
AcDbEntity
  8
Shape2DView
100
AcDbCircle
 10
44.9166
 20
35.0288
 40
10.8933
  0
CIRCLE
  5
A39
330
A02
100
AcDbEntity
  8
Shape2DView
100
AcDbCircle
 10
36.0354
 20
67.6786
 40
9.05343
  0
CIRCLE
  5
A3A
330
A02
100
AcDbEntity
  8
Shape2DView
100
AcDbCircle
 10
63.5095
 20
6.9776
 40
8.8192
  0
CIRCLE
  5
A3B
330
A02
100
AcDbEntity
  8
Shape2DView
100
AcDbCircle
 10
60.0411
 20
52.674
 40
6.97077
  0
CIRCLE
  5
A3C
330
A02
100
AcDbEntity
  8
Shape2DView
100
AcDbCircle
 10
67.1227
 20
-18.8711
 40
7.55064
  0
CIRCLE
  5
A3D
330
A02
100
AcDbEntity
  8
Shape2DView
100
AcDbCircle
 10
60.0427
 20
-41.248
 40
8.86808
  0
CIRCLE
  5
A3E
330
A02
100
AcDbEntity
  8
Shape2DView
100
AcDbCircle
 10
55.1889
 20
-75.1901
 40
7.94937
  0
CIRCLE
  5
A3F
330
A02
100
AcDbEntity
  8
Shape2DView
100
AcDbCircle
 10
109.579
 20
-59.2292
 40
7.17286
  0
CIRCLE
  5
A40
330
A02
100
AcDbEntity
  8
Shape2DView
100
AcDbCircle
 10
80.3556
 20
-82.6023
 40
6.5124
  0
CIRCLE
  5
A41
330
A02
100
AcDbEntity
  8
Shape2DView
100
AcDbCircle
 10
83.6905
 20
-57.9765
 40
10.2274
  0
CIRCLE
  5
A42
330
A02
100
AcDbEntity
  8
Shape2DView
100
AcDbCircle
 10
81.1887
 20
28.8383
 40
9.05343
  0
CIRCLE
  5
A43
330
A02
100
AcDbEntity
  8
Shape2DView
100
AcDbCircle
 10
71.9313
 20
71.4391
 40
7.21047
  0
CIRCLE
  5
A44
330
A02
100
AcDbEntity
  8
Shape2DView
100
AcDbCircle
 10
57.5729
 20
85.7975
 40
7.458
  0
CIRCLE
  5
A45
330
A02
100
AcDbEntity
  8
Shape2DView
100
AcDbCircle
 10
99.4808
 20
48.2749
 40
7.64956
  0
CIRCLE
  5
A46
330
A02
100
AcDbEntity
  8
Shape2DView
100
AcDbCircle
 10
97.913
 20
74.5159
 40
10.0305
  0
CIRCLE
  5
A47
330
A02
100
AcDbEntity
  8
Shape2DView
100
AcDbCircle
 10
107.074
 20
23.4466
 40
9.26776
  0
CIRCLE
  5
A48
330
A02
100
AcDbEntity
  8
Shape2DView
100
AcDbCircle
 10
114.059
 20
-34.3731
 40
10.458
  0
CIRCLE
  5
A49
330
A02
100
AcDbEntity
  8
Shape2DView
100
AcDbCircle
 10
101.819
 20
-80.7833
 40
8.20389
  0
CIRCLE
  5
A4A
330
A02
100
AcDbEntity
  8
Shape2DView
100
AcDbCircle
 10
131.909
 20
-52.7332
 40
7.75621
  0
CIRCLE
  5
A4B
330
A02
100
AcDbEntity
  8
Shape2DView
100
AcDbCircle
 10
134.397
 20
-16.3033
 40
11.4819
  0
CIRCLE
  5
A4C
330
A02
100
AcDbEntity
  8
Shape2DView
100
AcDbCircle
 10
132.419
 20
28.3572
 40
8.13763
  0
CIRCLE
  5
A4D
330
A02
100
AcDbEntity
  8
Shape2DView
100
AcDbCircle
 10
122.729
 20
49.7773
 40
7.74711
  0
CIRCLE
  5
A4E
330
A02
100
AcDbEntity
  8
Shape2DView
100
AcDbCircle
 10
121.667
 20
73.2145
 40
6.40606
  0
CIRCLE
  5
A4F
330
A02
100
AcDbEntity
  8
Shape2DView
100
AcDbCircle
 10
147.719
 20
8.46715
 40
7.26055
  0
CIRCLE
  5
A50
330
A02
100
AcDbEntity
  8
Shape2DView
100
AcDbCircle
 10
152.866
 20
-45.1476
 40
7.94835
  0
CIRCLE
  5
A51
330
A02
100
AcDbEntity
  8
Shape2DView
100
AcDbCircle
 10
165.727
 20
-24.8929
 40
7.78155
  0
CIRCLE
  5
A52
330
A02
100
AcDbEntity
  8
Shape2DView
100
AcDbCircle
 10
173.863
 20
-4.54774
 40
6.17159
  0
CIRCLE
  5
A53
330
A02
100
AcDbEntity
  8
Shape2DView
100
AcDbCircle
 10
169.64
 20
18.4286
 40
7.56447
  0
CIRCLE
  5
A54
330
A02
100
AcDbEntity
  8
Shape2DView
100
AcDbCircle
 10
156.17
 20
38.1414
 40
6.84575
  0
CIRCLE
  5
A55
330
A02
100
AcDbEntity
  8
Shape2DView
100
AcDbCircle
 10
-110.499
 20
68.1848
 40
6.21118
  0
CIRCLE
  5
A56
330
A02
100
AcDbEntity
  8
Shape2DView
100
AcDbCircle
 10
-121.477
 20
-33.9088
 40
11.2042
  0
CIRCLE
  5
A57
330
A02
100
AcDbEntity
  8
Shape2DView
100
AcDbCircle
 10
-111.455
 20
-5.51507
 40
6.91177
  0
CIRCLE
  5
A58
330
A02
100
AcDbEntity
  8
Shape2DView
100
AcDbCircle
 10
-108.95
 20
18.7031
 40
8.02097
  0
CIRCLE
  5
A59
330
A02
100
AcDbEntity
  8
Shape2DView
100
AcDbCircle
 10
-90.16
 20
-19.2944
 40
5.16484
  0
CIRCLE
  5
A5A
330
A02
100
AcDbEntity
  8
Shape2DView
100
AcDbCircle
 10
-98.9785
 20
-53.946
 40
6.55815
  0
CIRCLE
  5
A5B
330
A02
100
AcDbEntity
  8
Shape2DView
100
AcDbCircle
 10
-88.0625
 20
-38.8316
 40
5.20635
  0
CIRCLE
  5
A5C
330
A02
100
AcDbEntity
  8
Shape2DView
100
AcDbCircle
 10
-118.919
 20
-67.2512
 40
4.75821
  0
CIRCLE
  5
A5D
330
A02
100
AcDbEntity
  8
Shape2DView
100
AcDbCircle
 10
-94.3864
 20
-81.2316
 40
6.113
  0
CIRCLE
  5
A5E
330
A02
100
AcDbEntity
  8
Shape2DView
100
AcDbCircle
 10
-60.6387
 20
-83.7454
 40
6.55218
  0
CIRCLE
  5
A5F
330
A02
100
AcDbEntity
  8
Shape2DView
100
AcDbCircle
 10
-90.9878
 20
21.0033
 40
4.84189
  0
CIRCLE
  5
A60
330
A02
100
AcDbEntity
  8
Shape2DView
100
AcDbCircle
 10
106.063
 20
-6.32062
 40
6.86713
  0
CIRCLE
  5
A61
330
A02
100
AcDbEntity
  8
Shape2DView
100
AcDbCircle
 10
85.2094
 20
-27.8616
 40
6.51393
  0
CIRCLE
  5
A62
330
A02
100
AcDbEntity
  8
Shape2DView
100
AcDbCircle
 10
-41.1602
 20
76.4367
 40
5.79731
  0
ENDSEC
  0
SECTION
  2
OBJECTS
  0
DICTIONARY
  5
F000
330
0
100
AcDbDictionary
  3
ACAD_GROUP
350
F001
  0
DICTIONARY
  5
F001
330
F000
100
AcDbDictionary
  0
ENDSEC
  0
EOF