  0
SECTION
  2
HEADER
  9
$ACADVER
  1
AC1009
  9
$EXTMIN
 10
0.0
 20
0.0
 30
0.0
  9
$EXTMAX
 10
1000.0
 20
1000.0
 30
0.0
  9
$FILLMODE
 70
 0
  9
$SPLFRAME
 70
 1
  0
ENDSEC
  0
SECTION
  2
TABLES
  0
TABLE
  2
LAYER
 70
1
  0
LAYER
  2
0
 70
     0
 62
     7
  6
CONTINUOUS
  0
ENDTAB
  0
ENDSEC
  0
SECTION
  2
ENTITIES
  0
POLYLINE
  8
0
 62
     0
 66
     1
 10
0
 20
0
 30
0.0
 70
     1
 40
0
 41
0
  0
VERTEX
  8
0
 10
30.366
 20
172.868
 30
0.0
 40
0
 41
0
  0
VERTEX
  8
0
 10
48.6826
 20
214.007
 30
0.0
 40
0
 41
0
  0
VERTEX
  8
0
 10
48.7096
 20
214.068
 30
0.0
 40
0
 41
0
  0
VERTEX
  8
0
 10
48.7743
 20
214.257
 30
0.0
 40
0
 41
0
  0
VERTEX
  8
0
 10
48.8317
 20
214.513
 30
0.0
 40
0
 41
0
  0
VERTEX
  8
0
 10
48.855
 20
214.771
 30
0.0
 40
0
 41
0
  0
VERTEX
  8
0
 10
48.8446
 20
215.031
 30
0.0
 40
0
 41
0
  0
VERTEX
  8
0
 10
48.801
 20
215.285
 30
0.0
 40
0
 41
0
  0
VERTEX
  8
0
 10
48.7243
 20
215.533
 30
0.0
 40
0
 41
0
  0
VERTEX
  8
0
 10
48.6151
 20
215.772
 30
0.0
 40
0
 41
0
  0
VERTEX
  8
0
 10
48.5125
 20
215.943
 30
0.0
 40
0
 41
0
  0
VERTEX
  8
0
 10
48.4736
 20
215.997
 30
0.0
 40
0
 41
0
  0
VERTEX
  8
0
 10
48.4347
 20
216.05
 30
0.0
 40
0
 41
0
  0
VERTEX
  8
0
 10
48.3036
 20
216.2
 30
0.0
 40
0
 41
0
  0
VERTEX
  8
0
 10
48.1108
 20
216.378
 30
0.0
 40
0
 41
0
  0
VERTEX
  8
0
 10
47.8983
 20
216.528
 30
0.0
 40
0
 41
0
  0
VERTEX
  8
0
 10
47.669
 20
216.649
 30
0.0
 40
0
 41
0
  0
VERTEX
  8
0
 10
47.4261
 20
216.737
 30
0.0
 40
0
 41
0
  0
VERTEX
  8
0
 10
47.1728
 20
216.796
 30
0.0
 40
0
 41
0
  0
VERTEX
  8
0
 10
46.9118
 20
216.821
 30
0.0
 40
0
 41
0
  0
VERTEX
  8
0
 10
46.7124
 20
216.817
 30
0.0
 40
0
 41
0
  0
VERTEX
  8
0
 10
46.6465
 20
216.81
 30
0.0
 40
0
 41
0
  0
VERTEX
  8
0
 10
1.85981
 20
212.103
 30
0.0
 40
0
 41
0
  0
VERTEX
  8
0
 10
1.79394
 20
212.096
 30
0.0
 40
0
 41
0
  0
VERTEX
  8
0
 10
1.59814
 20
212.058
 30
0.0
 40
0
 41
0
  0
VERTEX
  8
0
 10
1.34804
 20
211.979
 30
0.0
 40
0
 41
0
  0
VERTEX
  8
0
 10
1.1122
 20
211.871
 30
0.0
 40
0
 41
0
  0
VERTEX
  8
0
 10
0.893283
 20
211.732
 30
0.0
 40
0
 41
0
  0
VERTEX
  8
0
 10
0.694065
 20
211.567
 30
0.0
 40
0
 41
0
  0
VERTEX
  8
0
 10
0.517253
 20
211.376
 30
0.0
 40
0
 41
0
  0
VERTEX
  8
0
 10
0.36556
 20
211.163
 30
0.0
 40
0
 41
0
  0
VERTEX
  8
0
 10
0.268718
 20
210.987
 30
0.0
 40
0
 41
0
  0
VERTEX
  8
0
 10
0.241808
 20
210.928
 30
0.0
 40
0
 41
0
  0
VERTEX
  8
0
 10
0.214844
 20
210.867
 30
0.0
 40
0
 41
0
  0
VERTEX
  8
0
 10
0.150119
 20
210.678
 30
0.0
 40
0
 41
0
  0
VERTEX
  8
0
 10
0.0927735
 20
210.422
 30
0.0
 40
0
 41
0
  0
VERTEX
  8
0
 10
0.0694444
 20
210.164
 30
0.0
 40
0
 41
0
  0
VERTEX
  8
0
 10
0.0798068
 20
209.904
 30
0.0
 40
0
 41
0
  0
VERTEX
  8
0
 10
0.123481
 20
209.65
 30
0.0
 40
0
 41
0
  0
VERTEX
  8
0
 10
0.200087
 20
209.401
 30
0.0
 40
0
 41
0
  0
VERTEX
  8
0
 10
0.309353
 20
209.163
 30
0.0
 40
0
 41
0
  0
VERTEX
  8
0
 10
0.411893
 20
208.992
 30
0.0
 40
0
 41
0
  0
VERTEX
  8
0
 10
0.450846
 20
208.939
 30
0.0
 40
0
 41
0
  0
VERTEX
  8
0
 10
26.9208
 20
172.506
 30
0.0
 40
0
 41
0
  0
VERTEX
  8
0
 10
26.9597
 20
172.451
 30
0.0
 40
0
 41
0
  0
VERTEX
  8
0
 10
27.0907
 20
172.301
 30
0.0
 40
0
 41
0
  0
VERTEX
  8
0
 10
27.2835
 20
172.124
 30
0.0
 40
0
 41
0
  0
VERTEX
  8
0
 10
27.4961
 20
171.975
 30
0.0
 40
0
 41
0
  0
VERTEX
  8
0
 10
27.7254
 20
171.854
 30
0.0
 40
0
 41
0
  0
VERTEX
  8
0
 10
27.9682
 20
171.764
 30
0.0
 40
0
 41
0
  0
VERTEX
  8
0
 10
28.2217
 20
171.707
 30
0.0
 40
0
 41
0
  0
VERTEX
  8
0
 10
28.4825
 20
171.682
 30
0.0
 40
0
 41
0
  0
VERTEX
  8
0
 10
28.6819
 20
171.685
 30
0.0
 40
0
 41
0
  0
VERTEX
  8
0
 10
28.7479
 20
171.692
 30
0.0
 40
0
 41
0
  0
VERTEX
  8
0
 10
28.8138
 20
171.699
 30
0.0
 40
0
 41
0
  0
VERTEX
  8
0
 10
29.0094
 20
171.737
 30
0.0
 40
0
 41
0
  0
VERTEX
  8
0
 10
29.2596
 20
171.815
 30
0.0
 40
0
 41
0
  0
VERTEX
  8
0
 10
29.4954
 20
171.925
 30
0.0
 40
0
 41
0
  0
VERTEX
  8
0
 10
29.7143
 20
172.063
 30
0.0
 40
0
 41
0
  0
VERTEX
  8
0
 10
29.9136
 20
172.228
 30
0.0
 40
0
 41
0
  0
VERTEX
  8
0
 10
30.0904
 20
172.419
 30
0.0
 40
0
 41
0
  0
VERTEX
  8
0
 10
30.2421
 20
172.633
 30
0.0
 40
0
 41
0
  0
VERTEX
  8
0
 10
30.339
 20
172.807
 30
0.0
 40
0
 41
0
  0
VERTEX
  8
0
 10
30.366
 20
172.868
 30
0.0
 40
0
 41
0
  0
SEQEND
 8
0
  0
POLYLINE
  8
0
 62
     0
 66
     1
 10
0
 20
0
 30
0.0
 70
     1
 40
0
 41
0
  0
VERTEX
  8
0
 10
14.3353
 20
189.828
 30
0.0
 40
0
 41
0
  0
VERTEX
  8
0
 10
19.1894
 20
193.354
 30
0.0
 40
0
 41
0
  0
VERTEX
  8
0
 10
17.8904
 20
195.143
 30
0.0
 40
0
 41
0
  0
VERTEX
  8
0
 10
13.0363
 20
191.615
 30
0.0
 40
0
 41
0
  0
SEQEND
 8
0
  0
POLYLINE
  8
0
 62
     0
 66
     1
 10
0
 20
0
 30
0.0
 70
     1
 40
0
 41
0
  0
VERTEX
  8
0
 10
39.9738
 20
194.447
 30
0.0
 40
0
 41
0
  0
VERTEX
  8
0
 10
34.4925
 20
196.888
 30
0.0
 40
0
 41
0
  0
VERTEX
  8
0
 10
33.5936
 20
194.868
 30
0.0
 40
0
 41
0
  0
VERTEX
  8
0
 10
39.0749
 20
192.428
 30
0.0
 40
0
 41
0
  0
SEQEND
 8
0
  0
POLYLINE
  8
0
 62
     0
 66
     1
 10
0
 20
0
 30
0.0
 70
     1
 40
0
 41
0
  0
VERTEX
  8
0
 10
23.1543
 20
214.34
 30
0.0
 40
0
 41
0
  0
VERTEX
  8
0
 10
23.7814
 20
208.374
 30
0.0
 40
0
 41
0
  0
VERTEX
  8
0
 10
25.9793
 20
208.604
 30
0.0
 40
0
 41
0
  0
VERTEX
  8
0
 10
25.3521
 20
214.572
 30
0.0
 40
0
 41
0
  0
SEQEND
 8
0
  0
POLYLINE
  8
0
 62
     0
 66
     1
 10
0
 20
0
 30
0.0
 70
     1
 40
0
 41
0
  0
VERTEX
  8
0
 10
34.3946
 20
168.19
 30
0.0
 40
0
 41
0
  0
VERTEX
  8
0
 10
79.1812
 20
163.483
 30
0.0
 40
0
 41
0
  0
VERTEX
  8
0
 10
79.2471
 20
163.476
 30
0.0
 40
0
 41
0
  0
VERTEX
  8
0
 10
79.4465
 20
163.474
 30
0.0
 40
0
 41
0
  0
VERTEX
  8
0
 10
79.7074
 20
163.497
 30
0.0
 40
0
 41
0
  0
VERTEX
  8
0
 10
79.9608
 20
163.556
 30
0.0
 40
0
 41
0
  0
VERTEX
  8
0
 10
80.2037
 20
163.644
 30
0.0
 40
0
 41
0
  0
VERTEX
  8
0
 10
80.4331
 20
163.765
 30
0.0
 40
0
 41
0
  0
VERTEX
  8
0
 10
80.6456
 20
163.915
 30
0.0
 40
0
 41
0
  0
VERTEX
  8
0
 10
80.8383
 20
164.093
 30
0.0
 40
0
 41
0
  0
VERTEX
  8
0
 10
80.9693
 20
164.243
 30
0.0
 40
0
 41
0
  0
VERTEX
  8
0
 10
81.0083
 20
164.297
 30
0.0
 40
0
 41
0
  0
VERTEX
  8
0
 10
81.0472
 20
164.35
 30
0.0
 40
0
 41
0
  0
VERTEX
  8
0
 10
81.1497
 20
164.521
 30
0.0
 40
0
 41
0
  0
VERTEX
  8
0
 10
81.259
 20
164.76
 30
0.0
 40
0
 41
0
  0
VERTEX
  8
0
 10
81.3356
 20
165.008
 30
0.0
 40
0
 41
0
  0
VERTEX
  8
0
 10
81.3793
 20
165.263
 30
0.0
 40
0
 41
0
  0
VERTEX
  8
0
 10
81.3896
 20
165.522
 30
0.0
 40
0
 41
0
  0
VERTEX
  8
0
 10
81.3664
 20
165.781
 30
0.0
 40
0
 41
0
  0
VERTEX
  8
0
 10
81.309
 20
166.036
 30
0.0
 40
0
 41
0
  0
VERTEX
  8
0
 10
81.2443
 20
166.225
 30
0.0
 40
0
 41
0
  0
VERTEX
  8
0
 10
81.2174
 20
166.286
 30
0.0
 40
0
 41
0
  0
VERTEX
  8
0
 10
62.9006
 20
207.426
 30
0.0
 40
0
 41
0
  0
VERTEX
  8
0
 10
62.8736
 20
207.486
 30
0.0
 40
0
 41
0
  0
VERTEX
  8
0
 10
62.7768
 20
207.661
 30
0.0
 40
0
 41
0
  0
VERTEX
  8
0
 10
62.6251
 20
207.875
 30
0.0
 40
0
 41
0
  0
VERTEX
  8
0
 10
62.4483
 20
208.065
 30
0.0
 40
0
 41
0
  0
VERTEX
  8
0
 10
62.249
 20
208.231
 30
0.0
 40
0
 41
0
  0
VERTEX
  8
0
 10
62.0301
 20
208.368
 30
0.0
 40
0
 41
0
  0
VERTEX
  8
0
 10
61.7943
 20
208.478
 30
0.0
 40
0
 41
0
  0
VERTEX
  8
0
 10
61.5442
 20
208.556
 30
0.0
 40
0
 41
0
  0
VERTEX
  8
0
 10
61.3485
 20
208.594
 30
0.0
 40
0
 41
0
  0
VERTEX
  8
0
 10
61.2826
 20
208.601
 30
0.0
 40
0
 41
0
  0
VERTEX
  8
0
 10
61.2167
 20
208.608
 30
0.0
 40
0
 41
0
  0
VERTEX
  8
0
 10
61.0172
 20
208.611
 30
0.0
 40
0
 41
0
  0
VERTEX
  8
0
 10
60.7564
 20
208.587
 30
0.0
 40
0
 41
0
  0
VERTEX
  8
0
 10
60.5029
 20
208.529
 30
0.0
 40
0
 41
0
  0
VERTEX
  8
0
 10
60.26
 20
208.439
 30
0.0
 40
0
 41
0
  0
VERTEX
  8
0
 10
60.0307
 20
208.319
 30
0.0
 40
0
 41
0
  0
VERTEX
  8
0
 10
59.8182
 20
208.169
 30
0.0
 40
0
 41
0
  0
VERTEX
  8
0
 10
59.6254
 20
207.992
 30
0.0
 40
0
 41
0
  0
VERTEX
  8
0
 10
59.4944
 20
207.842
 30
0.0
 40
0
 41
0
  0
VERTEX
  8
0
 10
59.4556
 20
207.788
 30
0.0
 40
0
 41
0
  0
VERTEX
  8
0
 10
32.9856
 20
171.356
 30
0.0
 40
0
 41
0
  0
VERTEX
  8
0
 10
32.9465
 20
171.301
 30
0.0
 40
0
 41
0
  0
VERTEX
  8
0
 10
32.844
 20
171.131
 30
0.0
 40
0
 41
0
  0
VERTEX
  8
0
 10
32.7347
 20
170.892
 30
0.0
 40
0
 41
0
  0
VERTEX
  8
0
 10
32.6582
 20
170.644
 30
0.0
 40
0
 41
0
  0
VERTEX
  8
0
 10
32.6144
 20
170.389
 30
0.0
 40
0
 41
0
  0
VERTEX
  8
0
 10
32.6042
 20
170.129
 30
0.0
 40
0
 41
0
  0
VERTEX
  8
0
 10
32.6275
 20
169.871
 30
0.0
 40
0
 41
0
  0
VERTEX
  8
0
 10
32.6847
 20
169.615
 30
0.0
 40
0
 41
0
  0
VERTEX
  8
0
 10
32.7494
 20
169.426
 30
0.0
 40
0
 41
0
  0
VERTEX
  8
0
 10
32.7765
 20
169.367
 30
0.0
 40
0
 41
0
  0
VERTEX
  8
0
 10
32.8033
 20
169.306
 30
0.0
 40
0
 41
0
  0
VERTEX
  8
0
 10
32.9003
 20
169.131
 30
0.0
 40
0
 41
0
  0
VERTEX
  8
0
 10
33.0519
 20
168.918
 30
0.0
 40
0
 41
0
  0
VERTEX
  8
0
 10
33.2287
 20
168.726
 30
0.0
 40
0
 41
0
  0
VERTEX
  8
0
 10
33.4281
 20
168.561
 30
0.0
 40
0
 41
0
  0
VERTEX
  8
0
 10
33.6469
 20
168.424
 30
0.0
 40
0
 41
0
  0
VERTEX
  8
0
 10
33.8828
 20
168.314
 30
0.0
 40
0
 41
0
  0
VERTEX
  8
0
 10
34.1329
 20
168.236
 30
0.0
 40
0
 41
0
  0
VERTEX
  8
0
 10
34.3286
 20
168.197
 30
0.0
 40
0
 41
0
  0
VERTEX
  8
0
 10
34.3946
 20
168.19
 30
0.0
 40
0
 41
0
  0
SEQEND
 8
0
  0
POLYLINE
  8
0
 62
     0
 66
     1
 10
0
 20
0
 30
0.0
 70
     1
 40
0
 41
0
  0
VERTEX
  8
0
 10
45.571
 20
188.678
 30
0.0
 40
0
 41
0
  0
VERTEX
  8
0
 10
50.4251
 20
185.151
 30
0.0
 40
0
 41
0
  0
VERTEX
  8
0
 10
51.7242
 20
186.939
 30
0.0
 40
0
 41
0
  0
VERTEX
  8
0
 10
46.87
 20
190.465
 30
0.0
 40
0
 41
0
  0
SEQEND
 8
0
  0
POLYLINE
  8
0
 62
     0
 66
     1
 10
0
 20
0
 30
0.0
 70
     1
 40
0
 41
0
  0
VERTEX
  8
0
 10
57.8868
 20
165.721
 30
0.0
 40
0
 41
0
  0
VERTEX
  8
0
 10
58.514
 20
171.689
 30
0.0
 40
0
 41
0
  0
VERTEX
  8
0
 10
56.3161
 20
171.919
 30
0.0
 40
0
 41
0
  0
VERTEX
  8
0
 10
55.6889
 20
165.953
 30
0.0
 40
0
 41
0
  0
SEQEND
 8
0
  0
POLYLINE
  8
0
 62
     0
 66
     1
 10
0
 20
0
 30
0.0
 70
     1
 40
0
 41
0
  0
VERTEX
  8
0
 10
71.6096
 20
187.865
 30
0.0
 40
0
 41
0
  0
VERTEX
  8
0
 10
66.1282
 20
185.425
 30
0.0
 40
0
 41
0
  0
VERTEX
  8
0
 10
67.0272
 20
183.406
 30
0.0
 40
0
 41
0
  0
VERTEX
  8
0
 10
72.5085
 20
185.846
 30
0.0
 40
0
 41
0
  0
SEQEND
 8
0
  0
POLYLINE
  8
0
 62
     0
 66
     1
 10
0
 20
0
 30
0.0
 70
     1
 40
0
 41
0
  0
VERTEX
  8
0
 10
74.7311
 20
211.269
 30
0.0
 40
0
 41
0
  0
VERTEX
  8
0
 10
84.0942
 20
167.221
 30
0.0
 40
0
 41
0
  0
VERTEX
  8
0
 10
84.1079
 20
167.156
 30
0.0
 40
0
 41
0
  0
VERTEX
  8
0
 10
84.1664
 20
166.965
 30
0.0
 40
0
 41
0
  0
VERTEX
  8
0
 10
84.2703
 20
166.725
 30
0.0
 40
0
 41
0
  0
VERTEX
  8
0
 10
84.4037
 20
166.501
 30
0.0
 40
0
 41
0
  0
VERTEX
  8
0
 10
84.5642
 20
166.299
 30
0.0
 40
0
 41
0
  0
VERTEX
  8
0
 10
84.7494
 20
166.117
 30
0.0
 40
0
 41
0
  0
VERTEX
  8
0
 10
84.9575
 20
165.961
 30
0.0
 40
0
 41
0
  0
VERTEX
  8
0
 10
85.1858
 20
165.833
 30
0.0
 40
0
 41
0
  0
VERTEX
  8
0
 10
85.3694
 20
165.754
 30
0.0
 40
0
 41
0
  0
VERTEX
  8
0
 10
85.4324
 20
165.735
 30
0.0
 40
0
 41
0
  0
VERTEX
  8
0
 10
85.4953
 20
165.714
 30
0.0
 40
0
 41
0
  0
VERTEX
  8
0
 10
85.6897
 20
165.669
 30
0.0
 40
0
 41
0
  0
VERTEX
  8
0
 10
85.9501
 20
165.639
 30
0.0
 40
0
 41
0
  0
VERTEX
  8
0
 10
86.21
 20
165.643
 30
0.0
 40
0
 41
0
  0
VERTEX
  8
0
 10
86.4662
 20
165.681
 30
0.0
 40
0
 41
0
  0
VERTEX
  8
0
 10
86.7156
 20
165.75
 30
0.0
 40
0
 41
0
  0
VERTEX
  8
0
 10
86.9546
 20
165.853
 30
0.0
 40
0
 41
0
  0
VERTEX
  8
0
 10
87.18
 20
165.986
 30
0.0
 40
0
 41
0
  0
VERTEX
  8
0
 10
87.3396
 20
166.106
 30
0.0
 40
0
 41
0
  0
VERTEX
  8
0
 10
87.3888
 20
166.15
 30
0.0
 40
0
 41
0
  0
VERTEX
  8
0
 10
120.855
 20
196.283
 30
0.0
 40
0
 41
0
  0
VERTEX
  8
0
 10
120.904
 20
196.328
 30
0.0
 40
0
 41
0
  0
VERTEX
  8
0
 10
121.04
 20
196.474
 30
0.0
 40
0
 41
0
  0
VERTEX
  8
0
 10
121.197
 20
196.683
 30
0.0
 40
0
 41
0
  0
VERTEX
  8
0
 10
121.323
 20
196.911
 30
0.0
 40
0
 41
0
  0
VERTEX
  8
0
 10
121.419
 20
197.151
 30
0.0
 40
0
 41
0
  0
VERTEX
  8
0
 10
121.483
 20
197.403
 30
0.0
 40
0
 41
0
  0
VERTEX
  8
0
 10
121.514
 20
197.661
 30
0.0
 40
0
 41
0
  0
VERTEX
  8
0
 10
121.511
 20
197.922
 30
0.0
 40
0
 41
0
  0
VERTEX
  8
0
 10
121.487
 20
198.121
 30
0.0
 40
0
 41
0
  0
VERTEX
  8
0
 10
121.473
 20
198.185
 30
0.0
 40
0
 41
0
  0
VERTEX
  8
0
 10
121.459
 20
198.25
 30
0.0
 40
0
 41
0
  0
VERTEX
  8
0
 10
121.401
 20
198.44
 30
0.0
 40
0
 41
0
  0
VERTEX
  8
0
 10
121.297
 20
198.682
 30
0.0
 40
0
 41
0
  0
VERTEX
  8
0
 10
121.163
 20
198.904
 30
0.0
 40
0
 41
0
  0
VERTEX
  8
0
 10
121.003
 20
199.108
 30
0.0
 40
0
 41
0
  0
VERTEX
  8
0
 10
120.818
 20
199.289
 30
0.0
 40
0
 41
0
  0
VERTEX
  8
0
 10
120.61
 20
199.444
 30
0.0
 40
0
 41
0
  0
VERTEX
  8
0
 10
120.381
 20
199.574
 30
0.0
 40
0
 41
0
  0
VERTEX
  8
0
 10
120.198
 20
199.651
 30
0.0
 40
0
 41
0
  0
VERTEX
  8
0
 10
120.135
 20
199.672
 30
0.0
 40
0
 41
0
  0
VERTEX
  8
0
 10
77.3056
 20
213.587
 30
0.0
 40
0
 41
0
  0
VERTEX
  8
0
 10
77.2425
 20
213.608
 30
0.0
 40
0
 41
0
  0
VERTEX
  8
0
 10
77.0481
 20
213.653
 30
0.0
 40
0
 41
0
  0
VERTEX
  8
0
 10
76.7878
 20
213.683
 30
0.0
 40
0
 41
0
  0
VERTEX
  8
0
 10
76.5279
 20
213.679
 30
0.0
 40
0
 41
0
  0
VERTEX
  8
0
 10
76.2717
 20
213.642
 30
0.0
 40
0
 41
0
  0
VERTEX
  8
0
 10
76.0224
 20
213.572
 30
0.0
 40
0
 41
0
  0
VERTEX
  8
0
 10
75.7833
 20
213.469
 30
0.0
 40
0
 41
0
  0
VERTEX
  8
0
 10
75.5578
 20
213.336
 30
0.0
 40
0
 41
0
  0
VERTEX
  8
0
 10
75.3985
 20
213.217
 30
0.0
 40
0
 41
0
  0
VERTEX
  8
0
 10
75.3492
 20
213.172
 30
0.0
 40
0
 41
0
  0
VERTEX
  8
0
 10
75.3
 20
213.128
 30
0.0
 40
0
 41
0
  0
VERTEX
  8
0
 10
75.1642
 20
212.982
 30
0.0
 40
0
 41
0
  0
VERTEX
  8
0
 10
75.0078
 20
212.771
 30
0.0
 40
0
 41
0
  0
VERTEX
  8
0
 10
74.8811
 20
212.544
 30
0.0
 40
0
 41
0
  0
VERTEX
  8
0
 10
74.7854
 20
212.304
 30
0.0
 40
0
 41
0
  0
VERTEX
  8
0
 10
74.7214
 20
212.053
 30
0.0
 40
0
 41
0
  0
VERTEX
  8
0
 10
74.6904
 20
211.794
 30
0.0
 40
0
 41
0
  0
VERTEX
  8
0
 10
74.6932
 20
211.532
 30
0.0
 40
0
 41
0
  0
VERTEX
  8
0
 10
74.7174
 20
211.335
 30
0.0
 40
0
 41
0
  0
VERTEX
  8
0
 10
74.7311
 20
211.269
 30
0.0
 40
0
 41
0
  0
SEQEND
 8
0
  0
POLYLINE
  8
0
 62
     0
 66
     1
 10
0
 20
0
 30
0.0
 70
     1
 40
0
 41
0
  0
VERTEX
  8
0
 10
97.6693
 20
206.971
 30
0.0
 40
0
 41
0
  0
VERTEX
  8
0
 10
95.8151
 20
201.265
 30
0.0
 40
0
 41
0
  0
VERTEX
  8
0
 10
97.9169
 20
200.582
 30
0.0
 40
0
 41
0
  0
VERTEX
  8
0
 10
99.7711
 20
206.289
 30
0.0
 40
0
 41
0
  0
SEQEND
 8
0
  0
POLYLINE
  8
0
 62
     0
 66
     1
 10
0
 20
0
 30
0.0
 70
     1
 40
0
 41
0
  0
VERTEX
  8
0
 10
79.6424
 20
188.164
 30
0.0
 40
0
 41
0
  0
VERTEX
  8
0
 10
85.5114
 20
189.411
 30
0.0
 40
0
 41
0
  0
VERTEX
  8
0
 10
85.0518
 20
191.574
 30
0.0
 40
0
 41
0
  0
VERTEX
  8
0
 10
79.1829
 20
190.326
 30
0.0
 40
0
 41
0
  0
SEQEND
 8
0
  0
POLYLINE
  8
0
 62
     0
 66
     1
 10
0
 20
0
 30
0.0
 70
     1
 40
0
 41
0
  0
VERTEX
  8
0
 10
104.943
 20
181.956
 30
0.0
 40
0
 41
0
  0
VERTEX
  8
0
 10
100.928
 20
186.415
 30
0.0
 40
0
 41
0
  0
VERTEX
  8
0
 10
99.286
 20
184.936
 30
0.0
 40
0
 41
0
  0
VERTEX
  8
0
 10
103.301
 20
180.478
 30
0.0
 40
0
 41
0
  0
SEQEND
 8
0
  0
POLYLINE
  8
0
 62
     0
 66
     1
 10
0
 20
0
 30
0.0
 70
     1
 40
0
 41
0
  0
VERTEX
  8
0
 10
46.1676
 20
151.128
 30
0.0
 40
0
 41
0
  0
VERTEX
  8
0
 10
12.7012
 20
181.261
 30
0.0
 40
0
 41
0
  0
VERTEX
  8
0
 10
12.652
 20
181.306
 30
0.0
 40
0
 41
0
  0
VERTEX
  8
0
 10
12.4926
 20
181.425
 30
0.0
 40
0
 41
0
  0
VERTEX
  8
0
 10
12.2671
 20
181.558
 30
0.0
 40
0
 41
0
  0
VERTEX
  8
0
 10
12.0281
 20
181.661
 30
0.0
 40
0
 41
0
  0
VERTEX
  8
0
 10
11.7788
 20
181.731
 30
0.0
 40
0
 41
0
  0
VERTEX
  8
0
 10
11.5225
 20
181.768
 30
0.0
 40
0
 41
0
  0
VERTEX
  8
0
 10
11.2626
 20
181.772
 30
0.0
 40
0
 41
0
  0
VERTEX
  8
0
 10
11.0023
 20
181.742
 30
0.0
 40
0
 41
0
  0
VERTEX
  8
0
 10
10.8079
 20
181.697
 30
0.0
 40
0
 41
0
  0
VERTEX
  8
0
 10
10.745
 20
181.676
 30
0.0
 40
0
 41
0
  0
VERTEX
  8
0
 10
10.682
 20
181.656
 30
0.0
 40
0
 41
0
  0
VERTEX
  8
0
 10
10.4984
 20
181.578
 30
0.0
 40
0
 41
0
  0
VERTEX
  8
0
 10
10.27
 20
181.45
 30
0.0
 40
0
 41
0
  0
VERTEX
  8
0
 10
10.062
 20
181.293
 30
0.0
 40
0
 41
0
  0
VERTEX
  8
0
 10
9.87668
 20
181.112
 30
0.0
 40
0
 41
0
  0
VERTEX
  8
0
 10
9.71619
 20
180.91
 30
0.0
 40
0
 41
0
  0
VERTEX
  8
0
 10
9.58285
 20
180.686
 30
0.0
 40
0
 41
0
  0
VERTEX
  8
0
 10
9.47894
 20
180.446
 30
0.0
 40
0
 41
0
  0
VERTEX
  8
0
 10
9.42042
 20
180.256
 30
0.0
 40
0
 41
0
  0
VERTEX
  8
0
 10
9.40668
 20
180.19
 30
0.0
 40
0
 41
0
  0
VERTEX
  8
0
 10
0.0437283
 20
136.141
 30
0.0
 40
0
 41
0
  0
VERTEX
  8
0
 10
0.0299479
 20
136.076
 30
0.0
 40
0
 41
0
  0
VERTEX
  8
0
 10
0.00580512
 20
135.878
 30
0.0
 40
0
 41
0
  0
VERTEX
  8
0
 10
0.00292969
 20
135.616
 30
0.0
 40
0
 41
0
  0
VERTEX
  8
0
 10
0.0339085
 20
135.358
 30
0.0
 40
0
 41
0
  0
VERTEX
  8
0
 10
0.0978733
 20
135.107
 30
0.0
 40
0
 41
0
  0
VERTEX
  8
0
 10
0.193631
 20
134.867
 30
0.0
 40
0
 41
0
  0
VERTEX
  8
0
 10
0.320258
 20
134.639
 30
0.0
 40
0
 41
0
  0
VERTEX
  8
0
 10
0.476617
 20
134.429
 30
0.0
 40
0
 41
0
  0
VERTEX
  8
0
 10
0.612468
 20
134.283
 30
0.0
 40
0
 41
0
  0
VERTEX
  8
0
 10
0.661729
 20
134.239
 30
0.0
 40
0
 41
0
  0
VERTEX
  8
0
 10
0.710938
 20
134.195
 30
0.0
 40
0
 41
0
  0
VERTEX
  8
0
 10
0.870335
 20
134.075
 30
0.0
 40
0
 41
0
  0
VERTEX
  8
0
 10
1.09587
 20
133.941
 30
0.0
 40
0
 41
0
  0
VERTEX
  8
0
 10
1.33485
 20
133.839
 30
0.0
 40
0
 41
0
  0
VERTEX
  8
0
 10
1.58415
 20
133.769
 30
0.0
 40
0
 41
0
  0
VERTEX
  8
0
 10
1.84039
 20
133.732
 30
0.0
 40
0
 41
0
  0
VERTEX
  8
0
 10
2.10032
 20
133.728
 30
0.0
 40
0
 41
0
  0
VERTEX
  8
0
 10
2.36062
 20
133.758
 30
0.0
 40
0
 41
0
  0
VERTEX
  8
0
 10
2.55507
 20
133.803
 30
0.0
 40
0
 41
0
  0
VERTEX
  8
0
 10
2.61806
 20
133.823
 30
0.0
 40
0
 41
0
  0
VERTEX
  8
0
 10
45.4474
 20
147.739
 30
0.0
 40
0
 41
0
  0
VERTEX
  8
0
 10
45.5103
 20
147.76
 30
0.0
 40
0
 41
0
  0
VERTEX
  8
0
 10
45.6937
 20
147.837
 30
0.0
 40
0
 41
0
  0
VERTEX
  8
0
 10
45.9222
 20
147.967
 30
0.0
 40
0
 41
0
  0
VERTEX
  8
0
 10
46.1303
 20
148.122
 30
0.0
 40
0
 41
0
  0
VERTEX
  8
0
 10
46.3156
 20
148.303
 30
0.0
 40
0
 41
0
  0
VERTEX
  8
0
 10
46.476
 20
148.506
 30
0.0
 40
0
 41
0
  0
VERTEX
  8
0
 10
46.6094
 20
148.729
 30
0.0
 40
0
 41
0
  0
VERTEX
  8
0
 10
46.7133
 20
148.969
 30
0.0
 40
0
 41
0
  0
VERTEX
  8
0
 10
46.7718
 20
149.161
 30
0.0
 40
0
 41
0
  0
VERTEX
  8
0
 10
46.7856
 20
149.225
 30
0.0
 40
0
 41
0
  0
VERTEX
  8
0
 10
46.7993
 20
149.29
 30
0.0
 40
0
 41
0
  0
VERTEX
  8
0
 10
46.8235
 20
149.487
 30
0.0
 40
0
 41
0
  0
VERTEX
  8
0
 10
46.8264
 20
149.75
 30
0.0
 40
0
 41
0
  0
VERTEX
  8
0
 10
46.7953
 20
150.008
 30
0.0
 40
0
 41
0
  0
VERTEX
  8
0
 10
46.7314
 20
150.26
 30
0.0
 40
0
 41
0
  0
VERTEX
  8
0
 10
46.6357
 20
150.5
 30
0.0
 40
0
 41
0
  0
VERTEX
  8
0
 10
46.509
 20
150.726
 30
0.0
 40
0
 41
0
  0
VERTEX
  8
0
 10
46.3526
 20
150.938
 30
0.0
 40
0
 41
0
  0
VERTEX
  8
0
 10
46.2168
 20
151.083
 30
0.0
 40
0
 41
0
  0
VERTEX
  8
0
 10
46.1676
 20
151.128
 30
0.0
 40
0
 41
0
  0
SEQEND
 8
0
  0
POLYLINE
  8
0
 62
     0
 66
     1
 10
0
 20
0
 30
0.0
 70
     1
 40
0
 41
0
  0
VERTEX
  8
0
 10
25.0836
 20
141.122
 30
0.0
 40
0
 41
0
  0
VERTEX
  8
0
 10
23.2294
 20
146.829
 30
0.0
 40
0
 41
0
  0
VERTEX
  8
0
 10
21.1276
 20
146.146
 30
0.0
 40
0
 41
0
  0
VERTEX
  8
0
 10
22.9818
 20
140.44
 30
0.0
 40
0
 41
0
  0
SEQEND
 8
0
  0
POLYLINE
  8
0
 62
     0
 66
     1
 10
0
 20
0
 30
0.0
 70
     1
 40
0
 41
0
  0
VERTEX
  8
0
 10
28.6132
 20
166.933
 30
0.0
 40
0
 41
0
  0
VERTEX
  8
0
 10
24.5985
 20
162.475
 30
0.0
 40
0
 41
0
  0
VERTEX
  8
0
 10
26.2408
 20
160.996
 30
0.0
 40
0
 41
0
  0
VERTEX
  8
0
 10
30.2556
 20
165.454
 30
0.0
 40
0
 41
0
  0
SEQEND
 8
0
  0
POLYLINE
  8
0
 62
     0
 66
     1
 10
0
 20
0
 30
0.0
 70
     1
 40
0
 41
0
  0
VERTEX
  8
0
 10
4.49544
 20
157.085
 30
0.0
 40
0
 41
0
  0
VERTEX
  8
0
 10
10.3644
 20
155.837
 30
0.0
 40
0
 41
0
  0
VERTEX
  8
0
 10
10.8238
 20
157.999
 30
0.0
 40
0
 41
0
  0
VERTEX
  8
0
 10
4.95492
 20
159.246
 30
0.0
 40
0
 41
0
  0
SEQEND
 8
0
  0
POLYLINE
  8
0
 62
     0
 66
     1
 10
0
 20
0
 30
0.0
 70
     1
 40
0
 41
0
  0
VERTEX
  8
0
 10
47.5189
 20
161.197
 30
0.0
 40
0
 41
0
  0
VERTEX
  8
0
 10
56.8818
 20
117.148
 30
0.0
 40
0
 41
0
  0
VERTEX
  8
0
 10
56.8956
 20
117.084
 30
0.0
 40
0
 41
0
  0
VERTEX
  8
0
 10
56.954
 20
116.893
 30
0.0
 40
0
 41
0
  0
VERTEX
  8
0
 10
57.0579
 20
116.652
 30
0.0
 40
0
 41
0
  0
VERTEX
  8
0
 10
57.1913
 20
116.429
 30
0.0
 40
0
 41
0
  0
VERTEX
  8
0
 10
57.3518
 20
116.226
 30
0.0
 40
0
 41
0
  0
VERTEX
  8
0
 10
57.5371
 20
116.045
 30
0.0
 40
0
 41
0
  0
VERTEX
  8
0
 10
57.7451
 20
115.889
 30
0.0
 40
0
 41
0
  0
VERTEX
  8
0
 10
57.9735
 20
115.761
 30
0.0
 40
0
 41
0
  0
VERTEX
  8
0
 10
58.1571
 20
115.682
 30
0.0
 40
0
 41
0
  0
VERTEX
  8
0
 10
58.22
 20
115.662
 30
0.0
 40
0
 41
0
  0
VERTEX
  8
0
 10
58.2831
 20
115.642
 30
0.0
 40
0
 41
0
  0
VERTEX
  8
0
 10
58.4774
 20
115.597
 30
0.0
 40
0
 41
0
  0
VERTEX
  8
0
 10
58.7376
 20
115.567
 30
0.0
 40
0
 41
0
  0
VERTEX
  8
0
 10
58.9976
 20
115.571
 30
0.0
 40
0
 41
0
  0
VERTEX
  8
0
 10
59.2539
 20
115.608
 30
0.0
 40
0
 41
0
  0
VERTEX
  8
0
 10
59.5032
 20
115.678
 30
0.0
 40
0
 41
0
  0
VERTEX
  8
0
 10
59.7422
 20
115.78
 30
0.0
 40
0
 41
0
  0
VERTEX
  8
0
 10
59.9676
 20
115.914
 30
0.0
 40
0
 41
0
  0
VERTEX
  8
0
 10
60.1271
 20
116.034
 30
0.0
 40
0
 41
0
  0
VERTEX
  8
0
 10
60.1764
 20
116.078
 30
0.0
 40
0
 41
0
  0
VERTEX
  8
0
 10
93.6426
 20
146.211
 30
0.0
 40
0
 41
0
  0
VERTEX
  8
0
 10
93.6919
 20
146.256
 30
0.0
 40
0
 41
0
  0
VERTEX
  8
0
 10
93.8278
 20
146.401
 30
0.0
 40
0
 41
0
  0
VERTEX
  8
0
 10
93.9842
 20
146.611
 30
0.0
 40
0
 41
0
  0
VERTEX
  8
0
 10
94.1107
 20
146.839
 30
0.0
 40
0
 41
0
  0
VERTEX
  8
0
 10
94.2065
 20
147.079
 30
0.0
 40
0
 41
0
  0
VERTEX
  8
0
 10
94.2704
 20
147.331
 30
0.0
 40
0
 41
0
  0
VERTEX
  8
0
 10
94.3014
 20
147.589
 30
0.0
 40
0
 41
0
  0
VERTEX
  8
0
 10
94.2986
 20
147.85
 30
0.0
 40
0
 41
0
  0
VERTEX
  8
0
 10
94.2744
 20
148.049
 30
0.0
 40
0
 41
0
  0
VERTEX
  8
0
 10
94.2607
 20
148.114
 30
0.0
 40
0
 41
0
  0
VERTEX
  8
0
 10
94.2469
 20
148.178
 30
0.0
 40
0
 41
0
  0
VERTEX
  8
0
 10
94.1883
 20
148.369
 30
0.0
 40
0
 41
0
  0
VERTEX
  8
0
 10
94.0844
 20
148.61
 30
0.0
 40
0
 41
0
  0
VERTEX
  8
0
 10
93.9511
 20
148.832
 30
0.0
 40
0
 41
0
  0
VERTEX
  8
0
 10
93.7907
 20
149.036
 30
0.0
 40
0
 41
0
  0
VERTEX
  8
0
 10
93.6053
 20
149.217
 30
0.0
 40
0
 41
0
  0
VERTEX
  8
0
 10
93.3974
 20
149.372
 30
0.0
 40
0
 41
0
  0
VERTEX
  8
0
 10
93.1689
 20
149.501
 30
0.0
 40
0
 41
0
  0
VERTEX
  8
0
 10
92.9854
 20
149.579
 30
0.0
 40
0
 41
0
  0
VERTEX
  8
0
 10
92.9224
 20
149.6
 30
0.0
 40
0
 41
0
  0
VERTEX
  8
0
 10
50.0932
 20
163.515
 30
0.0
 40
0
 41
0
  0
VERTEX
  8
0
 10
50.0301
 20
163.536
 30
0.0
 40
0
 41
0
  0
VERTEX
  8
0
 10
49.8357
 20
163.581
 30
0.0
 40
0
 41
0
  0
VERTEX
  8
0
 10
49.5754
 20
163.611
 30
0.0
 40
0
 41
0
  0
VERTEX
  8
0
 10
49.3154
 20
163.607
 30
0.0
 40
0
 41
0
  0
VERTEX
  8
0
 10
49.0593
 20
163.569
 30
0.0
 40
0
 41
0
  0
VERTEX
  8
0
 10
48.81
 20
163.5
 30
0.0
 40
0
 41
0
  0
VERTEX
  8
0
 10
48.571
 20
163.397
 30
0.0
 40
0
 41
0
  0
VERTEX
  8
0
 10
48.3454
 20
163.264
 30
0.0
 40
0
 41
0
  0
VERTEX
  8
0
 10
48.186
 20
163.144
 30
0.0
 40
0
 41
0
  0
VERTEX
  8
0
 10
48.1368
 20
163.1
 30
0.0
 40
0
 41
0
  0
VERTEX
  8
0
 10
48.0876
 20
163.056
 30
0.0
 40
0
 41
0
  0
VERTEX
  8
0
 10
47.9517
 20
162.91
 30
0.0
 40
0
 41
0
  0
VERTEX
  8
0
 10
47.7954
 20
162.699
 30
0.0
 40
0
 41
0
  0
VERTEX
  8
0
 10
47.6687
 20
162.472
 30
0.0
 40
0
 41
0
  0
VERTEX
  8
0
 10
47.5729
 20
162.232
 30
0.0
 40
0
 41
0
  0
VERTEX
  8
0
 10
47.509
 20
161.981
 30
0.0
 40
0
 41
0
  0
VERTEX
  8
0
 10
47.4781
 20
161.722
 30
0.0
 40
0
 41
0
  0
VERTEX
  8
0
 10
47.481
 20
161.461
 30
0.0
 40
0
 41
0
  0
VERTEX
  8
0
 10
47.505
 20
161.263
 30
0.0
 40
0
 41
0
  0
VERTEX
  8
0
 10
47.5189
 20
161.197
 30
0.0
 40
0
 41
0
  0
SEQEND
 8
0
  0
POLYLINE
  8
0
 62
     0
 66
     1
 10
0
 20
0
 30
0.0
 70
     1
 40
0
 41
0
  0
VERTEX
  8
0
 10
70.4568
 20
156.899
 30
0.0
 40
0
 41
0
  0
VERTEX
  8
0
 10
68.6028
 20
151.193
 30
0.0
 40
0
 41
0
  0
VERTEX
  8
0
 10
70.7046
 20
150.51
 30
0.0
 40
0
 41
0
  0
VERTEX
  8
0
 10
72.5588
 20
156.217
 30
0.0
 40
0
 41
0
  0
SEQEND
 8
0
  0
POLYLINE
  8
0
 62
     0
 66
     1
 10
0
 20
0
 30
0.0
 70
     1
 40
0
 41
0
  0
VERTEX
  8
0
 10
52.43
 20
138.092
 30
0.0
 40
0
 41
0
  0
VERTEX
  8
0
 10
58.2989
 20
139.34
 30
0.0
 40
0
 41
0
  0
VERTEX
  8
0
 10
57.8394
 20
141.501
 30
0.0
 40
0
 41
0
  0
VERTEX
  8
0
 10
51.9706
 20
140.254
 30
0.0
 40
0
 41
0
  0
SEQEND
 8
0
  0
POLYLINE
  8
0
 62
     0
 66
     1
 10
0
 20
0
 30
0.0
 70
     1
 40
0
 41
0
  0
VERTEX
  8
0
 10
77.7307
 20
131.884
 30
0.0
 40
0
 41
0
  0
VERTEX
  8
0
 10
73.7158
 20
136.343
 30
0.0
 40
0
 41
0
  0
VERTEX
  8
0
 10
72.0735
 20
134.864
 30
0.0
 40
0
 41
0
  0
VERTEX
  8
0
 10
76.0883
 20
130.405
 30
0.0
 40
0
 41
0
  0
SEQEND
 8
0
  0
POLYLINE
  8
0
 62
     0
 66
     1
 10
0
 20
0
 30
0.0
 70
     1
 40
0
 41
0
  0
VERTEX
  8
0
 10
7.02919
 20
130.184
 30
0.0
 40
0
 41
0
  0
VERTEX
  8
0
 10
16.3922
 20
86.1343
 30
0.0
 40
0
 41
0
  0
VERTEX
  8
0
 10
16.406
 20
86.0696
 30
0.0
 40
0
 41
0
  0
VERTEX
  8
0
 10
16.4644
 20
85.8789
 30
0.0
 40
0
 41
0
  0
VERTEX
  8
0
 10
16.5683
 20
85.6383
 30
0.0
 40
0
 41
0
  0
VERTEX
  8
0
 10
16.7017
 20
85.4151
 30
0.0
 40
0
 41
0
  0
VERTEX
  8
0
 10
16.8622
 20
85.2119
 30
0.0
 40
0
 41
0
  0
VERTEX
  8
0
 10
17.0475
 20
85.0311
 30
0.0
 40
0
 41
0
  0
VERTEX
  8
0
 10
17.2556
 20
84.8751
 30
0.0
 40
0
 41
0
  0
VERTEX
  8
0
 10
17.4839
 20
84.7467
 30
0.0
 40
0
 41
0
  0
VERTEX
  8
0
 10
17.6675
 20
84.6685
 30
0.0
 40
0
 41
0
  0
VERTEX
  8
0
 10
17.7304
 20
84.6481
 30
0.0
 40
0
 41
0
  0
VERTEX
  8
0
 10
17.7935
 20
84.6276
 30
0.0
 40
0
 41
0
  0
VERTEX
  8
0
 10
17.9878
 20
84.5829
 30
0.0
 40
0
 41
0
  0
VERTEX
  8
0
 10
18.2481
 20
84.5526
 30
0.0
 40
0
 41
0
  0
VERTEX
  8
0
 10
18.5081
 20
84.5565
 30
0.0
 40
0
 41
0
  0
VERTEX
  8
0
 10
18.7643
 20
84.5939
 30
0.0
 40
0
 41
0
  0
VERTEX
  8
0
 10
19.0136
 20
84.664
 30
0.0
 40
0
 41
0
  0
VERTEX
  8
0
 10
19.2526
 20
84.7661
 30
0.0
 40
0
 41
0
  0
VERTEX
  8
0
 10
19.4781
 20
84.8997
 30
0.0
 40
0
 41
0
  0
VERTEX
  8
0
 10
19.6375
 20
85.0196
 30
0.0
 40
0
 41
0
  0
VERTEX
  8
0
 10
19.6868
 20
85.0639
 30
0.0
 40
0
 41
0
  0
VERTEX
  8
0
 10
53.1531
 20
115.197
 30
0.0
 40
0
 41
0
  0
VERTEX
  8
0
 10
53.2022
 20
115.241
 30
0.0
 40
0
 41
0
  0
VERTEX
  8
0
 10
53.3382
 20
115.387
 30
0.0
 40
0
 41
0
  0
VERTEX
  8
0
 10
53.4946
 20
115.598
 30
0.0
 40
0
 41
0
  0
VERTEX
  8
0
 10
53.6211
 20
115.825
 30
0.0
 40
0
 41
0
  0
VERTEX
  8
0
 10
53.7169
 20
116.065
 30
0.0
 40
0
 41
0
  0
VERTEX
  8
0
 10
53.7808
 20
116.316
 30
0.0
 40
0
 41
0
  0
VERTEX
  8
0
 10
53.8118
 20
116.574
 30
0.0
 40
0
 41
0
  0
VERTEX
  8
0
 10
53.809
 20
116.836
 30
0.0
 40
0
 41
0
  0
VERTEX
  8
0
 10
53.7849
 20
117.034
 30
0.0
 40
0
 41
0
  0
VERTEX
  8
0
 10
53.7711
 20
117.099
 30
0.0
 40
0
 41
0
  0
VERTEX
  8
0
 10
53.7574
 20
117.164
 30
0.0
 40
0
 41
0
  0
VERTEX
  8
0
 10
53.6988
 20
117.355
 30
0.0
 40
0
 41
0
  0
VERTEX
  8
0
 10
53.5949
 20
117.595
 30
0.0
 40
0
 41
0
  0
VERTEX
  8
0
 10
53.4615
 20
117.818
 30
0.0
 40
0
 41
0
  0
VERTEX
  8
0
 10
53.3011
 20
118.022
 30
0.0
 40
0
 41
0
  0
VERTEX
  8
0
 10
53.1157
 20
118.203
 30
0.0
 40
0
 41
0
  0
VERTEX
  8
0
 10
52.9078
 20
118.358
 30
0.0
 40
0
 41
0
  0
VERTEX
  8
0
 10
52.6793
 20
118.487
 30
0.0
 40
0
 41
0
  0
VERTEX
  8
0
 10
52.4958
 20
118.565
 30
0.0
 40
0
 41
0
  0
VERTEX
  8
0
 10
52.4328
 20
118.586
 30
0.0
 40
0
 41
0
  0
VERTEX
  8
0
 10
9.60357
 20
132.502
 30
0.0
 40
0
 41
0
  0
VERTEX
  8
0
 10
9.54058
 20
132.522
 30
0.0
 40
0
 41
0
  0
VERTEX
  8
0
 10
9.34614
 20
132.567
 30
0.0
 40
0
 41
0
  0
VERTEX
  8
0
 10
9.08583
 20
132.597
 30
0.0
 40
0
 41
0
  0
VERTEX
  8
0
 10
8.8259
 20
132.593
 30
0.0
 40
0
 41
0
  0
VERTEX
  8
0
 10
8.56967
 20
132.556
 30
0.0
 40
0
 41
0
  0
VERTEX
  8
0
 10
8.32036
 20
132.486
 30
0.0
 40
0
 41
0
  0
VERTEX
  8
0
 10
8.08138
 20
132.383
 30
0.0
 40
0
 41
0
  0
VERTEX
  8
0
 10
7.85585
 20
132.25
 30
0.0
 40
0
 41
0
  0
VERTEX
  8
0
 10
7.69646
 20
132.13
 30
0.0
 40
0
 41
0
  0
VERTEX
  8
0
 10
7.64725
 20
132.086
 30
0.0
 40
0
 41
0
  0
VERTEX
  8
0
 10
7.59804
 20
132.041
 30
0.0
 40
0
 41
0
  0
VERTEX
  8
0
 10
7.46213
 20
131.895
 30
0.0
 40
0
 41
0
  0
VERTEX
  8
0
 10
7.30578
 20
131.685
 30
0.0
 40
0
 41
0
  0
VERTEX
  8
0
 10
7.17914
 20
131.458
 30
0.0
 40
0
 41
0
  0
VERTEX
  8
0
 10
7.08339
 20
131.218
 30
0.0
 40
0
 41
0
  0
VERTEX
  8
0
 10
7.01942
 20
130.967
 30
0.0
 40
0
 41
0
  0
VERTEX
  8
0
 10
6.98839
 20
130.708
 30
0.0
 40
0
 41
0
  0
VERTEX
  8
0
 10
6.99126
 20
130.446
 30
0.0
 40
0
 41
0
  0
VERTEX
  8
0
 10
7.0154
 20
130.248
 30
0.0
 40
0
 41
0
  0
VERTEX
  8
0
 10
7.02919
 20
130.184
 30
0.0
 40
0
 41
0
  0
SEQEND
 8
0
  0
POLYLINE
  8
0
 62
     0
 66
     1
 10
0
 20
0
 30
0.0
 70
     1
 40
0
 41
0
  0
VERTEX
  8
0
 10
29.9672
 20
125.885
 30
0.0
 40
0
 41
0
  0
VERTEX
  8
0
 10
28.1132
 20
120.179
 30
0.0
 40
0
 41
0
  0
VERTEX
  8
0
 10
30.215
 20
119.496
 30
0.0
 40
0
 41
0
  0
VERTEX
  8
0
 10
32.0692
 20
125.202
 30
0.0
 40
0
 41
0
  0
SEQEND
 8
0
  0
POLYLINE
  8
0
 62
     0
 66
     1
 10
0
 20
0
 30
0.0
 70
     1
 40
0
 41
0
  0
VERTEX
  8
0
 10
11.9404
 20
107.078
 30
0.0
 40
0
 41
0
  0
VERTEX
  8
0
 10
17.8093
 20
108.326
 30
0.0
 40
0
 41
0
  0
VERTEX
  8
0
 10
17.3499
 20
110.487
 30
0.0
 40
0
 41
0
  0
VERTEX
  8
0
 10
11.481
 20
109.24
 30
0.0
 40
0
 41
0
  0
SEQEND
 8
0
  0
POLYLINE
  8
0
 62
     0
 66
     1
 10
0
 20
0
 30
0.0
 70
     1
 40
0
 41
0
  0
VERTEX
  8
0
 10
37.2411
 20
100.87
 30
0.0
 40
0
 41
0
  0
VERTEX
  8
0
 10
33.2263
 20
105.329
 30
0.0
 40
0
 41
0
  0
VERTEX
  8
0
 10
31.5839
 20
103.85
 30
0.0
 40
0
 41
0
  0
VERTEX
  8
0
 10
35.5988
 20
99.3911
 30
0.0
 40
0
 41
0
  0
SEQEND
 8
0
  0
POLYLINE
  8
0
 62
     0
 66
     1
 10
0
 20
0
 30
0.0
 70
     1
 40
0
 41
0
  0
VERTEX
  8
0
 10
121.141
 20
214.432
 30
0.0
 40
0
 41
0
  0
VERTEX
  8
0
 10
130.504
 20
170.382
 30
0.0
 40
0
 41
0
  0
VERTEX
  8
0
 10
130.518
 20
170.317
 30
0.0
 40
0
 41
0
  0
VERTEX
  8
0
 10
130.576
 20
170.126
 30
0.0
 40
0
 41
0
  0
VERTEX
  8
0
 10
130.68
 20
169.886
 30
0.0
 40
0
 41
0
  0
VERTEX
  8
0
 10
130.813
 20
169.663
 30
0.0
 40
0
 41
0
  0
VERTEX
  8
0
 10
130.974
 20
169.46
 30
0.0
 40
0
 41
0
  0
VERTEX
  8
0
 10
131.159
 20
169.279
 30
0.0
 40
0
 41
0
  0
VERTEX
  8
0
 10
131.367
 20
169.122
 30
0.0
 40
0
 41
0
  0
VERTEX
  8
0
 10
131.596
 20
168.994
 30
0.0
 40
0
 41
0
  0
VERTEX
  8
0
 10
131.779
 20
168.917
 30
0.0
 40
0
 41
0
  0
VERTEX
  8
0
 10
131.842
 20
168.896
 30
0.0
 40
0
 41
0
  0
VERTEX
  8
0
 10
131.905
 20
168.875
 30
0.0
 40
0
 41
0
  0
VERTEX
  8
0
 10
132.1
 20
168.831
 30
0.0
 40
0
 41
0
  0
VERTEX
  8
0
 10
132.36
 20
168.8
 30
0.0
 40
0
 41
0
  0
VERTEX
  8
0
 10
132.62
 20
168.804
 30
0.0
 40
0
 41
0
  0
VERTEX
  8
0
 10
132.876
 20
168.842
 30
0.0
 40
0
 41
0
  0
VERTEX
  8
0
 10
133.125
 20
168.911
 30
0.0
 40
0
 41
0
  0
VERTEX
  8
0
 10
133.364
 20
169.014
 30
0.0
 40
0
 41
0
  0
VERTEX
  8
0
 10
133.59
 20
169.147
 30
0.0
 40
0
 41
0
  0
VERTEX
  8
0
 10
133.749
 20
169.268
 30
0.0
 40
0
 41
0
  0
VERTEX
  8
0
 10
133.798
 20
169.311
 30
0.0
 40
0
 41
0
  0
VERTEX
  8
0
 10
167.265
 20
199.444
 30
0.0
 40
0
 41
0
  0
VERTEX
  8
0
 10
167.314
 20
199.489
 30
0.0
 40
0
 41
0
  0
VERTEX
  8
0
 10
167.45
 20
199.635
 30
0.0
 40
0
 41
0
  0
VERTEX
  8
0
 10
167.607
 20
199.846
 30
0.0
 40
0
 41
0
  0
VERTEX
  8
0
 10
167.733
 20
200.072
 30
0.0
 40
0
 41
0
  0
VERTEX
  8
0
 10
167.829
 20
200.313
 30
0.0
 40
0
 41
0
  0
VERTEX
  8
0
 10
167.893
 20
200.564
 30
0.0
 40
0
 41
0
  0
VERTEX
  8
0
 10
167.924
 20
200.822
 30
0.0
 40
0
 41
0
  0
VERTEX
  8
0
 10
167.921
 20
201.085
 30
0.0
 40
0
 41
0
  0
VERTEX
  8
0
 10
167.897
 20
201.282
 30
0.0
 40
0
 41
0
  0
VERTEX
  8
0
 10
167.883
 20
201.347
 30
0.0
 40
0
 41
0
  0
VERTEX
  8
0
 10
167.869
 20
201.411
 30
0.0
 40
0
 41
0
  0
VERTEX
  8
0
 10
167.811
 20
201.603
 30
0.0
 40
0
 41
0
  0
VERTEX
  8
0
 10
167.707
 20
201.843
 30
0.0
 40
0
 41
0
  0
VERTEX
  8
0
 10
167.574
 20
202.067
 30
0.0
 40
0
 41
0
  0
VERTEX
  8
0
 10
167.413
 20
202.269
 30
0.0
 40
0
 41
0
  0
VERTEX
  8
0
 10
167.228
 20
202.45
 30
0.0
 40
0
 41
0
  0
VERTEX
  8
0
 10
167.019
 20
202.606
 30
0.0
 40
0
 41
0
  0
VERTEX
  8
0
 10
166.792
 20
202.735
 30
0.0
 40
0
 41
0
  0
VERTEX
  8
0
 10
166.607
 20
202.813
 30
0.0
 40
0
 41
0
  0
VERTEX
  8
0
 10
166.544
 20
202.833
 30
0.0
 40
0
 41
0
  0
VERTEX
  8
0
 10
123.715
 20
216.75
 30
0.0
 40
0
 41
0
  0
VERTEX
  8
0
 10
123.652
 20
216.769
 30
0.0
 40
0
 41
0
  0
VERTEX
  8
0
 10
123.458
 20
216.814
 30
0.0
 40
0
 41
0
  0
VERTEX
  8
0
 10
123.198
 20
216.844
 30
0.0
 40
0
 41
0
  0
VERTEX
  8
0
 10
122.938
 20
216.84
 30
0.0
 40
0
 41
0
  0
VERTEX
  8
0
 10
122.681
 20
216.804
 30
0.0
 40
0
 41
0
  0
VERTEX
  8
0
 10
122.432
 20
216.733
 30
0.0
 40
0
 41
0
  0
VERTEX
  8
0
 10
122.193
 20
216.631
 30
0.0
 40
0
 41
0
  0
VERTEX
  8
0
 10
121.968
 20
216.497
 30
0.0
 40
0
 41
0
  0
VERTEX
  8
0
 10
121.808
 20
216.378
 30
0.0
 40
0
 41
0
  0
VERTEX
  8
0
 10
121.759
 20
216.333
 30
0.0
 40
0
 41
0
  0
VERTEX
  8
0
 10
121.71
 20
216.289
 30
0.0
 40
0
 41
0
  0
VERTEX
  8
0
 10
121.574
 20
216.143
 30
0.0
 40
0
 41
0
  0
VERTEX
  8
0
 10
121.417
 20
215.933
 30
0.0
 40
0
 41
0
  0
VERTEX
  8
0
 10
121.291
 20
215.706
 30
0.0
 40
0
 41
0
  0
VERTEX
  8
0
 10
121.195
 20
215.465
 30
0.0
 40
0
 41
0
  0
VERTEX
  8
0
 10
121.131
 20
215.214
 30
0.0
 40
0
 41
0
  0
VERTEX
  8
0
 10
121.1
 20
214.956
 30
0.0
 40
0
 41
0
  0
VERTEX
  8
0
 10
121.103
 20
214.694
 30
0.0
 40
0
 41
0
  0
VERTEX
  8
0
 10
121.127
 20
214.496
 30
0.0
 40
0
 41
0
  0
VERTEX
  8
0
 10
121.141
 20
214.432
 30
0.0
 40
0
 41
0
  0
SEQEND
 8
0
  0
POLYLINE
  8
0
 62
     0
 66
     1
 10
0
 20
0
 30
0.0
 70
     1
 40
0
 41
0
  0
VERTEX
  8
0
 10
144.079
 20
210.133
 30
0.0
 40
0
 41
0
  0
VERTEX
  8
0
 10
142.225
 20
204.426
 30
0.0
 40
0
 41
0
  0
VERTEX
  8
0
 10
144.326
 20
203.743
 30
0.0
 40
0
 41
0
  0
VERTEX
  8
0
 10
146.181
 20
209.45
 30
0.0
 40
0
 41
0
  0
SEQEND
 8
0
  0
POLYLINE
  8
0
 62
     0
 66
     1
 10
0
 20
0
 30
0.0
 70
     1
 40
0
 41
0
  0
VERTEX
  8
0
 10
126.052
 20
191.326
 30
0.0
 40
0
 41
0
  0
VERTEX
  8
0
 10
131.921
 20
192.574
 30
0.0
 40
0
 41
0
  0
VERTEX
  8
0
 10
131.462
 20
194.735
 30
0.0
 40
0
 41
0
  0
VERTEX
  8
0
 10
125.593
 20
193.487
 30
0.0
 40
0
 41
0
  0
SEQEND
 8
0
  0
POLYLINE
  8
0
 62
     0
 66
     1
 10
0
 20
0
 30
0.0
 70
     1
 40
0
 41
0
  0
VERTEX
  8
0
 10
151.353
 20
185.118
 30
0.0
 40
0
 41
0
  0
VERTEX
  8
0
 10
147.337
 20
189.576
 30
0.0
 40
0
 41
0
  0
VERTEX
  8
0
 10
145.696
 20
188.097
 30
0.0
 40
0
 41
0
  0
VERTEX
  8
0
 10
149.711
 20
183.639
 30
0.0
 40
0
 41
0
  0
SEQEND
 8
0
  0
POLYLINE
  8
0
 62
     0
 66
     1
 10
0
 20
0
 30
0.0
 70
     1
 40
0
 41
0
  0
VERTEX
  8
0
 10
100.674
 20
172.658
 30
0.0
 40
0
 41
0
  0
VERTEX
  8
0
 10
110.037
 20
128.609
 30
0.0
 40
0
 41
0
  0
VERTEX
  8
0
 10
110.051
 20
128.544
 30
0.0
 40
0
 41
0
  0
VERTEX
  8
0
 10
110.109
 20
128.354
 30
0.0
 40
0
 41
0
  0
VERTEX
  8
0
 10
110.213
 20
128.113
 30
0.0
 40
0
 41
0
  0
VERTEX
  8
0
 10
110.347
 20
127.89
 30
0.0
 40
0
 41
0
  0
VERTEX
  8
0
 10
110.507
 20
127.687
 30
0.0
 40
0
 41
0
  0
VERTEX
  8
0
 10
110.692
 20
127.506
 30
0.0
 40
0
 41
0
  0
VERTEX
  8
0
 10
110.9
 20
127.35
 30
0.0
 40
0
 41
0
  0
VERTEX
  8
0
 10
111.129
 20
127.222
 30
0.0
 40
0
 41
0
  0
VERTEX
  8
0
 10
111.312
 20
127.143
 30
0.0
 40
0
 41
0
  0
VERTEX
  8
0
 10
111.375
 20
127.123
 30
0.0
 40
0
 41
0
  0
VERTEX
  8
0
 10
111.438
 20
127.102
 30
0.0
 40
0
 41
0
  0
VERTEX
  8
0
 10
111.633
 20
127.058
 30
0.0
 40
0
 41
0
  0
VERTEX
  8
0
 10
111.893
 20
127.028
 30
0.0
 40
0
 41
0
  0
VERTEX
  8
0
 10
112.153
 20
127.031
 30
0.0
 40
0
 41
0
  0
VERTEX
  8
0
 10
112.409
 20
127.069
 30
0.0
 40
0
 41
0
  0
VERTEX
  8
0
 10
112.658
 20
127.139
 30
0.0
 40
0
 41
0
  0
VERTEX
  8
0
 10
112.898
 20
127.241
 30
0.0
 40
0
 41
0
  0
VERTEX
  8
0
 10
113.123
 20
127.375
 30
0.0
 40
0
 41
0
  0
VERTEX
  8
0
 10
113.282
 20
127.494
 30
0.0
 40
0
 41
0
  0
VERTEX
  8
0
 10
113.332
 20
127.539
 30
0.0
 40
0
 41
0
  0
VERTEX
  8
0
 10
146.799
 20
157.672
 30
0.0
 40
0
 41
0
  0
VERTEX
  8
0
 10
146.847
 20
157.717
 30
0.0
 40
0
 41
0
  0
VERTEX
  8
0
 10
146.983
 20
157.862
 30
0.0
 40
0
 41
0
  0
VERTEX
  8
0
 10
147.139
 20
158.072
 30
0.0
 40
0
 41
0
  0
VERTEX
  8
0
 10
147.267
 20
158.3
 30
0.0
 40
0
 41
0
  0
VERTEX
  8
0
 10
147.362
 20
158.54
 30
0.0
 40
0
 41
0
  0
VERTEX
  8
0
 10
147.426
 20
158.792
 30
0.0
 40
0
 41
0
  0
VERTEX
  8
0
 10
147.457
 20
159.049
 30
0.0
 40
0
 41
0
  0
VERTEX
  8
0
 10
147.454
 20
159.311
 30
0.0
 40
0
 41
0
  0
VERTEX
  8
0
 10
147.429
 20
159.51
 30
0.0
 40
0
 41
0
  0
VERTEX
  8
0
 10
147.417
 20
159.574
 30
0.0
 40
0
 41
0
  0
VERTEX
  8
0
 10
147.403
 20
159.639
 30
0.0
 40
0
 41
0
  0
VERTEX
  8
0
 10
147.344
 20
159.829
 30
0.0
 40
0
 41
0
  0
VERTEX
  8
0
 10
147.24
 20
160.071
 30
0.0
 40
0
 41
0
  0
VERTEX
  8
0
 10
147.107
 20
160.293
 30
0.0
 40
0
 41
0
  0
VERTEX
  8
0
 10
146.946
 20
160.497
 30
0.0
 40
0
 41
0
  0
VERTEX
  8
0
 10
146.761
 20
160.678
 30
0.0
 40
0
 41
0
  0
VERTEX
  8
0
 10
146.553
 20
160.833
 30
0.0
 40
0
 41
0
  0
VERTEX
  8
0
 10
146.324
 20
160.962
 30
0.0
 40
0
 41
0
  0
VERTEX
  8
0
 10
146.14
 20
161.04
 30
0.0
 40
0
 41
0
  0
VERTEX
  8
0
 10
146.078
 20
161.06
 30
0.0
 40
0
 41
0
  0
VERTEX
  8
0
 10
103.248
 20
174.976
 30
0.0
 40
0
 41
0
  0
VERTEX
  8
0
 10
103.186
 20
174.997
 30
0.0
 40
0
 41
0
  0
VERTEX
  8
0
 10
102.991
 20
175.042
 30
0.0
 40
0
 41
0
  0
VERTEX
  8
0
 10
102.731
 20
175.072
 30
0.0
 40
0
 41
0
  0
VERTEX
  8
0
 10
102.471
 20
175.068
 30
0.0
 40
0
 41
0
  0
VERTEX
  8
0
 10
102.215
 20
175.031
 30
0.0
 40
0
 41
0
  0
VERTEX
  8
0
 10
101.965
 20
174.961
 30
0.0
 40
0
 41
0
  0
VERTEX
  8
0
 10
101.726
 20
174.858
 30
0.0
 40
0
 41
0
  0
VERTEX
  8
0
 10
101.501
 20
174.725
 30
0.0
 40
0
 41
0
  0
VERTEX
  8
0
 10
101.341
 20
174.606
 30
0.0
 40
0
 41
0
  0
VERTEX
  8
0
 10
101.292
 20
174.561
 30
0.0
 40
0
 41
0
  0
VERTEX
  8
0
 10
101.243
 20
174.517
 30
0.0
 40
0
 41
0
  0
VERTEX
  8
0
 10
101.107
 20
174.371
 30
0.0
 40
0
 41
0
  0
VERTEX
  8
0
 10
100.951
 20
174.16
 30
0.0
 40
0
 41
0
  0
VERTEX
  8
0
 10
100.824
 20
173.933
 30
0.0
 40
0
 41
0
  0
VERTEX
  8
0
 10
100.728
 20
173.693
 30
0.0
 40
0
 41
0
  0
VERTEX
  8
0
 10
100.664
 20
173.442
 30
0.0
 40
0
 41
0
  0
VERTEX
  8
0
 10
100.633
 20
173.183
 30
0.0
 40
0
 41
0
  0
VERTEX
  8
0
 10
100.636
 20
172.921
 30
0.0
 40
0
 41
0
  0
VERTEX
  8
0
 10
100.66
 20
172.724
 30
0.0
 40
0
 41
0
  0
VERTEX
  8
0
 10
100.674
 20
172.658
 30
0.0
 40
0
 41
0
  0
SEQEND
 8
0
  0
POLYLINE
  8
0
 62
     0
 66
     1
 10
0
 20
0
 30
0.0
 70
     1
 40
0
 41
0
  0
VERTEX
  8
0
 10
123.612
 20
168.36
 30
0.0
 40
0
 41
0
  0
VERTEX
  8
0
 10
121.758
 20
162.654
 30
0.0
 40
0
 41
0
  0
VERTEX
  8
0
 10
123.86
 20
161.971
 30
0.0
 40
0
 41
0
  0
VERTEX
  8
0
 10
125.714
 20
167.676
 30
0.0
 40
0
 41
0
  0
SEQEND
 8
0
  0
POLYLINE
  8
0
 62
     0
 66
     1
 10
0
 20
0
 30
0.0
 70
     1
 40
0
 41
0
  0
VERTEX
  8
0
 10
105.585
 20
149.553
 30
0.0
 40
0
 41
0
  0
VERTEX
  8
0
 10
111.454
 20
150.8
 30
0.0
 40
0
 41
0
  0
VERTEX
  8
0
 10
110.995
 20
152.962
 30
0.0
 40
0
 41
0
  0
VERTEX
  8
0
 10
105.126
 20
151.715
 30
0.0
 40
0
 41
0
  0
SEQEND
 8
0
  0
POLYLINE
  8
0
 62
     0
 66
     1
 10
0
 20
0
 30
0.0
 70
     1
 40
0
 41
0
  0
VERTEX
  8
0
 10
130.886
 20
143.344
 30
0.0
 40
0
 41
0
  0
VERTEX
  8
0
 10
126.871
 20
147.804
 30
0.0
 40
0
 41
0
  0
VERTEX
  8
0
 10
125.229
 20
146.325
 30
0.0
 40
0
 41
0
  0
VERTEX
  8
0
 10
129.244
 20
141.865
 30
0.0
 40
0
 41
0
  0
SEQEND
 8
0
  0
POLYLINE
  8
0
 62
     0
 66
     1
 10
0
 20
0
 30
0.0
 70
     1
 40
0
 41
0
  0
VERTEX
  8
0
 10
71.2226
 20
105.131
 30
0.0
 40
0
 41
0
  0
VERTEX
  8
0
 10
116.009
 20
100.423
 30
0.0
 40
0
 41
0
  0
VERTEX
  8
0
 10
116.075
 20
100.417
 30
0.0
 40
0
 41
0
  0
VERTEX
  8
0
 10
116.275
 20
100.413
 30
0.0
 40
0
 41
0
  0
VERTEX
  8
0
 10
116.536
 20
100.438
 30
0.0
 40
0
 41
0
  0
VERTEX
  8
0
 10
116.789
 20
100.496
 30
0.0
 40
0
 41
0
  0
VERTEX
  8
0
 10
117.032
 20
100.585
 30
0.0
 40
0
 41
0
  0
VERTEX
  8
0
 10
117.261
 20
100.706
 30
0.0
 40
0
 41
0
  0
VERTEX
  8
0
 10
117.474
 20
100.855
 30
0.0
 40
0
 41
0
  0
VERTEX
  8
0
 10
117.666
 20
101.033
 30
0.0
 40
0
 41
0
  0
VERTEX
  8
0
 10
117.797
 20
101.183
 30
0.0
 40
0
 41
0
  0
VERTEX
  8
0
 10
117.836
 20
101.237
 30
0.0
 40
0
 41
0
  0
VERTEX
  8
0
 10
117.875
 20
101.291
 30
0.0
 40
0
 41
0
  0
VERTEX
  8
0
 10
117.978
 20
101.462
 30
0.0
 40
0
 41
0
  0
VERTEX
  8
0
 10
118.087
 20
101.7
 30
0.0
 40
0
 41
0
  0
VERTEX
  8
0
 10
118.164
 20
101.948
 30
0.0
 40
0
 41
0
  0
VERTEX
  8
0
 10
118.207
 20
102.203
 30
0.0
 40
0
 41
0
  0
VERTEX
  8
0
 10
118.218
 20
102.462
 30
0.0
 40
0
 41
0
  0
VERTEX
  8
0
 10
118.194
 20
102.721
 30
0.0
 40
0
 41
0
  0
VERTEX
  8
0
 10
118.137
 20
102.977
 30
0.0
 40
0
 41
0
  0
VERTEX
  8
0
 10
118.072
 20
103.166
 30
0.0
 40
0
 41
0
  0
VERTEX
  8
0
 10
118.046
 20
103.226
 30
0.0
 40
0
 41
0
  0
VERTEX
  8
0
 10
99.7288
 20
144.367
 30
0.0
 40
0
 41
0
  0
VERTEX
  8
0
 10
99.7018
 20
144.426
 30
0.0
 40
0
 41
0
  0
VERTEX
  8
0
 10
99.6049
 20
144.601
 30
0.0
 40
0
 41
0
  0
VERTEX
  8
0
 10
99.4532
 20
144.815
 30
0.0
 40
0
 41
0
  0
VERTEX
  8
0
 10
99.2764
 20
145.006
 30
0.0
 40
0
 41
0
  0
VERTEX
  8
0
 10
99.0772
 20
145.171
 30
0.0
 40
0
 41
0
  0
VERTEX
  8
0
 10
98.8583
 20
145.308
 30
0.0
 40
0
 41
0
  0
VERTEX
  8
0
 10
98.6225
 20
145.418
 30
0.0
 40
0
 41
0
  0
VERTEX
  8
0
 10
98.3724
 20
145.496
 30
0.0
 40
0
 41
0
  0
VERTEX
  8
0
 10
98.1765
 20
145.535
 30
0.0
 40
0
 41
0
  0
VERTEX
  8
0
 10
98.1107
 20
145.542
 30
0.0
 40
0
 41
0
  0
VERTEX
  8
0
 10
98.0449
 20
145.549
 30
0.0
 40
0
 41
0
  0
VERTEX
  8
0
 10
97.8454
 20
145.551
 30
0.0
 40
0
 41
0
  0
VERTEX
  8
0
 10
97.5844
 20
145.528
 30
0.0
 40
0
 41
0
  0
VERTEX
  8
0
 10
97.3311
 20
145.469
 30
0.0
 40
0
 41
0
  0
VERTEX
  8
0
 10
97.0882
 20
145.379
 30
0.0
 40
0
 41
0
  0
VERTEX
  8
0
 10
96.8589
 20
145.26
 30
0.0
 40
0
 41
0
  0
VERTEX
  8
0
 10
96.6464
 20
145.11
 30
0.0
 40
0
 41
0
  0
VERTEX
  8
0
 10
96.4536
 20
144.932
 30
0.0
 40
0
 41
0
  0
VERTEX
  8
0
 10
96.3225
 20
144.782
 30
0.0
 40
0
 41
0
  0
VERTEX
  8
0
 10
96.2836
 20
144.728
 30
0.0
 40
0
 41
0
  0
VERTEX
  8
0
 10
69.8137
 20
108.295
 30
0.0
 40
0
 41
0
  0
VERTEX
  8
0
 10
69.7747
 20
108.242
 30
0.0
 40
0
 41
0
  0
VERTEX
  8
0
 10
69.6721
 20
108.071
 30
0.0
 40
0
 41
0
  0
VERTEX
  8
0
 10
69.5629
 20
107.832
 30
0.0
 40
0
 41
0
  0
VERTEX
  8
0
 10
69.4864
 20
107.584
 30
0.0
 40
0
 41
0
  0
VERTEX
  8
0
 10
69.4426
 20
107.329
 30
0.0
 40
0
 41
0
  0
VERTEX
  8
0
 10
69.4324
 20
107.07
 30
0.0
 40
0
 41
0
  0
VERTEX
  8
0
 10
69.4556
 20
106.811
 30
0.0
 40
0
 41
0
  0
VERTEX
  8
0
 10
69.5129
 20
106.556
 30
0.0
 40
0
 41
0
  0
VERTEX
  8
0
 10
69.5776
 20
106.367
 30
0.0
 40
0
 41
0
  0
VERTEX
  8
0
 10
69.6046
 20
106.306
 30
0.0
 40
0
 41
0
  0
VERTEX
  8
0
 10
69.6315
 20
106.246
 30
0.0
 40
0
 41
0
  0
VERTEX
  8
0
 10
69.7285
 20
106.071
 30
0.0
 40
0
 41
0
  0
VERTEX
  8
0
 10
69.8801
 20
105.858
 30
0.0
 40
0
 41
0
  0
VERTEX
  8
0
 10
70.0569
 20
105.667
 30
0.0
 40
0
 41
0
  0
VERTEX
  8
0
 10
70.2561
 20
105.502
 30
0.0
 40
0
 41
0
  0
VERTEX
  8
0
 10
70.475
 20
105.363
 30
0.0
 40
0
 41
0
  0
VERTEX
  8
0
 10
70.7108
 20
105.254
 30
0.0
 40
0
 41
0
  0
VERTEX
  8
0
 10
70.961
 20
105.176
 30
0.0
 40
0
 41
0
  0
VERTEX
  8
0
 10
71.1568
 20
105.138
 30
0.0
 40
0
 41
0
  0
VERTEX
  8
0
 10
71.2226
 20
105.131
 30
0.0
 40
0
 41
0
  0
SEQEND
 8
0
  0
POLYLINE
  8
0
 62
     0
 66
     1
 10
0
 20
0
 30
0.0
 70
     1
 40
0
 41
0
  0
VERTEX
  8
0
 10
82.3992
 20
125.618
 30
0.0
 40
0
 41
0
  0
VERTEX
  8
0
 10
87.2532
 20
122.091
 30
0.0
 40
0
 41
0
  0
VERTEX
  8
0
 10
88.5522
 20
123.879
 30
0.0
 40
0
 41
0
  0
VERTEX
  8
0
 10
83.6982
 20
127.406
 30
0.0
 40
0
 41
0
  0
SEQEND
 8
0
  0
POLYLINE
  8
0
 62
     0
 66
     1
 10
0
 20
0
 30
0.0
 70
     1
 40
0
 41
0
  0
VERTEX
  8
0
 10
94.715
 20
102.662
 30
0.0
 40
0
 41
0
  0
VERTEX
  8
0
 10
95.3421
 20
108.629
 30
0.0
 40
0
 41
0
  0
VERTEX
  8
0
 10
93.1442
 20
108.86
 30
0.0
 40
0
 41
0
  0
VERTEX
  8
0
 10
92.5171
 20
102.893
 30
0.0
 40
0
 41
0
  0
SEQEND
 8
0
  0
POLYLINE
  8
0
 62
     0
 66
     1
 10
0
 20
0
 30
0.0
 70
     1
 40
0
 41
0
  0
VERTEX
  8
0
 10
108.438
 20
124.805
 30
0.0
 40
0
 41
0
  0
VERTEX
  8
0
 10
102.956
 20
122.365
 30
0.0
 40
0
 41
0
  0
VERTEX
  8
0
 10
103.855
 20
120.346
 30
0.0
 40
0
 41
0
  0
VERTEX
  8
0
 10
109.337
 20
122.787
 30
0.0
 40
0
 41
0
  0
SEQEND
 8
0
  0
POLYLINE
  8
0
 62
     0
 66
     1
 10
0
 20
0
 30
0.0
 70
     1
 40
0
 41
0
  0
VERTEX
  8
0
 10
29.3967
 20
72.7263
 30
0.0
 40
0
 41
0
  0
VERTEX
  8
0
 10
74.1833
 20
68.019
 30
0.0
 40
0
 41
0
  0
VERTEX
  8
0
 10
74.2492
 20
68.0121
 30
0.0
 40
0
 41
0
  0
VERTEX
  8
0
 10
74.4486
 20
68.0089
 30
0.0
 40
0
 41
0
  0
VERTEX
  8
0
 10
74.7096
 20
68.0333
 30
0.0
 40
0
 41
0
  0
VERTEX
  8
0
 10
74.9629
 20
68.0912
 30
0.0
 40
0
 41
0
  0
VERTEX
  8
0
 10
75.2058
 20
68.181
 30
0.0
 40
0
 41
0
  0
VERTEX
  8
0
 10
75.4351
 20
68.3014
 30
0.0
 40
0
 41
0
  0
VERTEX
  8
0
 10
75.6476
 20
68.451
 30
0.0
 40
0
 41
0
  0
VERTEX
  8
0
 10
75.8404
 20
68.6285
 30
0.0
 40
0
 41
0
  0
VERTEX
  8
0
 10
75.9715
 20
68.7789
 30
0.0
 40
0
 41
0
  0
VERTEX
  8
0
 10
76.0104
 20
68.8325
 30
0.0
 40
0
 41
0
  0
VERTEX
  8
0
 10
76.0493
 20
68.8861
 30
0.0
 40
0
 41
0
  0
VERTEX
  8
0
 10
76.1519
 20
69.0572
 30
0.0
 40
0
 41
0
  0
VERTEX
  8
0
 10
76.2611
 20
69.2954
 30
0.0
 40
0
 41
0
  0
VERTEX
  8
0
 10
76.3378
 20
69.5437
 30
0.0
 40
0
 41
0
  0
VERTEX
  8
0
 10
76.3814
 20
69.799
 30
0.0
 40
0
 41
0
  0
VERTEX
  8
0
 10
76.3918
 20
70.0578
 30
0.0
 40
0
 41
0
  0
VERTEX
  8
0
 10
76.3685
 20
70.3167
 30
0.0
 40
0
 41
0
  0
VERTEX
  8
0
 10
76.3111
 20
70.5724
 30
0.0
 40
0
 41
0
  0
VERTEX
  8
0
 10
76.2464
 20
70.7611
 30
0.0
 40
0
 41
0
  0
VERTEX
  8
0
 10
76.2194
 20
70.8215
 30
0.0
 40
0
 41
0
  0
VERTEX
  8
0
 10
57.9028
 20
111.962
 30
0.0
 40
0
 41
0
  0
VERTEX
  8
0
 10
57.8758
 20
112.022
 30
0.0
 40
0
 41
0
  0
VERTEX
  8
0
 10
57.7789
 20
112.196
 30
0.0
 40
0
 41
0
  0
VERTEX
  8
0
 10
57.6272
 20
112.41
 30
0.0
 40
0
 41
0
  0
VERTEX
  8
0
 10
57.4504
 20
112.601
 30
0.0
 40
0
 41
0
  0
VERTEX
  8
0
 10
57.2512
 20
112.766
 30
0.0
 40
0
 41
0
  0
VERTEX
  8
0
 10
57.0322
 20
112.905
 30
0.0
 40
0
 41
0
  0
VERTEX
  8
0
 10
56.7964
 20
113.014
 30
0.0
 40
0
 41
0
  0
VERTEX
  8
0
 10
56.5464
 20
113.092
 30
0.0
 40
0
 41
0
  0
VERTEX
  8
0
 10
56.3506
 20
113.13
 30
0.0
 40
0
 41
0
  0
VERTEX
  8
0
 10
56.2847
 20
113.137
 30
0.0
 40
0
 41
0
  0
VERTEX
  8
0
 10
56.2188
 20
113.144
 30
0.0
 40
0
 41
0
  0
VERTEX
  8
0
 10
56.0193
 20
113.147
 30
0.0
 40
0
 41
0
  0
VERTEX
  8
0
 10
55.7585
 20
113.123
 30
0.0
 40
0
 41
0
  0
VERTEX
  8
0
 10
55.505
 20
113.065
 30
0.0
 40
0
 41
0
  0
VERTEX
  8
0
 10
55.2622
 20
112.975
 30
0.0
 40
0
 41
0
  0
VERTEX
  8
0
 10
55.0329
 20
112.855
 30
0.0
 40
0
 41
0
  0
VERTEX
  8
0
 10
54.8203
 20
112.705
 30
0.0
 40
0
 41
0
  0
VERTEX
  8
0
 10
54.6275
 20
112.528
 30
0.0
 40
0
 41
0
  0
VERTEX
  8
0
 10
54.4965
 20
112.377
 30
0.0
 40
0
 41
0
  0
VERTEX
  8
0
 10
54.4576
 20
112.324
 30
0.0
 40
0
 41
0
  0
VERTEX
  8
0
 10
27.9876
 20
75.8908
 30
0.0
 40
0
 41
0
  0
VERTEX
  8
0
 10
27.9488
 20
75.8374
 30
0.0
 40
0
 41
0
  0
VERTEX
  8
0
 10
27.8463
 20
75.6663
 30
0.0
 40
0
 41
0
  0
VERTEX
  8
0
 10
27.7369
 20
75.4281
 30
0.0
 40
0
 41
0
  0
VERTEX
  8
0
 10
27.6603
 20
75.1796
 30
0.0
 40
0
 41
0
  0
VERTEX
  8
0
 10
27.6167
 20
74.9243
 30
0.0
 40
0
 41
0
  0
VERTEX
  8
0
 10
27.6063
 20
74.6657
 30
0.0
 40
0
 41
0
  0
VERTEX
  8
0
 10
27.6296
 20
74.4068
 30
0.0
 40
0
 41
0
  0
VERTEX
  8
0
 10
27.6869
 20
74.1511
 30
0.0
 40
0
 41
0
  0
VERTEX
  8
0
 10
27.7517
 20
73.9624
 30
0.0
 40
0
 41
0
  0
VERTEX
  8
0
 10
27.7786
 20
73.9018
 30
0.0
 40
0
 41
0
  0
VERTEX
  8
0
 10
27.8056
 20
73.8414
 30
0.0
 40
0
 41
0
  0
VERTEX
  8
0
 10
27.9024
 20
73.6669
 30
0.0
 40
0
 41
0
  0
VERTEX
  8
0
 10
28.054
 20
73.4533
 30
0.0
 40
0
 41
0
  0
VERTEX
  8
0
 10
28.231
 20
73.2628
 30
0.0
 40
0
 41
0
  0
VERTEX
  8
0
 10
28.4301
 20
73.0972
 30
0.0
 40
0
 41
0
  0
VERTEX
  8
0
 10
28.649
 20
72.959
 30
0.0
 40
0
 41
0
  0
VERTEX
  8
0
 10
28.8849
 20
72.8497
 30
0.0
 40
0
 41
0
  0
VERTEX
  8
0
 10
29.135
 20
72.7715
 30
0.0
 40
0
 41
0
  0
VERTEX
  8
0
 10
29.3308
 20
72.7332
 30
0.0
 40
0
 41
0
  0
VERTEX
  8
0
 10
29.3967
 20
72.7263
 30
0.0
 40
0
 41
0
  0
SEQEND
 8
0
  0
POLYLINE
  8
0
 62
     0
 66
     1
 10
0
 20
0
 30
0.0
 70
     1
 40
0
 41
0
  0
VERTEX
  8
0
 10
40.5732
 20
93.2133
 30
0.0
 40
0
 41
0
  0
VERTEX
  8
0
 10
45.4272
 20
89.6865
 30
0.0
 40
0
 41
0
  0
VERTEX
  8
0
 10
46.7263
 20
91.4746
 30
0.0
 40
0
 41
0
  0
VERTEX
  8
0
 10
41.8722
 20
95.0012
 30
0.0
 40
0
 41
0
  0
SEQEND
 8
0
  0
POLYLINE
  8
0
 62
     0
 66
     1
 10
0
 20
0
 30
0.0
 70
     1
 40
0
 41
0
  0
VERTEX
  8
0
 10
52.8889
 20
70.2571
 30
0.0
 40
0
 41
0
  0
VERTEX
  8
0
 10
53.5161
 20
76.2243
 30
0.0
 40
0
 41
0
  0
VERTEX
  8
0
 10
51.3182
 20
76.4553
 30
0.0
 40
0
 41
0
  0
VERTEX
  8
0
 10
50.691
 20
70.4881
 30
0.0
 40
0
 41
0
  0
SEQEND
 8
0
  0
POLYLINE
  8
0
 62
     0
 66
     1
 10
0
 20
0
 30
0.0
 70
     1
 40
0
 41
0
  0
VERTEX
  8
0
 10
66.6117
 20
92.4011
 30
0.0
 40
0
 41
0
  0
VERTEX
  8
0
 10
61.1304
 20
89.9606
 30
0.0
 40
0
 41
0
  0
VERTEX
  8
0
 10
62.0293
 20
87.9417
 30
0.0
 40
0
 41
0
  0
VERTEX
  8
0
 10
67.5106
 20
90.3821
 30
0.0
 40
0
 41
0
  0
SEQEND
 8
0
  0
POLYLINE
  8
0
 62
     0
 66
     1
 10
0
 20
0
 30
0.0
 70
     1
 40
0
 41
0
  0
VERTEX
  8
0
 10
91.8318
 20
99.6022
 30
0.0
 40
0
 41
0
  0
VERTEX
  8
0
 10
74.1982
 20
86.7907
 30
0.0
 40
0
 41
0
  0
VERTEX
  8
0
 10
80.9338
 20
66.0613
 30
0.0
 40
0
 41
0
  0
VERTEX
  8
0
 10
102.73
 20
66.0613
 30
0.0
 40
0
 41
0
  0
VERTEX
  8
0
 10
109.465
 20
86.7907
 30
0.0
 40
0
 41
0
  0
VERTEX
  8
0
 10
91.8318
 20
99.6022
 30
0.0
 40
0
 41
0
  0
SEQEND
 8
0
  0
POLYLINE
  8
0
 62
     0
 66
     1
 10
0
 20
0
 30
0.0
 70
     1
 40
0
 41
0
  0
VERTEX
  8
0
 10
88.5957
 20
83.4124
 30
0.0
 40
0
 41
0
  0
VERTEX
  8
0
 10
88.6558
 20
83.495
 30
0.0
 40
0
 41
0
  0
VERTEX
  8
0
 10
88.8528
 20
83.7311
 30
0.0
 40
0
 41
0
  0
VERTEX
  8
0
 10
89.1353
 20
84.0168
 30
0.0
 40
0
 41
0
  0
VERTEX
  8
0
 10
89.4404
 20
84.269
 30
0.0
 40
0
 41
0
  0
VERTEX
  8
0
 10
89.7651
 20
84.4872
 30
0.0
 40
0
 41
0
  0
VERTEX
  8
0
 10
90.1069
 20
84.6711
 30
0.0
 40
0
 41
0
  0
VERTEX
  8
0
 10
90.4629
 20
84.8201
 30
0.0
 40
0
 41
0
  0
VERTEX
  8
0
 10
90.8303
 20
84.9339
 30
0.0
 40
0
 41
0
  0
VERTEX
  8
0
 10
91.2061
 20
85.0119
 30
0.0
 40
0
 41
0
  0
VERTEX
  8
0
 10
91.5876
 20
85.0539
 30
0.0
 40
0
 41
0
  0
VERTEX
  8
0
 10
91.9721
 20
85.0592
 30
0.0
 40
0
 41
0
  0
VERTEX
  8
0
 10
92.3567
 20
85.0274
 30
0.0
 40
0
 41
0
  0
VERTEX
  8
0
 10
92.7386
 20
84.9582
 30
0.0
 40
0
 41
0
  0
VERTEX
  8
0
 10
93.115
 20
84.851
 30
0.0
 40
0
 41
0
  0
VERTEX
  8
0
 10
93.4831
 20
84.7054
 30
0.0
 40
0
 41
0
  0
VERTEX
  8
0
 10
93.84
 20
84.521
 30
0.0
 40
0
 41
0
  0
VERTEX
  8
0
 10
94.1003
 20
84.3574
 30
0.0
 40
0
 41
0
  0
VERTEX
  8
0
 10
94.1831
 20
84.2972
 30
0.0
 40
0
 41
0
  0
VERTEX
  8
0
 10
94.2657
 20
84.2372
 30
0.0
 40
0
 41
0
  0
VERTEX
  8
0
 10
94.5017
 20
84.0401
 30
0.0
 40
0
 41
0
  0
VERTEX
  8
0
 10
94.7874
 20
83.7576
 30
0.0
 40
0
 41
0
  0
VERTEX
  8
0
 10
95.0396
 20
83.4526
 30
0.0
 40
0
 41
0
  0
VERTEX
  8
0
 10
95.2578
 20
83.1278
 30
0.0
 40
0
 41
0
  0
VERTEX
  8
0
 10
95.4417
 20
82.786
 30
0.0
 40
0
 41
0
  0
VERTEX
  8
0
 10
95.5908
 20
82.43
 30
0.0
 40
0
 41
0
  0
VERTEX
  8
0
 10
95.7046
 20
82.0628
 30
0.0
 40
0
 41
0
  0
VERTEX
  8
0
 10
95.7826
 20
81.6869
 30
0.0
 40
0
 41
0
  0
VERTEX
  8
0
 10
95.8244
 20
81.3054
 30
0.0
 40
0
 41
0
  0
VERTEX
  8
0
 10
95.8297
 20
80.921
 30
0.0
 40
0
 41
0
  0
VERTEX
  8
0
 10
95.7981
 20
80.5364
 30
0.0
 40
0
 41
0
  0
VERTEX
  8
0
 10
95.7288
 20
80.1544
 30
0.0
 40
0
 41
0
  0
VERTEX
  8
0
 10
95.6215
 20
79.7781
 30
0.0
 40
0
 41
0
  0
VERTEX
  8
0
 10
95.476
 20
79.41
 30
0.0
 40
0
 41
0
  0
VERTEX
  8
0
 10
95.2915
 20
79.0531
 30
0.0
 40
0
 41
0
  0
VERTEX
  8
0
 10
95.1279
 20
78.7928
 30
0.0
 40
0
 41
0
  0
VERTEX
  8
0
 10
95.0679
 20
78.7101
 30
0.0
 40
0
 41
0
  0
VERTEX
  8
0
 10
95.0078
 20
78.6274
 30
0.0
 40
0
 41
0
  0
VERTEX
  8
0
 10
94.8108
 20
78.3914
 30
0.0
 40
0
 41
0
  0
VERTEX
  8
0
 10
94.5283
 20
78.1057
 30
0.0
 40
0
 41
0
  0
VERTEX
  8
0
 10
94.2232
 20
77.8535
 30
0.0
 40
0
 41
0
  0
VERTEX
  8
0
 10
93.8985
 20
77.6353
 30
0.0
 40
0
 41
0
  0
VERTEX
  8
0
 10
93.5567
 20
77.4514
 30
0.0
 40
0
 41
0
  0
VERTEX
  8
0
 10
93.2007
 20
77.3024
 30
0.0
 40
0
 41
0
  0
VERTEX
  8
0
 10
92.8333
 20
77.1885
 30
0.0
 40
0
 41
0
  0
VERTEX
  8
0
 10
92.4576
 20
77.1104
 30
0.0
 40
0
 41
0
  0
VERTEX
  8
0
 10
92.076
 20
77.0686
 30
0.0
 40
0
 41
0
  0
VERTEX
  8
0
 10
91.6915
 20
77.0633
 30
0.0
 40
0
 41
0
  0
VERTEX
  8
0
 10
91.3069
 20
77.095
 30
0.0
 40
0
 41
0
  0
VERTEX
  8
0
 10
90.925
 20
77.1643
 30
0.0
 40
0
 41
0
  0
VERTEX
  8
0
 10
90.5486
 20
77.2715
 30
0.0
 40
0
 41
0
  0
VERTEX
  8
0
 10
90.1806
 20
77.4171
 30
0.0
 40
0
 41
0
  0
VERTEX
  8
0
 10
89.8236
 20
77.6015
 30
0.0
 40
0
 41
0
  0
VERTEX
  8
0
 10
89.5633
 20
77.7651
 30
0.0
 40
0
 41
0
  0
VERTEX
  8
0
 10
89.4807
 20
77.8251
 30
0.0
 40
0
 41
0
  0
VERTEX
  8
0
 10
89.3979
 20
77.8853
 30
0.0
 40
0
 41
0
  0
VERTEX
  8
0
 10
89.1619
 20
78.0822
 30
0.0
 40
0
 41
0
  0
VERTEX
  8
0
 10
88.8762
 20
78.3647
 30
0.0
 40
0
 41
0
  0
VERTEX
  8
0
 10
88.624
 20
78.6699
 30
0.0
 40
0
 41
0
  0
VERTEX
  8
0
 10
88.4058
 20
78.9946
 30
0.0
 40
0
 41
0
  0
VERTEX
  8
0
 10
88.2219
 20
79.3364
 30
0.0
 40
0
 41
0
  0
VERTEX
  8
0
 10
88.0729
 20
79.6924
 30
0.0
 40
0
 41
0
  0
VERTEX
  8
0
 10
87.959
 20
80.0597
 30
0.0
 40
0
 41
0
  0
VERTEX
  8
0
 10
87.8811
 20
80.4356
 30
0.0
 40
0
 41
0
  0
VERTEX
  8
0
 10
87.8392
 20
80.8171
 30
0.0
 40
0
 41
0
  0
VERTEX
  8
0
 10
87.8339
 20
81.2015
 30
0.0
 40
0
 41
0
  0
VERTEX
  8
0
 10
87.8656
 20
81.5861
 30
0.0
 40
0
 41
0
  0
VERTEX
  8
0
 10
87.9349
 20
81.9681
 30
0.0
 40
0
 41
0
  0
VERTEX
  8
0
 10
88.0421
 20
82.3443
 30
0.0
 40
0
 41
0
  0
VERTEX
  8
0
 10
88.1876
 20
82.7124
 30
0.0
 40
0
 41
0
  0
VERTEX
  8
0
 10
88.3721
 20
83.0693
 30
0.0
 40
0
 41
0
  0
VERTEX
  8
0
 10
88.5357
 20
83.3296
 30
0.0
 40
0
 41
0
  0
VERTEX
  8
0
 10
88.5957
 20
83.4124
 30
0.0
 40
0
 41
0
  0
SEQEND
 8
0
  0
POLYLINE
  8
0
 62
     0
 66
     1
 10
0
 20
0
 30
0.0
 70
     1
 40
0
 41
0
  0
VERTEX
  8
0
 10
101.543
 20
92.5469
 30
0.0
 40
0
 41
0
  0
VERTEX
  8
0
 10
98.0158
 20
87.6929
 30
0.0
 40
0
 41
0
  0
VERTEX
  8
0
 10
96.2279
 20
88.9918
 30
0.0
 40
0
 41
0
  0
VERTEX
  8
0
 10
99.7547
 20
93.846
 30
0.0
 40
0
 41
0
  0
SEQEND
 8
0
  0
POLYLINE
  8
0
 62
     0
 66
     1
 10
0
 20
0
 30
0.0
 70
     1
 40
0
 41
0
  0
VERTEX
  8
0
 10
83.909
 20
93.846
 30
0.0
 40
0
 41
0
  0
VERTEX
  8
0
 10
87.4357
 20
88.9918
 30
0.0
 40
0
 41
0
  0
VERTEX
  8
0
 10
85.6478
 20
87.6929
 30
0.0
 40
0
 41
0
  0
VERTEX
  8
0
 10
82.1211
 20
92.5469
 30
0.0
 40
0
 41
0
  0
SEQEND
 8
0
  0
POLYLINE
  8
0
 62
     0
 66
     1
 10
0
 20
0
 30
0.0
 70
     1
 40
0
 41
0
  0
VERTEX
  8
0
 10
77.2244
 20
77.4769
 30
0.0
 40
0
 41
0
  0
VERTEX
  8
0
 10
82.9308
 20
79.331
 30
0.0
 40
0
 41
0
  0
VERTEX
  8
0
 10
83.6137
 20
77.2292
 30
0.0
 40
0
 41
0
  0
VERTEX
  8
0
 10
77.9075
 20
75.375
 30
0.0
 40
0
 41
0
  0
SEQEND
 8
0
  0
POLYLINE
  8
0
 62
     0
 66
     1
 10
0
 20
0
 30
0.0
 70
     1
 40
0
 41
0
  0
VERTEX
  8
0
 10
90.7268
 20
66.0613
 30
0.0
 40
0
 41
0
  0
VERTEX
  8
0
 10
90.7268
 20
72.0613
 30
0.0
 40
0
 41
0
  0
VERTEX
  8
0
 10
92.9368
 20
72.0613
 30
0.0
 40
0
 41
0
  0
VERTEX
  8
0
 10
92.9368
 20
66.0613
 30
0.0
 40
0
 41
0
  0
SEQEND
 8
0
  0
POLYLINE
  8
0
 62
     0
 66
     1
 10
0
 20
0
 30
0.0
 70
     1
 40
0
 41
0
  0
VERTEX
  8
0
 10
105.756
 20
75.375
 30
0.0
 40
0
 41
0
  0
VERTEX
  8
0
 10
100.05
 20
77.2292
 30
0.0
 40
0
 41
0
  0
VERTEX
  8
0
 10
100.733
 20
79.331
 30
0.0
 40
0
 41
0
  0
VERTEX
  8
0
 10
106.439
 20
77.4769
 30
0.0
 40
0
 41
0
  0
SEQEND
 8
0
  0
POLYLINE
  8
0
 62
     0
 66
     1
 10
0
 20
0
 30
0.0
 70
     1
 40
0
 41
0
  0
VERTEX
  8
0
 10
142.828
 20
103.786
 30
0.0
 40
0
 41
0
  0
VERTEX
  8
0
 10
149.563
 20
124.515
 30
0.0
 40
0
 41
0
  0
VERTEX
  8
0
 10
131.929
 20
137.327
 30
0.0
 40
0
 41
0
  0
VERTEX
  8
0
 10
114.296
 20
124.515
 30
0.0
 40
0
 41
0
  0
VERTEX
  8
0
 10
121.031
 20
103.786
 30
0.0
 40
0
 41
0
  0
VERTEX
  8
0
 10
142.828
 20
103.786
 30
0.0
 40
0
 41
0
  0
SEQEND
 8
0
  0
POLYLINE
  8
0
 62
     0
 66
     1
 10
0
 20
0
 30
0.0
 70
     1
 40
0
 41
0
  0
VERTEX
  8
0
 10
135.929
 20
118.786
 30
0.0
 40
0
 41
0
  0
VERTEX
  8
0
 10
135.929
 20
118.684
 30
0.0
 40
0
 41
0
  0
VERTEX
  8
0
 10
135.908
 20
118.377
 30
0.0
 40
0
 41
0
  0
VERTEX
  8
0
 10
135.848
 20
117.98
 30
0.0
 40
0
 41
0
  0
VERTEX
  8
0
 10
135.749
 20
117.597
 30
0.0
 40
0
 41
0
  0
VERTEX
  8
0
 10
135.615
 20
117.229
 30
0.0
 40
0
 41
0
  0
VERTEX
  8
0
 10
135.446
 20
116.879
 30
0.0
 40
0
 41
0
  0
VERTEX
  8
0
 10
135.246
 20
116.55
 30
0.0
 40
0
 41
0
  0
VERTEX
  8
0
 10
135.016
 20
116.242
 30
0.0
 40
0
 41
0
  0
VERTEX
  8
0
 10
134.758
 20
115.958
 30
0.0
 40
0
 41
0
  0
VERTEX
  8
0
 10
134.473
 20
115.699
 30
0.0
 40
0
 41
0
  0
VERTEX
  8
0
 10
134.166
 20
115.469
 30
0.0
 40
0
 41
0
  0
VERTEX
  8
0
 10
133.836
 20
115.269
 30
0.0
 40
0
 41
0
  0
VERTEX
  8
0
 10
133.486
 20
115.1
 30
0.0
 40
0
 41
0
  0
VERTEX
  8
0
 10
133.119
 20
114.966
 30
0.0
 40
0
 41
0
  0
VERTEX
  8
0
 10
132.735
 20
114.867
 30
0.0
 40
0
 41
0
  0
VERTEX
  8
0
 10
132.338
 20
114.807
 30
0.0
 40
0
 41
0
  0
VERTEX
  8
0
 10
132.031
 20
114.786
 30
0.0
 40
0
 41
0
  0
VERTEX
  8
0
 10
131.929
 20
114.786
 30
0.0
 40
0
 41
0
  0
VERTEX
  8
0
 10
131.827
 20
114.786
 30
0.0
 40
0
 41
0
  0
VERTEX
  8
0
 10
131.52
 20
114.807
 30
0.0
 40
0
 41
0
  0
VERTEX
  8
0
 10
131.123
 20
114.867
 30
0.0
 40
0
 41
0
  0
VERTEX
  8
0
 10
130.74
 20
114.966
 30
0.0
 40
0
 41
0
  0
VERTEX
  8
0
 10
130.372
 20
115.1
 30
0.0
 40
0
 41
0
  0
VERTEX
  8
0
 10
130.023
 20
115.269
 30
0.0
 40
0
 41
0
  0
VERTEX
  8
0
 10
129.693
 20
115.469
 30
0.0
 40
0
 41
0
  0
VERTEX
  8
0
 10
129.385
 20
115.699
 30
0.0
 40
0
 41
0
  0
VERTEX
  8
0
 10
129.101
 20
115.958
 30
0.0
 40
0
 41
0
  0
VERTEX
  8
0
 10
128.843
 20
116.242
 30
0.0
 40
0
 41
0
  0
VERTEX
  8
0
 10
128.612
 20
116.55
 30
0.0
 40
0
 41
0
  0
VERTEX
  8
0
 10
128.412
 20
116.879
 30
0.0
 40
0
 41
0
  0
VERTEX
  8
0
 10
128.243
 20
117.229
 30
0.0
 40
0
 41
0
  0
VERTEX
  8
0
 10
128.109
 20
117.597
 30
0.0
 40
0
 41
0
  0
VERTEX
  8
0
 10
128.01
 20
117.98
 30
0.0
 40
0
 41
0
  0
VERTEX
  8
0
 10
127.95
 20
118.377
 30
0.0
 40
0
 41
0
  0
VERTEX
  8
0
 10
127.929
 20
118.684
 30
0.0
 40
0
 41
0
  0
VERTEX
  8
0
 10
127.929
 20
118.786
 30
0.0
 40
0
 41
0
  0
VERTEX
  8
0
 10
127.929
 20
118.888
 30
0.0
 40
0
 41
0
  0
VERTEX
  8
0
 10
127.95
 20
119.195
 30
0.0
 40
0
 41
0
  0
VERTEX
  8
0
 10
128.01
 20
119.592
 30
0.0
 40
0
 41
0
  0
VERTEX
  8
0
 10
128.109
 20
119.975
 30
0.0
 40
0
 41
0
  0
VERTEX
  8
0
 10
128.243
 20
120.343
 30
0.0
 40
0
 41
0
  0
VERTEX
  8
0
 10
128.412
 20
120.693
 30
0.0
 40
0
 41
0
  0
VERTEX
  8
0
 10
128.612
 20
121.023
 30
0.0
 40
0
 41
0
  0
VERTEX
  8
0
 10
128.843
 20
121.33
 30
0.0
 40
0
 41
0
  0
VERTEX
  8
0
 10
129.101
 20
121.614
 30
0.0
 40
0
 41
0
  0
VERTEX
  8
0
 10
129.385
 20
121.873
 30
0.0
 40
0
 41
0
  0
VERTEX
  8
0
 10
129.693
 20
122.103
 30
0.0
 40
0
 41
0
  0
VERTEX
  8
0
 10
130.023
 20
122.303
 30
0.0
 40
0
 41
0
  0
VERTEX
  8
0
 10
130.372
 20
122.472
 30
0.0
 40
0
 41
0
  0
VERTEX
  8
0
 10
130.74
 20
122.606
 30
0.0
 40
0
 41
0
  0
VERTEX
  8
0
 10
131.123
 20
122.705
 30
0.0
 40
0
 41
0
  0
VERTEX
  8
0
 10
131.52
 20
122.765
 30
0.0
 40
0
 41
0
  0
VERTEX
  8
0
 10
131.827
 20
122.786
 30
0.0
 40
0
 41
0
  0
VERTEX
  8
0
 10
131.929
 20
122.786
 30
0.0
 40
0
 41
0
  0
VERTEX
  8
0
 10
132.031
 20
122.786
 30
0.0
 40
0
 41
0
  0
VERTEX
  8
0
 10
132.338
 20
122.765
 30
0.0
 40
0
 41
0
  0
VERTEX
  8
0
 10
132.735
 20
122.705
 30
0.0
 40
0
 41
0
  0
VERTEX
  8
0
 10
133.119
 20
122.606
 30
0.0
 40
0
 41
0
  0
VERTEX
  8
0
 10
133.486
 20
122.472
 30
0.0
 40
0
 41
0
  0
VERTEX
  8
0
 10
133.836
 20
122.303
 30
0.0
 40
0
 41
0
  0
VERTEX
  8
0
 10
134.166
 20
122.103
 30
0.0
 40
0
 41
0
  0
VERTEX
  8
0
 10
134.473
 20
121.873
 30
0.0
 40
0
 41
0
  0
VERTEX
  8
0
 10
134.758
 20
121.614
 30
0.0
 40
0
 41
0
  0
VERTEX
  8
0
 10
135.016
 20
121.33
 30
0.0
 40
0
 41
0
  0
VERTEX
  8
0
 10
135.246
 20
121.023
 30
0.0
 40
0
 41
0
  0
VERTEX
  8
0
 10
135.446
 20
120.693
 30
0.0
 40
0
 41
0
  0
VERTEX
  8
0
 10
135.615
 20
120.343
 30
0.0
 40
0
 41
0
  0
VERTEX
  8
0
 10
135.749
 20
119.975
 30
0.0
 40
0
 41
0
  0
VERTEX
  8
0
 10
135.848
 20
119.592
 30
0.0
 40
0
 41
0
  0
VERTEX
  8
0
 10
135.908
 20
119.195
 30
0.0
 40
0
 41
0
  0
VERTEX
  8
0
 10
135.929
 20
118.888
 30
0.0
 40
0
 41
0
  0
VERTEX
  8
0
 10
135.929
 20
118.786
 30
0.0
 40
0
 41
0
  0
SEQEND
 8
0
  0
POLYLINE
  8
0
 62
     0
 66
     1
 10
0
 20
0
 30
0.0
 70
     1
 40
0
 41
0
  0
VERTEX
  8
0
 10
130.824
 20
103.786
 30
0.0
 40
0
 41
0
  0
VERTEX
  8
0
 10
130.824
 20
109.786
 30
0.0
 40
0
 41
0
  0
VERTEX
  8
0
 10
133.034
 20
109.786
 30
0.0
 40
0
 41
0
  0
VERTEX
  8
0
 10
133.034
 20
103.786
 30
0.0
 40
0
 41
0
  0
SEQEND
 8
0
  0
POLYLINE
  8
0
 62
     0
 66
     1
 10
0
 20
0
 30
0.0
 70
     1
 40
0
 41
0
  0
VERTEX
  8
0
 10
145.854
 20
113.1
 30
0.0
 40
0
 41
0
  0
VERTEX
  8
0
 10
140.147
 20
114.954
 30
0.0
 40
0
 41
0
  0
VERTEX
  8
0
 10
140.831
 20
117.056
 30
0.0
 40
0
 41
0
  0
VERTEX
  8
0
 10
146.536
 20
115.202
 30
0.0
 40
0
 41
0
  0
SEQEND
 8
0
  0
POLYLINE
  8
0
 62
     0
 66
     1
 10
0
 20
0
 30
0.0
 70
     1
 40
0
 41
0
  0
VERTEX
  8
0
 10
141.64
 20
130.272
 30
0.0
 40
0
 41
0
  0
VERTEX
  8
0
 10
138.113
 20
125.418
 30
0.0
 40
0
 41
0
  0
VERTEX
  8
0
 10
136.325
 20
126.717
 30
0.0
 40
0
 41
0
  0
VERTEX
  8
0
 10
139.851
 20
131.571
 30
0.0
 40
0
 41
0
  0
SEQEND
 8
0
  0
POLYLINE
  8
0
 62
     0
 66
     1
 10
0
 20
0
 30
0.0
 70
     1
 40
0
 41
0
  0
VERTEX
  8
0
 10
124.006
 20
131.571
 30
0.0
 40
0
 41
0
  0
VERTEX
  8
0
 10
127.533
 20
126.717
 30
0.0
 40
0
 41
0
  0
VERTEX
  8
0
 10
125.745
 20
125.418
 30
0.0
 40
0
 41
0
  0
VERTEX
  8
0
 10
122.218
 20
130.272
 30
0.0
 40
0
 41
0
  0
SEQEND
 8
0
  0
POLYLINE
  8
0
 62
     0
 66
     1
 10
0
 20
0
 30
0.0
 70
     1
 40
0
 41
0
  0
VERTEX
  8
0
 10
117.322
 20
115.202
 30
0.0
 40
0
 41
0
  0
VERTEX
  8
0
 10
123.028
 20
117.056
 30
0.0
 40
0
 41
0
  0
VERTEX
  8
0
 10
123.711
 20
114.954
 30
0.0
 40
0
 41
0
  0
VERTEX
  8
0
 10
118.005
 20
113.1
 30
0.0
 40
0
 41
0
  0
SEQEND
 8
0
  0
POLYLINE
  8
0
 62
     0
 66
     1
 10
0
 20
0
 30
0.0
 70
     1
 40
0
 41
0
  0
VERTEX
  8
0
 10
152.149
 20
154.861
 30
0.0
 40
0
 41
0
  0
VERTEX
  8
0
 10
173.944
 20
154.861
 30
0.0
 40
0
 41
0
  0
VERTEX
  8
0
 10
180.681
 20
175.59
 30
0.0
 40
0
 41
0
  0
VERTEX
  8
0
 10
163.047
 20
188.401
 30
0.0
 40
0
 41
0
  0
VERTEX
  8
0
 10
145.413
 20
175.59
 30
0.0
 40
0
 41
0
  0
VERTEX
  8
0
 10
152.149
 20
154.861
 30
0.0
 40
0
 41
0
  0
SEQEND
 8
0
  0
POLYLINE
  8
0
 62
     0
 66
     1
 10
0
 20
0
 30
0.0
 70
     1
 40
0
 41
0
  0
VERTEX
  8
0
 10
164.283
 20
166.057
 30
0.0
 40
0
 41
0
  0
VERTEX
  8
0
 10
164.186
 20
166.025
 30
0.0
 40
0
 41
0
  0
VERTEX
  8
0
 10
163.888
 20
165.95
 30
0.0
 40
0
 41
0
  0
VERTEX
  8
0
 10
163.49
 20
165.885
 30
0.0
 40
0
 41
0
  0
VERTEX
  8
0
 10
163.096
 20
165.86
 30
0.0
 40
0
 41
0
  0
VERTEX
  8
0
 10
162.704
 20
165.875
 30
0.0
 40
0
 41
0
  0
VERTEX
  8
0
 10
162.321
 20
165.926
 30
0.0
 40
0
 41
0
  0
VERTEX
  8
0
 10
161.944
 20
166.015
 30
0.0
 40
0
 41
0
  0
VERTEX
  8
0
 10
161.581
 20
166.139
 30
0.0
 40
0
 41
0
  0
VERTEX
  8
0
 10
161.231
 20
166.297
 30
0.0
 40
0
 41
0
  0
VERTEX
  8
0
 10
160.897
 20
166.487
 30
0.0
 40
0
 41
0
  0
VERTEX
  8
0
 10
160.583
 20
166.708
 30
0.0
 40
0
 41
0
  0
VERTEX
  8
0
 10
160.29
 20
166.961
 30
0.0
 40
0
 41
0
  0
VERTEX
  8
0
 10
160.022
 20
167.242
 30
0.0
 40
0
 41
0
  0
VERTEX
  8
0
 10
159.781
 20
167.549
 30
0.0
 40
0
 41
0
  0
VERTEX
  8
0
 10
159.569
 20
167.883
 30
0.0
 40
0
 41
0
  0
VERTEX
  8
0
 10
159.389
 20
168.242
 30
0.0
 40
0
 41
0
  0
VERTEX
  8
0
 10
159.274
 20
168.528
 30
0.0
 40
0
 41
0
  0
VERTEX
  8
0
 10
159.243
 20
168.625
 30
0.0
 40
0
 41
0
  0
VERTEX
  8
0
 10
159.211
 20
168.722
 30
0.0
 40
0
 41
0
  0
VERTEX
  8
0
 10
159.136
 20
169.019
 30
0.0
 40
0
 41
0
  0
VERTEX
  8
0
 10
159.071
 20
169.417
 30
0.0
 40
0
 41
0
  0
VERTEX
  8
0
 10
159.046
 20
169.811
 30
0.0
 40
0
 41
0
  0
VERTEX
  8
0
 10
159.06
 20
170.203
 30
0.0
 40
0
 41
0
  0
VERTEX
  8
0
 10
159.112
 20
170.587
 30
0.0
 40
0
 41
0
  0
VERTEX
  8
0
 10
159.201
 20
170.962
 30
0.0
 40
0
 41
0
  0
VERTEX
  8
0
 10
159.325
 20
171.326
 30
0.0
 40
0
 41
0
  0
VERTEX
  8
0
 10
159.483
 20
171.676
 30
0.0
 40
0
 41
0
  0
VERTEX
  8
0
 10
159.674
 20
172.01
 30
0.0
 40
0
 41
0
  0
VERTEX
  8
0
 10
159.894
 20
172.325
 30
0.0
 40
0
 41
0
  0
VERTEX
  8
0
 10
160.146
 20
172.617
 30
0.0
 40
0
 41
0
  0
VERTEX
  8
0
 10
160.426
 20
172.885
 30
0.0
 40
0
 41
0
  0
VERTEX
  8
0
 10
160.735
 20
173.126
 30
0.0
 40
0
 41
0
  0
VERTEX
  8
0
 10
161.069
 20
173.339
 30
0.0
 40
0
 41
0
  0
VERTEX
  8
0
 10
161.428
 20
173.519
 30
0.0
 40
0
 41
0
  0
VERTEX
  8
0
 10
161.714
 20
173.633
 30
0.0
 40
0
 41
0
  0
VERTEX
  8
0
 10
161.811
 20
173.665
 30
0.0
 40
0
 41
0
  0
VERTEX
  8
0
 10
161.908
 20
173.697
 30
0.0
 40
0
 41
0
  0
VERTEX
  8
0
 10
162.206
 20
173.772
 30
0.0
 40
0
 41
0
  0
VERTEX
  8
0
 10
162.603
 20
173.837
 30
0.0
 40
0
 41
0
  0
VERTEX
  8
0
 10
162.997
 20
173.861
 30
0.0
 40
0
 41
0
  0
VERTEX
  8
0
 10
163.389
 20
173.847
 30
0.0
 40
0
 41
0
  0
VERTEX
  8
0
 10
163.774
 20
173.796
 30
0.0
 40
0
 41
0
  0
VERTEX
  8
0
 10
164.149
 20
173.707
 30
0.0
 40
0
 41
0
  0
VERTEX
  8
0
 10
164.513
 20
173.582
 30
0.0
 40
0
 41
0
  0
VERTEX
  8
0
 10
164.862
 20
173.425
 30
0.0
 40
0
 41
0
  0
VERTEX
  8
0
 10
165.196
 20
173.235
 30
0.0
 40
0
 41
0
  0
VERTEX
  8
0
 10
165.51
 20
173.013
 30
0.0
 40
0
 41
0
  0
VERTEX
  8
0
 10
165.803
 20
172.761
 30
0.0
 40
0
 41
0
  0
VERTEX
  8
0
 10
166.071
 20
172.481
 30
0.0
 40
0
 41
0
  0
VERTEX
  8
0
 10
166.313
 20
172.172
 30
0.0
 40
0
 41
0
  0
VERTEX
  8
0
 10
166.525
 20
171.839
 30
0.0
 40
0
 41
0
  0
VERTEX
  8
0
 10
166.706
 20
171.479
 30
0.0
 40
0
 41
0
  0
VERTEX
  8
0
 10
166.819
 20
171.194
 30
0.0
 40
0
 41
0
  0
VERTEX
  8
0
 10
166.851
 20
171.097
 30
0.0
 40
0
 41
0
  0
VERTEX
  8
0
 10
166.882
 20
171
 30
0.0
 40
0
 41
0
  0
VERTEX
  8
0
 10
166.958
 20
170.701
 30
0.0
 40
0
 41
0
  0
VERTEX
  8
0
 10
167.022
 20
170.306
 30
0.0
 40
0
 41
0
  0
VERTEX
  8
0
 10
167.047
 20
169.91
 30
0.0
 40
0
 41
0
  0
VERTEX
  8
0
 10
167.033
 20
169.519
 30
0.0
 40
0
 41
0
  0
VERTEX
  8
0
 10
166.981
 20
169.135
 30
0.0
 40
0
 41
0
  0
VERTEX
  8
0
 10
166.892
 20
168.758
 30
0.0
 40
0
 41
0
  0
VERTEX
  8
0
 10
166.768
 20
168.394
 30
0.0
 40
0
 41
0
  0
VERTEX
  8
0
 10
166.611
 20
168.044
 30
0.0
 40
0
 41
0
  0
VERTEX
  8
0
 10
166.421
 20
167.711
 30
0.0
 40
0
 41
0
  0
VERTEX
  8
0
 10
166.199
 20
167.397
 30
0.0
 40
0
 41
0
  0
VERTEX
  8
0
 10
165.947
 20
167.106
 30
0.0
 40
0
 41
0
  0
VERTEX
  8
0
 10
165.667
 20
166.836
 30
0.0
 40
0
 41
0
  0
VERTEX
  8
0
 10
165.358
 20
166.596
 30
0.0
 40
0
 41
0
  0
VERTEX
  8
0
 10
165.025
 20
166.383
 30
0.0
 40
0
 41
0
  0
VERTEX
  8
0
 10
164.665
 20
166.203
 30
0.0
 40
0
 41
0
  0
VERTEX
  8
0
 10
164.381
 20
166.089
 30
0.0
 40
0
 41
0
  0
VERTEX
  8
0
 10
164.283
 20
166.057
 30
0.0
 40
0
 41
0
  0
SEQEND
 8
0
  0
POLYLINE
  8
0
 62
     0
 66
     1
 10
0
 20
0
 30
0.0
 70
     1
 40
0
 41
0
  0
VERTEX
  8
0
 10
148.439
 20
166.276
 30
0.0
 40
0
 41
0
  0
VERTEX
  8
0
 10
154.146
 20
168.131
 30
0.0
 40
0
 41
0
  0
VERTEX
  8
0
 10
154.829
 20
166.029
 30
0.0
 40
0
 41
0
  0
VERTEX
  8
0
 10
149.122
 20
164.175
 30
0.0
 40
0
 41
0
  0
SEQEND
 8
0
  0
POLYLINE
  8
0
 62
     0
 66
     1
 10
0
 20
0
 30
0.0
 70
     1
 40
0
 41
0
  0
VERTEX
  8
0
 10
161.942
 20
154.861
 30
0.0
 40
0
 41
0
  0
VERTEX
  8
0
 10
161.942
 20
160.861
 30
0.0
 40
0
 41
0
  0
VERTEX
  8
0
 10
164.151
 20
160.861
 30
0.0
 40
0
 41
0
  0
VERTEX
  8
0
 10
164.151
 20
154.861
 30
0.0
 40
0
 41
0
  0
SEQEND
 8
0
  0
POLYLINE
  8
0
 62
     0
 66
     1
 10
0
 20
0
 30
0.0
 70
     1
 40
0
 41
0
  0
VERTEX
  8
0
 10
176.971
 20
164.175
 30
0.0
 40
0
 41
0
  0
VERTEX
  8
0
 10
171.265
 20
166.029
 30
0.0
 40
0
 41
0
  0
VERTEX
  8
0
 10
171.947
 20
168.131
 30
0.0
 40
0
 41
0
  0
VERTEX
  8
0
 10
177.654
 20
166.276
 30
0.0
 40
0
 41
0
  0
SEQEND
 8
0
  0
POLYLINE
  8
0
 62
     0
 66
     1
 10
0
 20
0
 30
0.0
 70
     1
 40
0
 41
0
  0
VERTEX
  8
0
 10
172.757
 20
181.347
 30
0.0
 40
0
 41
0
  0
VERTEX
  8
0
 10
169.231
 20
176.493
 30
0.0
 40
0
 41
0
  0
VERTEX
  8
0
 10
167.443
 20
177.792
 30
0.0
 40
0
 41
0
  0
VERTEX
  8
0
 10
170.969
 20
182.646
 30
0.0
 40
0
 41
0
  0
SEQEND
 8
0
  0
POLYLINE
  8
0
 62
     0
 66
     1
 10
0
 20
0
 30
0.0
 70
     1
 40
0
 41
0
  0
VERTEX
  8
0
 10
155.124
 20
182.646
 30
0.0
 40
0
 41
0
  0
VERTEX
  8
0
 10
158.65
 20
177.792
 30
0.0
 40
0
 41
0
  0
VERTEX
  8
0
 10
156.862
 20
176.493
 30
0.0
 40
0
 41
0
  0
VERTEX
  8
0
 10
153.336
 20
181.347
 30
0.0
 40
0
 41
0
  0
SEQEND
 8
0
  0
POLYLINE
  8
0
 62
     0
 66
     1
 10
0
 20
0
 30
0.0
 70
     1
 40
0
 41
0
  0
VERTEX
  8
0
 10
119.458
 20
66.8908
 30
0.0
 40
0
 41
0
  0
VERTEX
  8
0
 10
141.254
 20
66.8908
 30
0.0
 40
0
 41
0
  0
VERTEX
  8
0
 10
147.99
 20
87.6203
 30
0.0
 40
0
 41
0
  0
VERTEX
  8
0
 10
130.356
 20
100.432
 30
0.0
 40
0
 41
0
  0
VERTEX
  8
0
 10
112.723
 20
87.6203
 30
0.0
 40
0
 41
0
  0
VERTEX
  8
0
 10
119.458
 20
66.8908
 30
0.0
 40
0
 41
0
  0
SEQEND
 8
0
  0
POLYLINE
  8
0
 62
     0
 66
     1
 10
0
 20
0
 30
0.0
 70
     1
 40
0
 41
0
  0
VERTEX
  8
0
 10
131.592
 20
78.0865
 30
0.0
 40
0
 41
0
  0
VERTEX
  8
0
 10
131.495
 20
78.055
 30
0.0
 40
0
 41
0
  0
VERTEX
  8
0
 10
131.197
 20
77.9799
 30
0.0
 40
0
 41
0
  0
VERTEX
  8
0
 10
130.8
 20
77.9147
 30
0.0
 40
0
 41
0
  0
VERTEX
  8
0
 10
130.405
 20
77.8901
 30
0.0
 40
0
 41
0
  0
VERTEX
  8
0
 10
130.014
 20
77.9044
 30
0.0
 40
0
 41
0
  0
VERTEX
  8
0
 10
129.63
 20
77.9567
 30
0.0
 40
0
 41
0
  0
VERTEX
  8
0
 10
129.254
 20
78.0451
 30
0.0
 40
0
 41
0
  0
VERTEX
  8
0
 10
128.89
 20
78.169
 30
0.0
 40
0
 41
0
  0
VERTEX
  8
0
 10
128.54
 20
78.3268
 30
0.0
 40
0
 41
0
  0
VERTEX
  8
0
 10
128.207
 20
78.5172
 30
0.0
 40
0
 41
0
  0
VERTEX
  8
0
 10
127.893
 20
78.7389
 30
0.0
 40
0
 41
0
  0
VERTEX
  8
0
 10
127.6
 20
78.9906
 30
0.0
 40
0
 41
0
  0
VERTEX
  8
0
 10
127.332
 20
79.2711
 30
0.0
 40
0
 41
0
  0
VERTEX
  8
0
 10
127.091
 20
79.579
 30
0.0
 40
0
 41
0
  0
VERTEX
  8
0
 10
126.878
 20
79.9132
 30
0.0
 40
0
 41
0
  0
VERTEX
  8
0
 10
126.698
 20
80.2722
 30
0.0
 40
0
 41
0
  0
VERTEX
  8
0
 10
126.583
 20
80.5575
 30
0.0
 40
0
 41
0
  0
VERTEX
  8
0
 10
126.552
 20
80.6547
 30
0.0
 40
0
 41
0
  0
VERTEX
  8
0
 10
126.52
 20
80.7519
 30
0.0
 40
0
 41
0
  0
VERTEX
  8
0
 10
126.445
 20
81.0501
 30
0.0
 40
0
 41
0
  0
VERTEX
  8
0
 10
126.38
 20
81.4465
 30
0.0
 40
0
 41
0
  0
VERTEX
  8
0
 10
126.355
 20
81.8415
 30
0.0
 40
0
 41
0
  0
VERTEX
  8
0
 10
126.37
 20
82.2326
 30
0.0
 40
0
 41
0
  0
VERTEX
  8
0
 10
126.422
 20
82.6172
 30
0.0
 40
0
 41
0
  0
VERTEX
  8
0
 10
126.511
 20
82.9928
 30
0.0
 40
0
 41
0
  0
VERTEX
  8
0
 10
126.634
 20
83.3569
 30
0.0
 40
0
 41
0
  0
VERTEX
  8
0
 10
126.792
 20
83.7068
 30
0.0
 40
0
 41
0
  0
VERTEX
  8
0
 10
126.983
 20
84.0401
 30
0.0
 40
0
 41
0
  0
VERTEX
  8
0
 10
127.204
 20
84.3543
 30
0.0
 40
0
 41
0
  0
VERTEX
  8
0
 10
127.456
 20
84.6467
 30
0.0
 40
0
 41
0
  0
VERTEX
  8
0
 10
127.736
 20
84.915
 30
0.0
 40
0
 41
0
  0
VERTEX
  8
0
 10
128.044
 20
85.1565
 30
0.0
 40
0
 41
0
  0
VERTEX
  8
0
 10
128.378
 20
85.3686
 30
0.0
 40
0
 41
0
  0
VERTEX
  8
0
 10
128.737
 20
85.549
 30
0.0
 40
0
 41
0
  0
VERTEX
  8
0
 10
129.023
 20
85.6635
 30
0.0
 40
0
 41
0
  0
VERTEX
  8
0
 10
129.12
 20
85.695
 30
0.0
 40
0
 41
0
  0
VERTEX
  8
0
 10
129.217
 20
85.7267
 30
0.0
 40
0
 41
0
  0
VERTEX
  8
0
 10
129.515
 20
85.8018
 30
0.0
 40
0
 41
0
  0
VERTEX
  8
0
 10
129.912
 20
85.8669
 30
0.0
 40
0
 41
0
  0
VERTEX
  8
0
 10
130.307
 20
85.8917
 30
0.0
 40
0
 41
0
  0
VERTEX
  8
0
 10
130.698
 20
85.8772
 30
0.0
 40
0
 41
0
  0
VERTEX
  8
0
 10
131.083
 20
85.8251
 30
0.0
 40
0
 41
0
  0
VERTEX
  8
0
 10
131.458
 20
85.7364
 30
0.0
 40
0
 41
0
  0
VERTEX
  8
0
 10
131.822
 20
85.6126
 30
0.0
 40
0
 41
0
  0
VERTEX
  8
0
 10
132.172
 20
85.4549
 30
0.0
 40
0
 41
0
  0
VERTEX
  8
0
 10
132.505
 20
85.2644
 30
0.0
 40
0
 41
0
  0
VERTEX
  8
0
 10
132.82
 20
85.0428
 30
0.0
 40
0
 41
0
  0
VERTEX
  8
0
 10
133.112
 20
84.791
 30
0.0
 40
0
 41
0
  0
VERTEX
  8
0
 10
133.38
 20
84.5106
 30
0.0
 40
0
 41
0
  0
VERTEX
  8
0
 10
133.622
 20
84.2026
 30
0.0
 40
0
 41
0
  0
VERTEX
  8
0
 10
133.834
 20
83.8685
 30
0.0
 40
0
 41
0
  0
VERTEX
  8
0
 10
134.014
 20
83.5094
 30
0.0
 40
0
 41
0
  0
VERTEX
  8
0
 10
134.129
 20
83.2242
 30
0.0
 40
0
 41
0
  0
VERTEX
  8
0
 10
134.16
 20
83.1268
 30
0.0
 40
0
 41
0
  0
VERTEX
  8
0
 10
134.192
 20
83.0296
 30
0.0
 40
0
 41
0
  0
VERTEX
  8
0
 10
134.267
 20
82.7315
 30
0.0
 40
0
 41
0
  0
VERTEX
  8
0
 10
134.332
 20
82.3351
 30
0.0
 40
0
 41
0
  0
VERTEX
  8
0
 10
134.357
 20
81.94
 30
0.0
 40
0
 41
0
  0
VERTEX
  8
0
 10
134.343
 20
81.5489
 30
0.0
 40
0
 41
0
  0
VERTEX
  8
0
 10
134.29
 20
81.1644
 30
0.0
 40
0
 41
0
  0
VERTEX
  8
0
 10
134.202
 20
80.7888
 30
0.0
 40
0
 41
0
  0
VERTEX
  8
0
 10
134.078
 20
80.4247
 30
0.0
 40
0
 41
0
  0
VERTEX
  8
0
 10
133.92
 20
80.0749
 30
0.0
 40
0
 41
0
  0
VERTEX
  8
0
 10
133.73
 20
79.7415
 30
0.0
 40
0
 41
0
  0
VERTEX
  8
0
 10
133.508
 20
79.4274
 30
0.0
 40
0
 41
0
  0
VERTEX
  8
0
 10
133.256
 20
79.1349
 30
0.0
 40
0
 41
0
  0
VERTEX
  8
0
 10
132.976
 20
78.8667
 30
0.0
 40
0
 41
0
  0
VERTEX
  8
0
 10
132.668
 20
78.6253
 30
0.0
 40
0
 41
0
  0
VERTEX
  8
0
 10
132.334
 20
78.4129
 30
0.0
 40
0
 41
0
  0
VERTEX
  8
0
 10
131.975
 20
78.2326
 30
0.0
 40
0
 41
0
  0
VERTEX
  8
0
 10
131.689
 20
78.1182
 30
0.0
 40
0
 41
0
  0
VERTEX
  8
0
 10
131.592
 20
78.0865
 30
0.0
 40
0
 41
0
  0
SEQEND
 8
0
  0
POLYLINE
  8
0
 62
     0
 66
     1
 10
0
 20
0
 30
0.0
 70
     1
 40
0
 41
0
  0
VERTEX
  8
0
 10
115.749
 20
78.3065
 30
0.0
 40
0
 41
0
  0
VERTEX
  8
0
 10
121.455
 20
80.1606
 30
0.0
 40
0
 41
0
  0
VERTEX
  8
0
 10
122.138
 20
78.0588
 30
0.0
 40
0
 41
0
  0
VERTEX
  8
0
 10
116.432
 20
76.2046
 30
0.0
 40
0
 41
0
  0
SEQEND
 8
0
  0
POLYLINE
  8
0
 62
     0
 66
     1
 10
0
 20
0
 30
0.0
 70
     1
 40
0
 41
0
  0
VERTEX
  8
0
 10
129.251
 20
66.8908
 30
0.0
 40
0
 41
0
  0
VERTEX
  8
0
 10
129.251
 20
72.8908
 30
0.0
 40
0
 41
0
  0
VERTEX
  8
0
 10
131.461
 20
72.8908
 30
0.0
 40
0
 41
0
  0
VERTEX
  8
0
 10
131.461
 20
66.8908
 30
0.0
 40
0
 41
0
  0
SEQEND
 8
0
  0
POLYLINE
  8
0
 62
     0
 66
     1
 10
0
 20
0
 30
0.0
 70
     1
 40
0
 41
0
  0
VERTEX
  8
0
 10
144.281
 20
76.2046
 30
0.0
 40
0
 41
0
  0
VERTEX
  8
0
 10
138.574
 20
78.0588
 30
0.0
 40
0
 41
0
  0
VERTEX
  8
0
 10
139.257
 20
80.1606
 30
0.0
 40
0
 41
0
  0
VERTEX
  8
0
 10
144.964
 20
78.3065
 30
0.0
 40
0
 41
0
  0
SEQEND
 8
0
  0
POLYLINE
  8
0
 62
     0
 66
     1
 10
0
 20
0
 30
0.0
 70
     1
 40
0
 41
0
  0
VERTEX
  8
0
 10
140.067
 20
93.3765
 30
0.0
 40
0
 41
0
  0
VERTEX
  8
0
 10
136.54
 20
88.5225
 30
0.0
 40
0
 41
0
  0
VERTEX
  8
0
 10
134.752
 20
89.8214
 30
0.0
 40
0
 41
0
  0
VERTEX
  8
0
 10
138.279
 20
94.6756
 30
0.0
 40
0
 41
0
  0
SEQEND
 8
0
  0
POLYLINE
  8
0
 62
     0
 66
     1
 10
0
 20
0
 30
0.0
 70
     1
 40
0
 41
0
  0
VERTEX
  8
0
 10
122.433
 20
94.6756
 30
0.0
 40
0
 41
0
  0
VERTEX
  8
0
 10
125.96
 20
89.8214
 30
0.0
 40
0
 41
0
  0
VERTEX
  8
0
 10
124.172
 20
88.5225
 30
0.0
 40
0
 41
0
  0
VERTEX
  8
0
 10
120.645
 20
93.3765
 30
0.0
 40
0
 41
0
  0
SEQEND
 8
0
  0
POLYLINE
  8
0
 62
     0
 66
     1
 10
0
 20
0
 30
0.0
 70
     1
 40
0
 41
0
  0
VERTEX
  8
0
 10
183.75
 20
138.695
 30
0.0
 40
0
 41
0
  0
VERTEX
  8
0
 10
166.115
 20
151.507
 30
0.0
 40
0
 41
0
  0
VERTEX
  8
0
 10
148.482
 20
138.695
 30
0.0
 40
0
 41
0
  0
VERTEX
  8
0
 10
155.218
 20
117.966
 30
0.0
 40
0
 41
0
  0
VERTEX
  8
0
 10
177.014
 20
117.966
 30
0.0
 40
0
 41
0
  0
VERTEX
  8
0
 10
183.75
 20
138.695
 30
0.0
 40
0
 41
0
  0
SEQEND
 8
0
  0
POLYLINE
  8
0
 62
     0
 66
     1
 10
0
 20
0
 30
0.0
 70
     1
 40
0
 41
0
  0
VERTEX
  8
0
 10
167.351
 20
136.77
 30
0.0
 40
0
 41
0
  0
VERTEX
  8
0
 10
167.449
 20
136.738
 30
0.0
 40
0
 41
0
  0
VERTEX
  8
0
 10
167.735
 20
136.624
 30
0.0
 40
0
 41
0
  0
VERTEX
  8
0
 10
168.093
 20
136.443
 30
0.0
 40
0
 41
0
  0
VERTEX
  8
0
 10
168.428
 20
136.231
 30
0.0
 40
0
 41
0
  0
VERTEX
  8
0
 10
168.736
 20
135.99
 30
0.0
 40
0
 41
0
  0
VERTEX
  8
0
 10
169.015
 20
135.722
 30
0.0
 40
0
 41
0
  0
VERTEX
  8
0
 10
169.268
 20
135.429
 30
0.0
 40
0
 41
0
  0
VERTEX
  8
0
 10
169.489
 20
135.115
 30
0.0
 40
0
 41
0
  0
VERTEX
  8
0
 10
169.679
 20
134.782
 30
0.0
 40
0
 41
0
  0
VERTEX
  8
0
 10
169.837
 20
134.432
 30
0.0
 40
0
 41
0
  0
VERTEX
  8
0
 10
169.961
 20
134.068
 30
0.0
 40
0
 41
0
  0
VERTEX
  8
0
 10
170.05
 20
133.692
 30
0.0
 40
0
 41
0
  0
VERTEX
  8
0
 10
170.103
 20
133.307
 30
0.0
 40
0
 41
0
  0
VERTEX
  8
0
 10
170.117
 20
132.916
 30
0.0
 40
0
 41
0
  0
VERTEX
  8
0
 10
170.092
 20
132.521
 30
0.0
 40
0
 41
0
  0
VERTEX
  8
0
 10
170.026
 20
132.125
 30
0.0
 40
0
 41
0
  0
VERTEX
  8
0
 10
169.951
 20
131.827
 30
0.0
 40
0
 41
0
  0
VERTEX
  8
0
 10
169.919
 20
131.73
 30
0.0
 40
0
 41
0
  0
VERTEX
  8
0
 10
169.889
 20
131.632
 30
0.0
 40
0
 41
0
  0
VERTEX
  8
0
 10
169.774
 20
131.347
 30
0.0
 40
0
 41
0
  0
VERTEX
  8
0
 10
169.593
 20
130.988
 30
0.0
 40
0
 41
0
  0
VERTEX
  8
0
 10
169.382
 20
130.654
 30
0.0
 40
0
 41
0
  0
VERTEX
  8
0
 10
169.14
 20
130.346
 30
0.0
 40
0
 41
0
  0
VERTEX
  8
0
 10
168.872
 20
130.065
 30
0.0
 40
0
 41
0
  0
VERTEX
  8
0
 10
168.579
 20
129.814
 30
0.0
 40
0
 41
0
  0
VERTEX
  8
0
 10
168.265
 20
129.592
 30
0.0
 40
0
 41
0
  0
VERTEX
  8
0
 10
167.932
 20
129.402
 30
0.0
 40
0
 41
0
  0
VERTEX
  8
0
 10
167.582
 20
129.244
 30
0.0
 40
0
 41
0
  0
VERTEX
  8
0
 10
167.218
 20
129.12
 30
0.0
 40
0
 41
0
  0
VERTEX
  8
0
 10
166.842
 20
129.032
 30
0.0
 40
0
 41
0
  0
VERTEX
  8
0
 10
166.457
 20
128.979
 30
0.0
 40
0
 41
0
  0
VERTEX
  8
0
 10
166.067
 20
128.965
 30
0.0
 40
0
 41
0
  0
VERTEX
  8
0
 10
165.671
 20
128.99
 30
0.0
 40
0
 41
0
  0
VERTEX
  8
0
 10
165.275
 20
129.055
 30
0.0
 40
0
 41
0
  0
VERTEX
  8
0
 10
164.976
 20
129.13
 30
0.0
 40
0
 41
0
  0
VERTEX
  8
0
 10
164.879
 20
129.162
 30
0.0
 40
0
 41
0
  0
VERTEX
  8
0
 10
164.782
 20
129.193
 30
0.0
 40
0
 41
0
  0
VERTEX
  8
0
 10
164.497
 20
129.307
 30
0.0
 40
0
 41
0
  0
VERTEX
  8
0
 10
164.138
 20
129.488
 30
0.0
 40
0
 41
0
  0
VERTEX
  8
0
 10
163.804
 20
129.7
 30
0.0
 40
0
 41
0
  0
VERTEX
  8
0
 10
163.496
 20
129.942
 30
0.0
 40
0
 41
0
  0
VERTEX
  8
0
 10
163.215
 20
130.21
 30
0.0
 40
0
 41
0
  0
VERTEX
  8
0
 10
162.964
 20
130.502
 30
0.0
 40
0
 41
0
  0
VERTEX
  8
0
 10
162.742
 20
130.816
 30
0.0
 40
0
 41
0
  0
VERTEX
  8
0
 10
162.551
 20
131.15
 30
0.0
 40
0
 41
0
  0
VERTEX
  8
0
 10
162.394
 20
131.5
 30
0.0
 40
0
 41
0
  0
VERTEX
  8
0
 10
162.269
 20
131.864
 30
0.0
 40
0
 41
0
  0
VERTEX
  8
0
 10
162.182
 20
132.239
 30
0.0
 40
0
 41
0
  0
VERTEX
  8
0
 10
162.129
 20
132.624
 30
0.0
 40
0
 41
0
  0
VERTEX
  8
0
 10
162.115
 20
133.015
 30
0.0
 40
0
 41
0
  0
VERTEX
  8
0
 10
162.14
 20
133.41
 30
0.0
 40
0
 41
0
  0
VERTEX
  8
0
 10
162.204
 20
133.806
 30
0.0
 40
0
 41
0
  0
VERTEX
  8
0
 10
162.281
 20
134.104
 30
0.0
 40
0
 41
0
  0
VERTEX
  8
0
 10
162.311
 20
134.202
 30
0.0
 40
0
 41
0
  0
VERTEX
  8
0
 10
162.343
 20
134.299
 30
0.0
 40
0
 41
0
  0
VERTEX
  8
0
 10
162.457
 20
134.584
 30
0.0
 40
0
 41
0
  0
VERTEX
  8
0
 10
162.638
 20
134.943
 30
0.0
 40
0
 41
0
  0
VERTEX
  8
0
 10
162.85
 20
135.278
 30
0.0
 40
0
 41
0
  0
VERTEX
  8
0
 10
163.092
 20
135.585
 30
0.0
 40
0
 41
0
  0
VERTEX
  8
0
 10
163.36
 20
135.866
 30
0.0
 40
0
 41
0
  0
VERTEX
  8
0
 10
163.653
 20
136.118
 30
0.0
 40
0
 41
0
  0
VERTEX
  8
0
 10
163.967
 20
136.339
 30
0.0
 40
0
 41
0
  0
VERTEX
  8
0
 10
164.3
 20
136.53
 30
0.0
 40
0
 41
0
  0
VERTEX
  8
0
 10
164.65
 20
136.688
 30
0.0
 40
0
 41
0
  0
VERTEX
  8
0
 10
165.014
 20
136.811
 30
0.0
 40
0
 41
0
  0
VERTEX
  8
0
 10
165.389
 20
136.9
 30
0.0
 40
0
 41
0
  0
VERTEX
  8
0
 10
165.774
 20
136.952
 30
0.0
 40
0
 41
0
  0
VERTEX
  8
0
 10
166.165
 20
136.967
 30
0.0
 40
0
 41
0
  0
VERTEX
  8
0
 10
166.56
 20
136.942
 30
0.0
 40
0
 41
0
  0
VERTEX
  8
0
 10
166.957
 20
136.877
 30
0.0
 40
0
 41
0
  0
VERTEX
  8
0
 10
167.254
 20
136.802
 30
0.0
 40
0
 41
0
  0
VERTEX
  8
0
 10
167.351
 20
136.77
 30
0.0
 40
0
 41
0
  0
SEQEND
 8
0
  0
POLYLINE
  8
0
 62
     0
 66
     1
 10
0
 20
0
 30
0.0
 70
     1
 40
0
 41
0
  0
VERTEX
  8
0
 10
180.04
 20
127.279
 30
0.0
 40
0
 41
0
  0
VERTEX
  8
0
 10
174.333
 20
129.134
 30
0.0
 40
0
 41
0
  0
VERTEX
  8
0
 10
175.017
 20
131.235
 30
0.0
 40
0
 41
0
  0
VERTEX
  8
0
 10
180.724
 20
129.381
 30
0.0
 40
0
 41
0
  0
SEQEND
 8
0
  0
POLYLINE
  8
0
 62
     0
 66
     1
 10
0
 20
0
 30
0.0
 70
     1
 40
0
 41
0
  0
VERTEX
  8
0
 10
175.826
 20
144.451
 30
0.0
 40
0
 41
0
  0
VERTEX
  8
0
 10
172.3
 20
139.597
 30
0.0
 40
0
 41
0
  0
VERTEX
  8
0
 10
170.513
 20
140.896
 30
0.0
 40
0
 41
0
  0
VERTEX
  8
0
 10
174.039
 20
145.75
 30
0.0
 40
0
 41
0
  0
SEQEND
 8
0
  0
POLYLINE
  8
0
 62
     0
 66
     1
 10
0
 20
0
 30
0.0
 70
     1
 40
0
 41
0
  0
VERTEX
  8
0
 10
158.193
 20
145.75
 30
0.0
 40
0
 41
0
  0
VERTEX
  8
0
 10
161.719
 20
140.896
 30
0.0
 40
0
 41
0
  0
VERTEX
  8
0
 10
159.932
 20
139.597
 30
0.0
 40
0
 41
0
  0
VERTEX
  8
0
 10
156.406
 20
144.451
 30
0.0
 40
0
 41
0
  0
SEQEND
 8
0
  0
POLYLINE
  8
0
 62
     0
 66
     1
 10
0
 20
0
 30
0.0
 70
     1
 40
0
 41
0
  0
VERTEX
  8
0
 10
151.508
 20
129.381
 30
0.0
 40
0
 41
0
  0
VERTEX
  8
0
 10
157.215
 20
131.235
 30
0.0
 40
0
 41
0
  0
VERTEX
  8
0
 10
157.897
 20
129.134
 30
0.0
 40
0
 41
0
  0
VERTEX
  8
0
 10
152.192
 20
127.279
 30
0.0
 40
0
 41
0
  0
SEQEND
 8
0
  0
POLYLINE
  8
0
 62
     0
 66
     1
 10
0
 20
0
 30
0.0
 70
     1
 40
0
 41
0
  0
VERTEX
  8
0
 10
165.011
 20
117.966
 30
0.0
 40
0
 41
0
  0
VERTEX
  8
0
 10
165.011
 20
123.966
 30
0.0
 40
0
 41
0
  0
VERTEX
  8
0
 10
167.221
 20
123.966
 30
0.0
 40
0
 41
0
  0
VERTEX
  8
0
 10
167.221
 20
117.966
 30
0.0
 40
0
 41
0
  0
SEQEND
 8
0
  0
POLYLINE
  8
0
 62
     0
 66
     1
 10
0
 20
0
 30
0.0
 70
     1
 40
0
 41
0
  0
VERTEX
  8
0
 10
153.644
 20
81.0704
 30
0.0
 40
0
 41
0
  0
VERTEX
  8
0
 10
175.44
 20
81.0704
 30
0.0
 40
0
 41
0
  0
VERTEX
  8
0
 10
182.176
 20
101.8
 30
0.0
 40
0
 41
0
  0
VERTEX
  8
0
 10
164.543
 20
114.612
 30
0.0
 40
0
 41
0
  0
VERTEX
  8
0
 10
146.91
 20
101.8
 30
0.0
 40
0
 41
0
  0
VERTEX
  8
0
 10
153.644
 20
81.0704
 30
0.0
 40
0
 41
0
  0
SEQEND
 8
0
  0
POLYLINE
  8
0
 62
     0
 66
     1
 10
0
 20
0
 30
0.0
 70
     1
 40
0
 41
0
  0
VERTEX
  8
0
 10
165.779
 20
92.2662
 30
0.0
 40
0
 41
0
  0
VERTEX
  8
0
 10
165.682
 20
92.2347
 30
0.0
 40
0
 41
0
  0
VERTEX
  8
0
 10
165.383
 20
92.1596
 30
0.0
 40
0
 41
0
  0
VERTEX
  8
0
 10
164.987
 20
92.0944
 30
0.0
 40
0
 41
0
  0
VERTEX
  8
0
 10
164.592
 20
92.0697
 30
0.0
 40
0
 41
0
  0
VERTEX
  8
0
 10
164.201
 20
92.084
 30
0.0
 40
0
 41
0
  0
VERTEX
  8
0
 10
163.817
 20
92.1363
 30
0.0
 40
0
 41
0
  0
VERTEX
  8
0
 10
163.44
 20
92.2249
 30
0.0
 40
0
 41
0
  0
VERTEX
  8
0
 10
163.076
 20
92.3487
 30
0.0
 40
0
 41
0
  0
VERTEX
  8
0
 10
162.726
 20
92.5065
 30
0.0
 40
0
 41
0
  0
VERTEX
  8
0
 10
162.393
 20
92.6969
 30
0.0
 40
0
 41
0
  0
VERTEX
  8
0
 10
162.079
 20
92.9186
 30
0.0
 40
0
 41
0
  0
VERTEX
  8
0
 10
161.788
 20
93.1703
 30
0.0
 40
0
 41
0
  0
VERTEX
  8
0
 10
161.518
 20
93.4508
 30
0.0
 40
0
 41
0
  0
VERTEX
  8
0
 10
161.278
 20
93.7587
 30
0.0
 40
0
 41
0
  0
VERTEX
  8
0
 10
161.065
 20
94.0929
 30
0.0
 40
0
 41
0
  0
VERTEX
  8
0
 10
160.885
 20
94.4519
 30
0.0
 40
0
 41
0
  0
VERTEX
  8
0
 10
160.769
 20
94.7372
 30
0.0
 40
0
 41
0
  0
VERTEX
  8
0
 10
160.739
 20
94.8344
 30
0.0
 40
0
 41
0
  0
VERTEX
  8
0
 10
160.707
 20
94.9317
 30
0.0
 40
0
 41
0
  0
VERTEX
  8
0
 10
160.632
 20
95.2297
 30
0.0
 40
0
 41
0
  0
VERTEX
  8
0
 10
160.567
 20
95.6262
 30
0.0
 40
0
 41
0
  0
VERTEX
  8
0
 10
160.542
 20
96.0212
 30
0.0
 40
0
 41
0
  0
VERTEX
  8
0
 10
160.557
 20
96.4124
 30
0.0
 40
0
 41
0
  0
VERTEX
  8
0
 10
160.608
 20
96.7969
 30
0.0
 40
0
 41
0
  0
VERTEX
  8
0
 10
160.697
 20
97.1725
 30
0.0
 40
0
 41
0
  0
VERTEX
  8
0
 10
160.821
 20
97.5365
 30
0.0
 40
0
 41
0
  0
VERTEX
  8
0
 10
160.979
 20
97.8865
 30
0.0
 40
0
 41
0
  0
VERTEX
  8
0
 10
161.169
 20
98.2197
 30
0.0
 40
0
 41
0
  0
VERTEX
  8
0
 10
161.39
 20
98.534
 30
0.0
 40
0
 41
0
  0
VERTEX
  8
0
 10
161.643
 20
98.8264
 30
0.0
 40
0
 41
0
  0
VERTEX
  8
0
 10
161.924
 20
99.0947
 30
0.0
 40
0
 41
0
  0
VERTEX
  8
0
 10
162.231
 20
99.3361
 30
0.0
 40
0
 41
0
  0
VERTEX
  8
0
 10
162.565
 20
99.5483
 30
0.0
 40
0
 41
0
  0
VERTEX
  8
0
 10
162.924
 20
99.7288
 30
0.0
 40
0
 41
0
  0
VERTEX
  8
0
 10
163.21
 20
99.8432
 30
0.0
 40
0
 41
0
  0
VERTEX
  8
0
 10
163.307
 20
99.8747
 30
0.0
 40
0
 41
0
  0
VERTEX
  8
0
 10
163.404
 20
99.9064
 30
0.0
 40
0
 41
0
  0
VERTEX
  8
0
 10
163.701
 20
99.9815
 30
0.0
 40
0
 41
0
  0
VERTEX
  8
0
 10
164.099
 20
100.047
 30
0.0
 40
0
 41
0
  0
VERTEX
  8
0
 10
164.493
 20
100.071
 30
0.0
 40
0
 41
0
  0
VERTEX
  8
0
 10
164.885
 20
100.057
 30
0.0
 40
0
 41
0
  0
VERTEX
  8
0
 10
165.269
 20
100.005
 30
0.0
 40
0
 41
0
  0
VERTEX
  8
0
 10
165.644
 20
99.9161
 30
0.0
 40
0
 41
0
  0
VERTEX
  8
0
 10
166.008
 20
99.7924
 30
0.0
 40
0
 41
0
  0
VERTEX
  8
0
 10
166.358
 20
99.6346
 30
0.0
 40
0
 41
0
  0
VERTEX
  8
0
 10
166.692
 20
99.4442
 30
0.0
 40
0
 41
0
  0
VERTEX
  8
0
 10
167.006
 20
99.2225
 30
0.0
 40
0
 41
0
  0
VERTEX
  8
0
 10
167.299
 20
98.9707
 30
0.0
 40
0
 41
0
  0
VERTEX
  8
0
 10
167.567
 20
98.6903
 30
0.0
 40
0
 41
0
  0
VERTEX
  8
0
 10
167.808
 20
98.3824
 30
0.0
 40
0
 41
0
  0
VERTEX
  8
0
 10
168.021
 20
98.0482
 30
0.0
 40
0
 41
0
  0
VERTEX
  8
0
 10
168.201
 20
97.6892
 30
0.0
 40
0
 41
0
  0
VERTEX
  8
0
 10
168.315
 20
97.4039
 30
0.0
 40
0
 41
0
  0
VERTEX
  8
0
 10
168.347
 20
97.3065
 30
0.0
 40
0
 41
0
  0
VERTEX
  8
0
 10
168.379
 20
97.2093
 30
0.0
 40
0
 41
0
  0
VERTEX
  8
0
 10
168.454
 20
96.9112
 30
0.0
 40
0
 41
0
  0
VERTEX
  8
0
 10
168.519
 20
96.5149
 30
0.0
 40
0
 41
0
  0
VERTEX
  8
0
 10
168.543
 20
96.1199
 30
0.0
 40
0
 41
0
  0
VERTEX
  8
0
 10
168.529
 20
95.7286
 30
0.0
 40
0
 41
0
  0
VERTEX
  8
0
 10
168.476
 20
95.3442
 30
0.0
 40
0
 41
0
  0
VERTEX
  8
0
 10
168.389
 20
94.9685
 30
0.0
 40
0
 41
0
  0
VERTEX
  8
0
 10
168.264
 20
94.6044
 30
0.0
 40
0
 41
0
  0
VERTEX
  8
0
 10
168.107
 20
94.2546
 30
0.0
 40
0
 41
0
  0
VERTEX
  8
0
 10
167.917
 20
93.9213
 30
0.0
 40
0
 41
0
  0
VERTEX
  8
0
 10
167.694
 20
93.6071
 30
0.0
 40
0
 41
0
  0
VERTEX
  8
0
 10
167.443
 20
93.3147
 30
0.0
 40
0
 41
0
  0
VERTEX
  8
0
 10
167.163
 20
93.0464
 30
0.0
 40
0
 41
0
  0
VERTEX
  8
0
 10
166.854
 20
92.8049
 30
0.0
 40
0
 41
0
  0
VERTEX
  8
0
 10
166.521
 20
92.5928
 30
0.0
 40
0
 41
0
  0
VERTEX
  8
0
 10
166.161
 20
92.4124
 30
0.0
 40
0
 41
0
  0
VERTEX
  8
0
 10
165.876
 20
92.2979
 30
0.0
 40
0
 41
0
  0
VERTEX
  8
0
 10
165.779
 20
92.2662
 30
0.0
 40
0
 41
0
  0
SEQEND
 8
0
  0
POLYLINE
  8
0
 62
     0
 66
     1
 10
0
 20
0
 30
0.0
 70
     1
 40
0
 41
0
  0
VERTEX
  8
0
 10
149.936
 20
92.4861
 30
0.0
 40
0
 41
0
  0
VERTEX
  8
0
 10
155.642
 20
94.3403
 30
0.0
 40
0
 41
0
  0
VERTEX
  8
0
 10
156.325
 20
92.2385
 30
0.0
 40
0
 41
0
  0
VERTEX
  8
0
 10
150.618
 20
90.3843
 30
0.0
 40
0
 41
0
  0
SEQEND
 8
0
  0
POLYLINE
  8
0
 62
     0
 66
     1
 10
0
 20
0
 30
0.0
 70
     1
 40
0
 41
0
  0
VERTEX
  8
0
 10
163.438
 20
81.0704
 30
0.0
 40
0
 41
0
  0
VERTEX
  8
0
 10
163.438
 20
87.0704
 30
0.0
 40
0
 41
0
  0
VERTEX
  8
0
 10
165.647
 20
87.0704
 30
0.0
 40
0
 41
0
  0
VERTEX
  8
0
 10
165.647
 20
81.0704
 30
0.0
 40
0
 41
0
  0
SEQEND
 8
0
  0
POLYLINE
  8
0
 62
     0
 66
     1
 10
0
 20
0
 30
0.0
 70
     1
 40
0
 41
0
  0
VERTEX
  8
0
 10
178.467
 20
90.3843
 30
0.0
 40
0
 41
0
  0
VERTEX
  8
0
 10
172.761
 20
92.2385
 30
0.0
 40
0
 41
0
  0
VERTEX
  8
0
 10
173.443
 20
94.3403
 30
0.0
 40
0
 41
0
  0
VERTEX
  8
0
 10
179.15
 20
92.4861
 30
0.0
 40
0
 41
0
  0
SEQEND
 8
0
  0
POLYLINE
  8
0
 62
     0
 66
     1
 10
0
 20
0
 30
0.0
 70
     1
 40
0
 41
0
  0
VERTEX
  8
0
 10
174.254
 20
107.556
 30
0.0
 40
0
 41
0
  0
VERTEX
  8
0
 10
170.726
 20
102.702
 30
0.0
 40
0
 41
0
  0
VERTEX
  8
0
 10
168.939
 20
104.001
 30
0.0
 40
0
 41
0
  0
VERTEX
  8
0
 10
172.465
 20
108.855
 30
0.0
 40
0
 41
0
  0
SEQEND
 8
0
  0
POLYLINE
  8
0
 62
     0
 66
     1
 10
0
 20
0
 30
0.0
 70
     1
 40
0
 41
0
  0
VERTEX
  8
0
 10
156.619
 20
108.855
 30
0.0
 40
0
 41
0
  0
VERTEX
  8
0
 10
160.147
 20
104.001
 30
0.0
 40
0
 41
0
  0
VERTEX
  8
0
 10
158.358
 20
102.702
 30
0.0
 40
0
 41
0
  0
VERTEX
  8
0
 10
154.832
 20
107.556
 30
0.0
 40
0
 41
0
  0
SEQEND
 8
0
  0
POLYLINE
  8
0
 62
     0
 66
     1
 10
0
 20
0
 30
0.0
 70
     1
 40
0
 41
0
  0
VERTEX
  8
0
 10
186.41
 20
140.908
 30
0.0
 40
0
 41
0
  0
VERTEX
  8
0
 10
208.206
 20
140.908
 30
0.0
 40
0
 41
0
  0
VERTEX
  8
0
 10
214.94
 20
161.638
 30
0.0
 40
0
 41
0
  0
VERTEX
  8
0
 10
197.307
 20
174.45
 30
0.0
 40
0
 41
0
  0
VERTEX
  8
0
 10
179.674
 20
161.638
 30
0.0
 40
0
 41
0
  0
VERTEX
  8
0
 10
186.41
 20
140.908
 30
0.0
 40
0
 41
0
  0
SEQEND
 8
0
  0
POLYLINE
  8
0
 62
     0
 66
     1
 10
0
 20
0
 30
0.0
 70
     1
 40
0
 41
0
  0
VERTEX
  8
0
 10
198.543
 20
152.104
 30
0.0
 40
0
 41
0
  0
VERTEX
  8
0
 10
198.446
 20
152.072
 30
0.0
 40
0
 41
0
  0
VERTEX
  8
0
 10
198.149
 20
151.997
 30
0.0
 40
0
 41
0
  0
VERTEX
  8
0
 10
197.751
 20
151.932
 30
0.0
 40
0
 41
0
  0
VERTEX
  8
0
 10
197.357
 20
151.908
 30
0.0
 40
0
 41
0
  0
VERTEX
  8
0
 10
196.965
 20
151.922
 30
0.0
 40
0
 41
0
  0
VERTEX
  8
0
 10
196.581
 20
151.975
 30
0.0
 40
0
 41
0
  0
VERTEX
  8
0
 10
196.206
 20
152.063
 30
0.0
 40
0
 41
0
  0
VERTEX
  8
0
 10
195.842
 20
152.188
 30
0.0
 40
0
 41
0
  0
VERTEX
  8
0
 10
195.492
 20
152.344
 30
0.0
 40
0
 41
0
  0
VERTEX
  8
0
 10
195.158
 20
152.535
 30
0.0
 40
0
 41
0
  0
VERTEX
  8
0
 10
194.844
 20
152.757
 30
0.0
 40
0
 41
0
  0
VERTEX
  8
0
 10
194.551
 20
153.008
 30
0.0
 40
0
 41
0
  0
VERTEX
  8
0
 10
194.283
 20
153.289
 30
0.0
 40
0
 41
0
  0
VERTEX
  8
0
 10
194.042
 20
153.597
 30
0.0
 40
0
 41
0
  0
VERTEX
  8
0
 10
193.829
 20
153.931
 30
0.0
 40
0
 41
0
  0
VERTEX
  8
0
 10
193.649
 20
154.29
 30
0.0
 40
0
 41
0
  0
VERTEX
  8
0
 10
193.535
 20
154.575
 30
0.0
 40
0
 41
0
  0
VERTEX
  8
0
 10
193.503
 20
154.672
 30
0.0
 40
0
 41
0
  0
VERTEX
  8
0
 10
193.471
 20
154.769
 30
0.0
 40
0
 41
0
  0
VERTEX
  8
0
 10
193.396
 20
155.068
 30
0.0
 40
0
 41
0
  0
VERTEX
  8
0
 10
193.331
 20
155.464
 30
0.0
 40
0
 41
0
  0
VERTEX
  8
0
 10
193.307
 20
155.86
 30
0.0
 40
0
 41
0
  0
VERTEX
  8
0
 10
193.321
 20
156.25
 30
0.0
 40
0
 41
0
  0
VERTEX
  8
0
 10
193.374
 20
156.635
 30
0.0
 40
0
 41
0
  0
VERTEX
  8
0
 10
193.461
 20
157.011
 30
0.0
 40
0
 41
0
  0
VERTEX
  8
0
 10
193.586
 20
157.375
 30
0.0
 40
0
 41
0
  0
VERTEX
  8
0
 10
193.743
 20
157.725
 30
0.0
 40
0
 41
0
  0
VERTEX
  8
0
 10
193.933
 20
158.058
 30
0.0
 40
0
 41
0
  0
VERTEX
  8
0
 10
194.156
 20
158.372
 30
0.0
 40
0
 41
0
  0
VERTEX
  8
0
 10
194.407
 20
158.664
 30
0.0
 40
0
 41
0
  0
VERTEX
  8
0
 10
194.688
 20
158.933
 30
0.0
 40
0
 41
0
  0
VERTEX
  8
0
 10
194.996
 20
159.175
 30
0.0
 40
0
 41
0
  0
VERTEX
  8
0
 10
195.329
 20
159.386
 30
0.0
 40
0
 41
0
  0
VERTEX
  8
0
 10
195.689
 20
159.567
 30
0.0
 40
0
 41
0
  0
VERTEX
  8
0
 10
195.974
 20
159.682
 30
0.0
 40
0
 41
0
  0
VERTEX
  8
0
 10
196.071
 20
159.712
 30
0.0
 40
0
 41
0
  0
VERTEX
  8
0
 10
196.168
 20
159.744
 30
0.0
 40
0
 41
0
  0
VERTEX
  8
0
 10
196.467
 20
159.819
 30
0.0
 40
0
 41
0
  0
VERTEX
  8
0
 10
196.862
 20
159.885
 30
0.0
 40
0
 41
0
  0
VERTEX
  8
0
 10
197.258
 20
159.91
 30
0.0
 40
0
 41
0
  0
VERTEX
  8
0
 10
197.649
 20
159.894
 30
0.0
 40
0
 41
0
  0
VERTEX
  8
0
 10
198.033
 20
159.843
 30
0.0
 40
0
 41
0
  0
VERTEX
  8
0
 10
198.41
 20
159.754
 30
0.0
 40
0
 41
0
  0
VERTEX
  8
0
 10
198.774
 20
159.631
 30
0.0
 40
0
 41
0
  0
VERTEX
  8
0
 10
199.124
 20
159.472
 30
0.0
 40
0
 41
0
  0
VERTEX
  8
0
 10
199.457
 20
159.282
 30
0.0
 40
0
 41
0
  0
VERTEX
  8
0
 10
199.771
 20
159.061
 30
0.0
 40
0
 41
0
  0
VERTEX
  8
0
 10
200.063
 20
158.808
 30
0.0
 40
0
 41
0
  0
VERTEX
  8
0
 10
200.332
 20
158.528
 30
0.0
 40
0
 41
0
  0
VERTEX
  8
0
 10
200.572
 20
158.221
 30
0.0
 40
0
 41
0
  0
VERTEX
  8
0
 10
200.785
 20
157.886
 30
0.0
 40
0
 41
0
  0
VERTEX
  8
0
 10
200.965
 20
157.528
 30
0.0
 40
0
 41
0
  0
VERTEX
  8
0
 10
201.081
 20
157.242
 30
0.0
 40
0
 41
0
  0
VERTEX
  8
0
 10
201.111
 20
157.144
 30
0.0
 40
0
 41
0
  0
VERTEX
  8
0
 10
201.143
 20
157.047
 30
0.0
 40
0
 41
0
  0
VERTEX
  8
0
 10
201.218
 20
156.75
 30
0.0
 40
0
 41
0
  0
VERTEX
  8
0
 10
201.283
 20
156.353
 30
0.0
 40
0
 41
0
  0
VERTEX
  8
0
 10
201.308
 20
155.958
 30
0.0
 40
0
 41
0
  0
VERTEX
  8
0
 10
201.293
 20
155.567
 30
0.0
 40
0
 41
0
  0
VERTEX
  8
0
 10
201.242
 20
155.182
 30
0.0
 40
0
 41
0
  0
VERTEX
  8
0
 10
201.153
 20
154.807
 30
0.0
 40
0
 41
0
  0
VERTEX
  8
0
 10
201.029
 20
154.443
 30
0.0
 40
0
 41
0
  0
VERTEX
  8
0
 10
200.871
 20
154.093
 30
0.0
 40
0
 41
0
  0
VERTEX
  8
0
 10
200.681
 20
153.76
 30
0.0
 40
0
 41
0
  0
VERTEX
  8
0
 10
200.46
 20
153.446
 30
0.0
 40
0
 41
0
  0
VERTEX
  8
0
 10
200.207
 20
153.153
 30
0.0
 40
0
 41
0
  0
VERTEX
  8
0
 10
199.926
 20
152.885
 30
0.0
 40
0
 41
0
  0
VERTEX
  8
0
 10
199.619
 20
152.643
 30
0.0
 40
0
 41
0
  0
VERTEX
  8
0
 10
199.285
 20
152.431
 30
0.0
 40
0
 41
0
  0
VERTEX
  8
0
 10
198.926
 20
152.25
 30
0.0
 40
0
 41
0
  0
VERTEX
  8
0
 10
198.64
 20
152.136
 30
0.0
 40
0
 41
0
  0
VERTEX
  8
0
 10
198.543
 20
152.104
 30
0.0
 40
0
 41
0
  0
SEQEND
 8
0
  0
POLYLINE
  8
0
 62
     0
 66
     1
 10
0
 20
0
 30
0.0
 70
     1
 40
0
 41
0
  0
VERTEX
  8
0
 10
182.7
 20
152.325
 30
0.0
 40
0
 41
0
  0
VERTEX
  8
0
 10
188.407
 20
154.178
 30
0.0
 40
0
 41
0
  0
VERTEX
  8
0
 10
189.089
 20
152.076
 30
0.0
 40
0
 41
0
  0
VERTEX
  8
0
 10
183.383
 20
150.222
 30
0.0
 40
0
 41
0
  0
SEQEND
 8
0
  0
POLYLINE
  8
0
 62
     0
 66
     1
 10
0
 20
0
 30
0.0
 70
     1
 40
0
 41
0
  0
VERTEX
  8
0
 10
196.203
 20
140.908
 30
0.0
 40
0
 41
0
  0
VERTEX
  8
0
 10
196.203
 20
146.908
 30
0.0
 40
0
 41
0
  0
VERTEX
  8
0
 10
198.413
 20
146.908
 30
0.0
 40
0
 41
0
  0
VERTEX
  8
0
 10
198.413
 20
140.908
 30
0.0
 40
0
 41
0
  0
SEQEND
 8
0
  0
POLYLINE
  8
0
 62
     0
 66
     1
 10
0
 20
0
 30
0.0
 70
     1
 40
0
 41
0
  0
VERTEX
  8
0
 10
211.232
 20
150.222
 30
0.0
 40
0
 41
0
  0
VERTEX
  8
0
 10
205.525
 20
152.076
 30
0.0
 40
0
 41
0
  0
VERTEX
  8
0
 10
206.208
 20
154.178
 30
0.0
 40
0
 41
0
  0
VERTEX
  8
0
 10
211.915
 20
152.325
 30
0.0
 40
0
 41
0
  0
SEQEND
 8
0
  0
POLYLINE
  8
0
 62
     0
 66
     1
 10
0
 20
0
 30
0.0
 70
     1
 40
0
 41
0
  0
VERTEX
  8
0
 10
207.018
 20
167.394
 30
0.0
 40
0
 41
0
  0
VERTEX
  8
0
 10
203.492
 20
162.54
 30
0.0
 40
0
 41
0
  0
VERTEX
  8
0
 10
201.703
 20
163.839
 30
0.0
 40
0
 41
0
  0
VERTEX
  8
0
 10
205.231
 20
168.693
 30
0.0
 40
0
 41
0
  0
SEQEND
 8
0
  0
POLYLINE
  8
0
 62
     0
 66
     1
 10
0
 20
0
 30
0.0
 70
     1
 40
0
 41
0
  0
VERTEX
  8
0
 10
189.385
 20
168.693
 30
0.0
 40
0
 41
0
  0
VERTEX
  8
0
 10
192.911
 20
163.839
 30
0.0
 40
0
 41
0
  0
VERTEX
  8
0
 10
191.124
 20
162.54
 30
0.0
 40
0
 41
0
  0
VERTEX
  8
0
 10
187.596
 20
167.394
 30
0.0
 40
0
 41
0
  0
SEQEND
 8
0
  0
POLYLINE
  8
0
 62
     0
 66
     1
 10
0
 20
0
 30
0.0
 70
     1
 40
0
 41
0
  0
VERTEX
  8
0
 10
182.743
 20
124.743
 30
0.0
 40
0
 41
0
  0
VERTEX
  8
0
 10
189.478
 20
104.013
 30
0.0
 40
0
 41
0
  0
VERTEX
  8
0
 10
211.275
 20
104.013
 30
0.0
 40
0
 41
0
  0
VERTEX
  8
0
 10
218.01
 20
124.743
 30
0.0
 40
0
 41
0
  0
VERTEX
  8
0
 10
200.376
 20
137.555
 30
0.0
 40
0
 41
0
  0
VERTEX
  8
0
 10
182.743
 20
124.743
 30
0.0
 40
0
 41
0
  0
SEQEND
 8
0
  0
POLYLINE
  8
0
 62
     0
 66
     1
 10
0
 20
0
 30
0.0
 70
     1
 40
0
 41
0
  0
VERTEX
  8
0
 10
197.14
 20
116.662
 30
0.0
 40
0
 41
0
  0
VERTEX
  8
0
 10
197.081
 20
116.745
 30
0.0
 40
0
 41
0
  0
VERTEX
  8
0
 10
196.917
 20
117.005
 30
0.0
 40
0
 41
0
  0
VERTEX
  8
0
 10
196.732
 20
117.362
 30
0.0
 40
0
 41
0
  0
VERTEX
  8
0
 10
196.586
 20
117.73
 30
0.0
 40
0
 41
0
  0
VERTEX
  8
0
 10
196.479
 20
118.107
 30
0.0
 40
0
 41
0
  0
VERTEX
  8
0
 10
196.41
 20
118.489
 30
0.0
 40
0
 41
0
  0
VERTEX
  8
0
 10
196.378
 20
118.873
 30
0.0
 40
0
 41
0
  0
VERTEX
  8
0
 10
196.383
 20
119.258
 30
0.0
 40
0
 41
0
  0
VERTEX
  8
0
 10
196.425
 20
119.639
 30
0.0
 40
0
 41
0
  0
VERTEX
  8
0
 10
196.504
 20
120.015
 30
0.0
 40
0
 41
0
  0
VERTEX
  8
0
 10
196.617
 20
120.382
 30
0.0
 40
0
 41
0
  0
VERTEX
  8
0
 10
196.767
 20
120.738
 30
0.0
 40
0
 41
0
  0
VERTEX
  8
0
 10
196.95
 20
121.08
 30
0.0
 40
0
 41
0
  0
VERTEX
  8
0
 10
197.168
 20
121.405
 30
0.0
 40
0
 41
0
  0
VERTEX
  8
0
 10
197.421
 20
121.71
 30
0.0
 40
0
 41
0
  0
VERTEX
  8
0
 10
197.707
 20
121.993
 30
0.0
 40
0
 41
0
  0
VERTEX
  8
0
 10
197.943
 20
122.189
 30
0.0
 40
0
 41
0
  0
VERTEX
  8
0
 10
198.025
 20
122.25
 30
0.0
 40
0
 41
0
  0
VERTEX
  8
0
 10
198.108
 20
122.31
 30
0.0
 40
0
 41
0
  0
VERTEX
  8
0
 10
198.368
 20
122.473
 30
0.0
 40
0
 41
0
  0
VERTEX
  8
0
 10
198.725
 20
122.658
 30
0.0
 40
0
 41
0
  0
VERTEX
  8
0
 10
199.093
 20
122.803
 30
0.0
 40
0
 41
0
  0
VERTEX
  8
0
 10
199.469
 20
122.91
 30
0.0
 40
0
 41
0
  0
VERTEX
  8
0
 10
199.851
 20
122.98
 30
0.0
 40
0
 41
0
  0
VERTEX
  8
0
 10
200.236
 20
123.011
 30
0.0
 40
0
 41
0
  0
VERTEX
  8
0
 10
200.621
 20
123.006
 30
0.0
 40
0
 41
0
  0
VERTEX
  8
0
 10
201.001
 20
122.964
 30
0.0
 40
0
 41
0
  0
VERTEX
  8
0
 10
201.378
 20
122.886
 30
0.0
 40
0
 41
0
  0
VERTEX
  8
0
 10
201.746
 20
122.773
 30
0.0
 40
0
 41
0
  0
VERTEX
  8
0
 10
202.101
 20
122.623
 30
0.0
 40
0
 41
0
  0
VERTEX
  8
0
 10
202.443
 20
122.439
 30
0.0
 40
0
 41
0
  0
VERTEX
  8
0
 10
202.768
 20
122.221
 30
0.0
 40
0
 41
0
  0
VERTEX
  8
0
 10
203.072
 20
121.969
 30
0.0
 40
0
 41
0
  0
VERTEX
  8
0
 10
203.356
 20
121.683
 30
0.0
 40
0
 41
0
  0
VERTEX
  8
0
 10
203.553
 20
121.447
 30
0.0
 40
0
 41
0
  0
VERTEX
  8
0
 10
203.612
 20
121.365
 30
0.0
 40
0
 41
0
  0
VERTEX
  8
0
 10
203.672
 20
121.282
 30
0.0
 40
0
 41
0
  0
VERTEX
  8
0
 10
203.836
 20
121.022
 30
0.0
 40
0
 41
0
  0
VERTEX
  8
0
 10
204.021
 20
120.665
 30
0.0
 40
0
 41
0
  0
VERTEX
  8
0
 10
204.167
 20
120.297
 30
0.0
 40
0
 41
0
  0
VERTEX
  8
0
 10
204.274
 20
119.92
 30
0.0
 40
0
 41
0
  0
VERTEX
  8
0
 10
204.343
 20
119.538
 30
0.0
 40
0
 41
0
  0
VERTEX
  8
0
 10
204.374
 20
119.154
 30
0.0
 40
0
 41
0
  0
VERTEX
  8
0
 10
204.369
 20
118.769
 30
0.0
 40
0
 41
0
  0
VERTEX
  8
0
 10
204.328
 20
118.388
 30
0.0
 40
0
 41
0
  0
VERTEX
  8
0
 10
204.249
 20
118.012
 30
0.0
 40
0
 41
0
  0
VERTEX
  8
0
 10
204.135
 20
117.645
 30
0.0
 40
0
 41
0
  0
VERTEX
  8
0
 10
203.986
 20
117.289
 30
0.0
 40
0
 41
0
  0
VERTEX
  8
0
 10
203.803
 20
116.947
 30
0.0
 40
0
 41
0
  0
VERTEX
  8
0
 10
203.585
 20
116.622
 30
0.0
 40
0
 41
0
  0
VERTEX
  8
0
 10
203.332
 20
116.317
 30
0.0
 40
0
 41
0
  0
VERTEX
  8
0
 10
203.046
 20
116.034
 30
0.0
 40
0
 41
0
  0
VERTEX
  8
0
 10
202.81
 20
115.837
 30
0.0
 40
0
 41
0
  0
VERTEX
  8
0
 10
202.728
 20
115.777
 30
0.0
 40
0
 41
0
  0
VERTEX
  8
0
 10
202.644
 20
115.717
 30
0.0
 40
0
 41
0
  0
VERTEX
  8
0
 10
202.385
 20
115.554
 30
0.0
 40
0
 41
0
  0
VERTEX
  8
0
 10
202.028
 20
115.369
 30
0.0
 40
0
 41
0
  0
VERTEX
  8
0
 10
201.66
 20
115.224
 30
0.0
 40
0
 41
0
  0
VERTEX
  8
0
 10
201.283
 20
115.117
 30
0.0
 40
0
 41
0
  0
VERTEX
  8
0
 10
200.901
 20
115.047
 30
0.0
 40
0
 41
0
  0
VERTEX
  8
0
 10
200.517
 20
115.016
 30
0.0
 40
0
 41
0
  0
VERTEX
  8
0
 10
200.132
 20
115.021
 30
0.0
 40
0
 41
0
  0
VERTEX
  8
0
 10
199.75
 20
115.063
 30
0.0
 40
0
 41
0
  0
VERTEX
  8
0
 10
199.375
 20
115.141
 30
0.0
 40
0
 41
0
  0
VERTEX
  8
0
 10
199.007
 20
115.255
 30
0.0
 40
0
 41
0
  0
VERTEX
  8
0
 10
198.651
 20
115.404
 30
0.0
 40
0
 41
0
  0
VERTEX
  8
0
 10
198.31
 20
115.587
 30
0.0
 40
0
 41
0
  0
VERTEX
  8
0
 10
197.985
 20
115.806
 30
0.0
 40
0
 41
0
  0
VERTEX
  8
0
 10
197.679
 20
116.058
 30
0.0
 40
0
 41
0
  0
VERTEX
  8
0
 10
197.397
 20
116.344
 30
0.0
 40
0
 41
0
  0
VERTEX
  8
0
 10
197.2
 20
116.58
 30
0.0
 40
0
 41
0
  0
VERTEX
  8
0
 10
197.14
 20
116.662
 30
0.0
 40
0
 41
0
  0
SEQEND
 8
0
  0
POLYLINE
  8
0
 62
     0
 66
     1
 10
0
 20
0
 30
0.0
 70
     1
 40
0
 41
0
  0
VERTEX
  8
0
 10
192.454
 20
131.798
 30
0.0
 40
0
 41
0
  0
VERTEX
  8
0
 10
195.981
 20
126.944
 30
0.0
 40
0
 41
0
  0
VERTEX
  8
0
 10
194.192
 20
125.645
 30
0.0
 40
0
 41
0
  0
VERTEX
  8
0
 10
190.665
 20
130.499
 30
0.0
 40
0
 41
0
  0
SEQEND
 8
0
  0
POLYLINE
  8
0
 62
     0
 66
     1
 10
0
 20
0
 30
0.0
 70
     1
 40
0
 41
0
  0
VERTEX
  8
0
 10
185.769
 20
115.429
 30
0.0
 40
0
 41
0
  0
VERTEX
  8
0
 10
191.475
 20
117.283
 30
0.0
 40
0
 41
0
  0
VERTEX
  8
0
 10
192.158
 20
115.181
 30
0.0
 40
0
 41
0
  0
VERTEX
  8
0
 10
186.451
 20
113.327
 30
0.0
 40
0
 41
0
  0
SEQEND
 8
0
  0
POLYLINE
  8
0
 62
     0
 66
     1
 10
0
 20
0
 30
0.0
 70
     1
 40
0
 41
0
  0
VERTEX
  8
0
 10
199.271
 20
104.013
 30
0.0
 40
0
 41
0
  0
VERTEX
  8
0
 10
199.271
 20
110.013
 30
0.0
 40
0
 41
0
  0
VERTEX
  8
0
 10
201.482
 20
110.013
 30
0.0
 40
0
 41
0
  0
VERTEX
  8
0
 10
201.482
 20
104.013
 30
0.0
 40
0
 41
0
  0
SEQEND
 8
0
  0
POLYLINE
  8
0
 62
     0
 66
     1
 10
0
 20
0
 30
0.0
 70
     1
 40
0
 41
0
  0
VERTEX
  8
0
 10
214.301
 20
113.327
 30
0.0
 40
0
 41
0
  0
VERTEX
  8
0
 10
208.594
 20
115.181
 30
0.0
 40
0
 41
0
  0
VERTEX
  8
0
 10
209.278
 20
117.283
 30
0.0
 40
0
 41
0
  0
VERTEX
  8
0
 10
214.983
 20
115.429
 30
0.0
 40
0
 41
0
  0
SEQEND
 8
0
  0
POLYLINE
  8
0
 62
     0
 66
     1
 10
0
 20
0
 30
0.0
 70
     1
 40
0
 41
0
  0
VERTEX
  8
0
 10
210.087
 20
130.499
 30
0.0
 40
0
 41
0
  0
VERTEX
  8
0
 10
206.56
 20
125.645
 30
0.0
 40
0
 41
0
  0
VERTEX
  8
0
 10
204.772
 20
126.944
 30
0.0
 40
0
 41
0
  0
VERTEX
  8
0
 10
208.299
 20
131.798
 30
0.0
 40
0
 41
0
  0
SEQEND
 8
0
  0
POLYLINE
  8
0
 62
     0
 66
     1
 10
0
 20
0
 30
0.0
 70
     1
 40
0
 41
0
  0
VERTEX
  8
0
 10
216.438
 20
87.8478
 30
0.0
 40
0
 41
0
  0
VERTEX
  8
0
 10
198.803
 20
100.659
 30
0.0
 40
0
 41
0
  0
VERTEX
  8
0
 10
181.169
 20
87.8478
 30
0.0
 40
0
 41
0
  0
VERTEX
  8
0
 10
187.906
 20
67.1183
 30
0.0
 40
0
 41
0
  0
VERTEX
  8
0
 10
209.701
 20
67.1183
 30
0.0
 40
0
 41
0
  0
VERTEX
  8
0
 10
216.438
 20
87.8478
 30
0.0
 40
0
 41
0
  0
SEQEND
 8
0
  0
POLYLINE
  8
0
 62
     0
 66
     1
 10
0
 20
0
 30
0.0
 70
     1
 40
0
 41
0
  0
VERTEX
  8
0
 10
200.039
 20
85.9225
 30
0.0
 40
0
 41
0
  0
VERTEX
  8
0
 10
200.136
 20
85.891
 30
0.0
 40
0
 41
0
  0
VERTEX
  8
0
 10
200.422
 20
85.7765
 30
0.0
 40
0
 41
0
  0
VERTEX
  8
0
 10
200.781
 20
85.5963
 30
0.0
 40
0
 41
0
  0
VERTEX
  8
0
 10
201.115
 20
85.3839
 30
0.0
 40
0
 41
0
  0
VERTEX
  8
0
 10
201.424
 20
85.1425
 30
0.0
 40
0
 41
0
  0
VERTEX
  8
0
 10
201.704
 20
84.8743
 30
0.0
 40
0
 41
0
  0
VERTEX
  8
0
 10
201.956
 20
84.5818
 30
0.0
 40
0
 41
0
  0
VERTEX
  8
0
 10
202.176
 20
84.2676
 30
0.0
 40
0
 41
0
  0
VERTEX
  8
0
 10
202.367
 20
83.9343
 30
0.0
 40
0
 41
0
  0
VERTEX
  8
0
 10
202.525
 20
83.5844
 30
0.0
 40
0
 41
0
  0
VERTEX
  8
0
 10
202.649
 20
83.2204
 30
0.0
 40
0
 41
0
  0
VERTEX
  8
0
 10
202.737
 20
82.8447
 30
0.0
 40
0
 41
0
  0
VERTEX
  8
0
 10
202.79
 20
82.4603
 30
0.0
 40
0
 41
0
  0
VERTEX
  8
0
 10
202.804
 20
82.0692
 30
0.0
 40
0
 41
0
  0
VERTEX
  8
0
 10
202.779
 20
81.6742
 30
0.0
 40
0
 41
0
  0
VERTEX
  8
0
 10
202.714
 20
81.2776
 30
0.0
 40
0
 41
0
  0
VERTEX
  8
0
 10
202.639
 20
80.9796
 30
0.0
 40
0
 41
0
  0
VERTEX
  8
0
 10
202.607
 20
80.8822
 30
0.0
 40
0
 41
0
  0
VERTEX
  8
0
 10
202.576
 20
80.785
 30
0.0
 40
0
 41
0
  0
VERTEX
  8
0
 10
202.461
 20
80.4997
 30
0.0
 40
0
 41
0
  0
VERTEX
  8
0
 10
202.281
 20
80.1407
 30
0.0
 40
0
 41
0
  0
VERTEX
  8
0
 10
202.069
 20
79.8065
 30
0.0
 40
0
 41
0
  0
VERTEX
  8
0
 10
201.828
 20
79.4986
 30
0.0
 40
0
 41
0
  0
VERTEX
  8
0
 10
201.56
 20
79.2182
 30
0.0
 40
0
 41
0
  0
VERTEX
  8
0
 10
201.267
 20
78.9664
 30
0.0
 40
0
 41
0
  0
VERTEX
  8
0
 10
200.953
 20
78.7447
 30
0.0
 40
0
 41
0
  0
VERTEX
  8
0
 10
200.619
 20
78.5543
 30
0.0
 40
0
 41
0
  0
VERTEX
  8
0
 10
200.269
 20
78.3965
 30
0.0
 40
0
 41
0
  0
VERTEX
  8
0
 10
199.906
 20
78.2728
 30
0.0
 40
0
 41
0
  0
VERTEX
  8
0
 10
199.529
 20
78.184
 30
0.0
 40
0
 41
0
  0
VERTEX
  8
0
 10
199.146
 20
78.1319
 30
0.0
 40
0
 41
0
  0
VERTEX
  8
0
 10
198.754
 20
78.1175
 30
0.0
 40
0
 41
0
  0
VERTEX
  8
0
 10
198.36
 20
78.1422
 30
0.0
 40
0
 41
0
  0
VERTEX
  8
0
 10
197.962
 20
78.2074
 30
0.0
 40
0
 41
0
  0
VERTEX
  8
0
 10
197.664
 20
78.2825
 30
0.0
 40
0
 41
0
  0
VERTEX
  8
0
 10
197.567
 20
78.314
 30
0.0
 40
0
 41
0
  0
VERTEX
  8
0
 10
197.469
 20
78.3457
 30
0.0
 40
0
 41
0
  0
VERTEX
  8
0
 10
197.185
 20
78.4601
 30
0.0
 40
0
 41
0
  0
VERTEX
  8
0
 10
196.825
 20
78.6406
 30
0.0
 40
0
 41
0
  0
VERTEX
  8
0
 10
196.492
 20
78.8526
 30
0.0
 40
0
 41
0
  0
VERTEX
  8
0
 10
196.183
 20
79.0942
 30
0.0
 40
0
 41
0
  0
VERTEX
  8
0
 10
195.903
 20
79.3625
 30
0.0
 40
0
 41
0
  0
VERTEX
  8
0
 10
195.651
 20
79.6549
 30
0.0
 40
0
 41
0
  0
VERTEX
  8
0
 10
195.429
 20
79.969
 30
0.0
 40
0
 41
0
  0
VERTEX
  8
0
 10
195.239
 20
80.3024
 30
0.0
 40
0
 41
0
  0
VERTEX
  8
0
 10
195.082
 20
80.6522
 30
0.0
 40
0
 41
0
  0
VERTEX
  8
0
 10
194.958
 20
81.0164
 30
0.0
 40
0
 41
0
  0
VERTEX
  8
0
 10
194.869
 20
81.3919
 30
0.0
 40
0
 41
0
  0
VERTEX
  8
0
 10
194.817
 20
81.7765
 30
0.0
 40
0
 41
0
  0
VERTEX
  8
0
 10
194.803
 20
82.1676
 30
0.0
 40
0
 41
0
  0
VERTEX
  8
0
 10
194.828
 20
82.5626
 30
0.0
 40
0
 41
0
  0
VERTEX
  8
0
 10
194.892
 20
82.959
 30
0.0
 40
0
 41
0
  0
VERTEX
  8
0
 10
194.968
 20
83.2572
 30
0.0
 40
0
 41
0
  0
VERTEX
  8
0
 10
194.999
 20
83.3544
 30
0.0
 40
0
 41
0
  0
VERTEX
  8
0
 10
195.031
 20
83.4517
 30
0.0
 40
0
 41
0
  0
VERTEX
  8
0
 10
195.144
 20
83.7369
 30
0.0
 40
0
 41
0
  0
VERTEX
  8
0
 10
195.325
 20
84.096
 30
0.0
 40
0
 41
0
  0
VERTEX
  8
0
 10
195.538
 20
84.4301
 30
0.0
 40
0
 41
0
  0
VERTEX
  8
0
 10
195.779
 20
84.7381
 30
0.0
 40
0
 41
0
  0
VERTEX
  8
0
 10
196.047
 20
85.0186
 30
0.0
 40
0
 41
0
  0
VERTEX
  8
0
 10
196.34
 20
85.2703
 30
0.0
 40
0
 41
0
  0
VERTEX
  8
0
 10
196.654
 20
85.4919
 30
0.0
 40
0
 41
0
  0
VERTEX
  8
0
 10
196.987
 20
85.6824
 30
0.0
 40
0
 41
0
  0
VERTEX
  8
0
 10
197.337
 20
85.8401
 30
0.0
 40
0
 41
0
  0
VERTEX
  8
0
 10
197.701
 20
85.964
 30
0.0
 40
0
 41
0
  0
VERTEX
  8
0
 10
198.076
 20
86.0526
 30
0.0
 40
0
 41
0
  0
VERTEX
  8
0
 10
198.461
 20
86.1047
 30
0.0
 40
0
 41
0
  0
VERTEX
  8
0
 10
198.853
 20
86.119
 30
0.0
 40
0
 41
0
  0
VERTEX
  8
0
 10
199.247
 20
86.0944
 30
0.0
 40
0
 41
0
  0
VERTEX
  8
0
 10
199.644
 20
86.0293
 30
0.0
 40
0
 41
0
  0
VERTEX
  8
0
 10
199.942
 20
85.9542
 30
0.0
 40
0
 41
0
  0
VERTEX
  8
0
 10
200.039
 20
85.9225
 30
0.0
 40
0
 41
0
  0
SEQEND
 8
0
  0
POLYLINE
  8
0
 62
     0
 66
     1
 10
0
 20
0
 30
0.0
 70
     1
 40
0
 41
0
  0
VERTEX
  8
0
 10
212.728
 20
76.4321
 30
0.0
 40
0
 41
0
  0
VERTEX
  8
0
 10
207.021
 20
78.2862
 30
0.0
 40
0
 41
0
  0
VERTEX
  8
0
 10
207.704
 20
80.3881
 30
0.0
 40
0
 41
0
  0
VERTEX
  8
0
 10
213.411
 20
78.534
 30
0.0
 40
0
 41
0
  0
SEQEND
 8
0
  0
POLYLINE
  8
0
 62
     0
 66
     1
 10
0
 20
0
 30
0.0
 70
     1
 40
0
 41
0
  0
VERTEX
  8
0
 10
208.514
 20
93.6042
 30
0.0
 40
0
 41
0
  0
VERTEX
  8
0
 10
204.987
 20
88.75
 30
0.0
 40
0
 41
0
  0
VERTEX
  8
0
 10
203.2
 20
90.049
 30
0.0
 40
0
 41
0
  0
VERTEX
  8
0
 10
206.726
 20
94.9031
 30
0.0
 40
0
 41
0
  0
SEQEND
 8
0
  0
POLYLINE
  8
0
 62
     0
 66
     1
 10
0
 20
0
 30
0.0
 70
     1
 40
0
 41
0
  0
VERTEX
  8
0
 10
190.881
 20
94.9031
 30
0.0
 40
0
 41
0
  0
VERTEX
  8
0
 10
194.407
 20
90.049
 30
0.0
 40
0
 41
0
  0
VERTEX
  8
0
 10
192.619
 20
88.75
 30
0.0
 40
0
 41
0
  0
VERTEX
  8
0
 10
189.093
 20
93.6042
 30
0.0
 40
0
 41
0
  0
SEQEND
 8
0
  0
POLYLINE
  8
0
 62
     0
 66
     1
 10
0
 20
0
 30
0.0
 70
     1
 40
0
 41
0
  0
VERTEX
  8
0
 10
184.196
 20
78.534
 30
0.0
 40
0
 41
0
  0
VERTEX
  8
0
 10
189.903
 20
80.3881
 30
0.0
 40
0
 41
0
  0
VERTEX
  8
0
 10
190.585
 20
78.2862
 30
0.0
 40
0
 41
0
  0
VERTEX
  8
0
 10
184.879
 20
76.4321
 30
0.0
 40
0
 41
0
  0
SEQEND
 8
0
  0
POLYLINE
  8
0
 62
     0
 66
     1
 10
0
 20
0
 30
0.0
 70
     1
 40
0
 41
0
  0
VERTEX
  8
0
 10
197.699
 20
67.1183
 30
0.0
 40
0
 41
0
  0
VERTEX
  8
0
 10
197.699
 20
73.1183
 30
0.0
 40
0
 41
0
  0
VERTEX
  8
0
 10
199.908
 20
73.1183
 30
0.0
 40
0
 41
0
  0
VERTEX
  8
0
 10
199.908
 20
67.1183
 30
0.0
 40
0
 41
0
  0
SEQEND
 8
0
  0
POLYLINE
  8
0
 62
     0
 66
     1
 10
0
 20
0
 30
0.0
 70
     1
 40
0
 41
0
  0
VERTEX
  8
0
 10
205.136
 20
177.804
 30
0.0
 40
0
 41
0
  0
VERTEX
  8
0
 10
211.872
 20
198.533
 30
0.0
 40
0
 41
0
  0
VERTEX
  8
0
 10
194.239
 20
211.344
 30
0.0
 40
0
 41
0
  0
VERTEX
  8
0
 10
176.604
 20
198.533
 30
0.0
 40
0
 41
0
  0
VERTEX
  8
0
 10
183.34
 20
177.804
 30
0.0
 40
0
 41
0
  0
VERTEX
  8
0
 10
205.136
 20
177.804
 30
0.0
 40
0
 41
0
  0
SEQEND
 8
0
  0
POLYLINE
  8
0
 62
     0
 66
     1
 10
0
 20
0
 30
0.0
 70
     1
 40
0
 41
0
  0
VERTEX
  8
0
 10
198.239
 20
192.804
 30
0.0
 40
0
 41
0
  0
VERTEX
  8
0
 10
198.239
 20
192.701
 30
0.0
 40
0
 41
0
  0
VERTEX
  8
0
 10
198.218
 20
192.394
 30
0.0
 40
0
 41
0
  0
VERTEX
  8
0
 10
198.157
 20
191.997
 30
0.0
 40
0
 41
0
  0
VERTEX
  8
0
 10
198.058
 20
191.614
 30
0.0
 40
0
 41
0
  0
VERTEX
  8
0
 10
197.924
 20
191.247
 30
0.0
 40
0
 41
0
  0
VERTEX
  8
0
 10
197.756
 20
190.897
 30
0.0
 40
0
 41
0
  0
VERTEX
  8
0
 10
197.556
 20
190.568
 30
0.0
 40
0
 41
0
  0
VERTEX
  8
0
 10
197.325
 20
190.26
 30
0.0
 40
0
 41
0
  0
VERTEX
  8
0
 10
197.067
 20
189.975
 30
0.0
 40
0
 41
0
  0
VERTEX
  8
0
 10
196.782
 20
189.717
 30
0.0
 40
0
 41
0
  0
VERTEX
  8
0
 10
196.475
 20
189.487
 30
0.0
 40
0
 41
0
  0
VERTEX
  8
0
 10
196.144
 20
189.286
 30
0.0
 40
0
 41
0
  0
VERTEX
  8
0
 10
195.796
 20
189.118
 30
0.0
 40
0
 41
0
  0
VERTEX
  8
0
 10
195.428
 20
188.983
 30
0.0
 40
0
 41
0
  0
VERTEX
  8
0
 10
195.044
 20
188.885
 30
0.0
 40
0
 41
0
  0
VERTEX
  8
0
 10
194.647
 20
188.825
 30
0.0
 40
0
 41
0
  0
VERTEX
  8
0
 10
194.34
 20
188.804
 30
0.0
 40
0
 41
0
  0
VERTEX
  8
0
 10
194.239
 20
188.804
 30
0.0
 40
0
 41
0
  0
VERTEX
  8
0
 10
194.136
 20
188.804
 30
0.0
 40
0
 41
0
  0
VERTEX
  8
0
 10
193.829
 20
188.825
 30
0.0
 40
0
 41
0
  0
VERTEX
  8
0
 10
193.432
 20
188.885
 30
0.0
 40
0
 41
0
  0
VERTEX
  8
0
 10
193.049
 20
188.983
 30
0.0
 40
0
 41
0
  0
VERTEX
  8
0
 10
192.681
 20
189.118
 30
0.0
 40
0
 41
0
  0
VERTEX
  8
0
 10
192.332
 20
189.286
 30
0.0
 40
0
 41
0
  0
VERTEX
  8
0
 10
192.001
 20
189.487
 30
0.0
 40
0
 41
0
  0
VERTEX
  8
0
 10
191.694
 20
189.717
 30
0.0
 40
0
 41
0
  0
VERTEX
  8
0
 10
191.41
 20
189.975
 30
0.0
 40
0
 41
0
  0
VERTEX
  8
0
 10
191.151
 20
190.26
 30
0.0
 40
0
 41
0
  0
VERTEX
  8
0
 10
190.921
 20
190.568
 30
0.0
 40
0
 41
0
  0
VERTEX
  8
0
 10
190.721
 20
190.897
 30
0.0
 40
0
 41
0
  0
VERTEX
  8
0
 10
190.553
 20
191.247
 30
0.0
 40
0
 41
0
  0
VERTEX
  8
0
 10
190.418
 20
191.614
 30
0.0
 40
0
 41
0
  0
VERTEX
  8
0
 10
190.319
 20
191.997
 30
0.0
 40
0
 41
0
  0
VERTEX
  8
0
 10
190.258
 20
192.394
 30
0.0
 40
0
 41
0
  0
VERTEX
  8
0
 10
190.239
 20
192.701
 30
0.0
 40
0
 41
0
  0
VERTEX
  8
0
 10
190.239
 20
192.804
 30
0.0
 40
0
 41
0
  0
VERTEX
  8
0
 10
190.239
 20
192.906
 30
0.0
 40
0
 41
0
  0
VERTEX
  8
0
 10
190.258
 20
193.212
 30
0.0
 40
0
 41
0
  0
VERTEX
  8
0
 10
190.319
 20
193.61
 30
0.0
 40
0
 41
0
  0
VERTEX
  8
0
 10
190.418
 20
193.993
 30
0.0
 40
0
 41
0
  0
VERTEX
  8
0
 10
190.553
 20
194.361
 30
0.0
 40
0
 41
0
  0
VERTEX
  8
0
 10
190.721
 20
194.711
 30
0.0
 40
0
 41
0
  0
VERTEX
  8
0
 10
190.921
 20
195.04
 30
0.0
 40
0
 41
0
  0
VERTEX
  8
0
 10
191.151
 20
195.349
 30
0.0
 40
0
 41
0
  0
VERTEX
  8
0
 10
191.41
 20
195.632
 30
0.0
 40
0
 41
0
  0
VERTEX
  8
0
 10
191.694
 20
195.89
 30
0.0
 40
0
 41
0
  0
VERTEX
  8
0
 10
192.001
 20
196.121
 30
0.0
 40
0
 41
0
  0
VERTEX
  8
0
 10
192.332
 20
196.321
 30
0.0
 40
0
 41
0
  0
VERTEX
  8
0
 10
192.681
 20
196.489
 30
0.0
 40
0
 41
0
  0
VERTEX
  8
0
 10
193.049
 20
196.624
 30
0.0
 40
0
 41
0
  0
VERTEX
  8
0
 10
193.432
 20
196.722
 30
0.0
 40
0
 41
0
  0
VERTEX
  8
0
 10
193.829
 20
196.783
 30
0.0
 40
0
 41
0
  0
VERTEX
  8
0
 10
194.136
 20
196.804
 30
0.0
 40
0
 41
0
  0
VERTEX
  8
0
 10
194.239
 20
196.804
 30
0.0
 40
0
 41
0
  0
VERTEX
  8
0
 10
194.34
 20
196.804
 30
0.0
 40
0
 41
0
  0
VERTEX
  8
0
 10
194.647
 20
196.783
 30
0.0
 40
0
 41
0
  0
VERTEX
  8
0
 10
195.044
 20
196.722
 30
0.0
 40
0
 41
0
  0
VERTEX
  8
0
 10
195.428
 20
196.624
 30
0.0
 40
0
 41
0
  0
VERTEX
  8
0
 10
195.796
 20
196.489
 30
0.0
 40
0
 41
0
  0
VERTEX
  8
0
 10
196.144
 20
196.321
 30
0.0
 40
0
 41
0
  0
VERTEX
  8
0
 10
196.475
 20
196.121
 30
0.0
 40
0
 41
0
  0
VERTEX
  8
0
 10
196.782
 20
195.89
 30
0.0
 40
0
 41
0
  0
VERTEX
  8
0
 10
197.067
 20
195.632
 30
0.0
 40
0
 41
0
  0
VERTEX
  8
0
 10
197.325
 20
195.349
 30
0.0
 40
0
 41
0
  0
VERTEX
  8
0
 10
197.556
 20
195.04
 30
0.0
 40
0
 41
0
  0
VERTEX
  8
0
 10
197.756
 20
194.711
 30
0.0
 40
0
 41
0
  0
VERTEX
  8
0
 10
197.924
 20
194.361
 30
0.0
 40
0
 41
0
  0
VERTEX
  8
0
 10
198.058
 20
193.993
 30
0.0
 40
0
 41
0
  0
VERTEX
  8
0
 10
198.157
 20
193.61
 30
0.0
 40
0
 41
0
  0
VERTEX
  8
0
 10
198.218
 20
193.212
 30
0.0
 40
0
 41
0
  0
VERTEX
  8
0
 10
198.239
 20
192.906
 30
0.0
 40
0
 41
0
  0
VERTEX
  8
0
 10
198.239
 20
192.804
 30
0.0
 40
0
 41
0
  0
SEQEND
 8
0
  0
POLYLINE
  8
0
 62
     0
 66
     1
 10
0
 20
0
 30
0.0
 70
     1
 40
0
 41
0
  0
VERTEX
  8
0
 10
193.133
 20
177.804
 30
0.0
 40
0
 41
0
  0
VERTEX
  8
0
 10
193.133
 20
183.804
 30
0.0
 40
0
 41
0
  0
VERTEX
  8
0
 10
195.343
 20
183.804
 30
0.0
 40
0
 41
0
  0
VERTEX
  8
0
 10
195.343
 20
177.804
 30
0.0
 40
0
 41
0
  0
SEQEND
 8
0
  0
POLYLINE
  8
0
 62
     0
 66
     1
 10
0
 20
0
 30
0.0
 70
     1
 40
0
 41
0
  0
VERTEX
  8
0
 10
208.163
 20
187.118
 30
0.0
 40
0
 41
0
  0
VERTEX
  8
0
 10
202.457
 20
188.972
 30
0.0
 40
0
 41
0
  0
VERTEX
  8
0
 10
203.139
 20
191.074
 30
0.0
 40
0
 41
0
  0
VERTEX
  8
0
 10
208.846
 20
189.219
 30
0.0
 40
0
 41
0
  0
SEQEND
 8
0
  0
POLYLINE
  8
0
 62
     0
 66
     1
 10
0
 20
0
 30
0.0
 70
     1
 40
0
 41
0
  0
VERTEX
  8
0
 10
203.949
 20
204.29
 30
0.0
 40
0
 41
0
  0
VERTEX
  8
0
 10
200.422
 20
199.436
 30
0.0
 40
0
 41
0
  0
VERTEX
  8
0
 10
198.635
 20
200.735
 30
0.0
 40
0
 41
0
  0
VERTEX
  8
0
 10
202.161
 20
205.589
 30
0.0
 40
0
 41
0
  0
SEQEND
 8
0
  0
POLYLINE
  8
0
 62
     0
 66
     1
 10
0
 20
0
 30
0.0
 70
     1
 40
0
 41
0
  0
VERTEX
  8
0
 10
186.315
 20
205.589
 30
0.0
 40
0
 41
0
  0
VERTEX
  8
0
 10
189.842
 20
200.735
 30
0.0
 40
0
 41
0
  0
VERTEX
  8
0
 10
188.054
 20
199.436
 30
0.0
 40
0
 41
0
  0
VERTEX
  8
0
 10
184.528
 20
204.29
 30
0.0
 40
0
 41
0
  0
SEQEND
 8
0
  0
POLYLINE
  8
0
 62
     0
 66
     1
 10
0
 20
0
 30
0.0
 70
     1
 40
0
 41
0
  0
VERTEX
  8
0
 10
179.631
 20
189.219
 30
0.0
 40
0
 41
0
  0
VERTEX
  8
0
 10
185.337
 20
191.074
 30
0.0
 40
0
 41
0
  0
VERTEX
  8
0
 10
186.019
 20
188.972
 30
0.0
 40
0
 41
0
  0
VERTEX
  8
0
 10
180.314
 20
187.118
 30
0.0
 40
0
 41
0
  0
SEQEND
 8
0
  0
POLYLINE
  8
0
 62
     0
 66
     1
 10
0
 20
0
 30
0.0
 70
     1
 40
0
 41
0
  0
VERTEX
  8
0
 10
177.894
 20
78.0704
 30
0.0
 40
0
 41
0
  0
VERTEX
  8
0
 10
160.574
 20
78.0704
 30
0.0
 40
0
 41
0
  0
VERTEX
  8
0
 10
151.914
 20
63.0704
 30
0.0
 40
0
 41
0
  0
VERTEX
  8
0
 10
160.574
 20
48.0704
 30
0.0
 40
0
 41
0
  0
VERTEX
  8
0
 10
177.894
 20
48.0704
 30
0.0
 40
0
 41
0
  0
VERTEX
  8
0
 10
186.554
 20
63.0704
 30
0.0
 40
0
 41
0
  0
VERTEX
  8
0
 10
177.894
 20
78.0704
 30
0.0
 40
0
 41
0
  0
SEQEND
 8
0
  0
POLYLINE
  8
0
 62
     0
 66
     1
 10
0
 20
0
 30
0.0
 70
     1
 40
0
 41
0
  0
VERTEX
  8
0
 10
168.129
 20
48.0704
 30
0.0
 40
0
 41
0
  0
VERTEX
  8
0
 10
168.129
 20
54.0704
 30
0.0
 40
0
 41
0
  0
VERTEX
  8
0
 10
170.339
 20
54.0704
 30
0.0
 40
0
 41
0
  0
VERTEX
  8
0
 10
170.339
 20
48.0704
 30
0.0
 40
0
 41
0
  0
SEQEND
 8
0
  0
POLYLINE
  8
0
 62
     0
 66
     1
 10
0
 20
0
 30
0.0
 70
     1
 40
0
 41
0
  0
VERTEX
  8
0
 10
181.672
 20
54.6135
 30
0.0
 40
0
 41
0
  0
VERTEX
  8
0
 10
176.475
 20
57.6135
 30
0.0
 40
0
 41
0
  0
VERTEX
  8
0
 10
177.581
 20
59.5274
 30
0.0
 40
0
 41
0
  0
VERTEX
  8
0
 10
182.776
 20
56.5274
 30
0.0
 40
0
 41
0
  0
SEQEND
 8
0
  0
POLYLINE
  8
0
 62
     0
 66
     1
 10
0
 20
0
 30
0.0
 70
     1
 40
0
 41
0
  0
VERTEX
  8
0
 10
182.776
 20
69.6135
 30
0.0
 40
0
 41
0
  0
VERTEX
  8
0
 10
177.581
 20
66.6135
 30
0.0
 40
0
 41
0
  0
VERTEX
  8
0
 10
176.475
 20
68.5274
 30
0.0
 40
0
 41
0
  0
VERTEX
  8
0
 10
181.672
 20
71.5274
 30
0.0
 40
0
 41
0
  0
SEQEND
 8
0
  0
POLYLINE
  8
0
 62
     0
 66
     1
 10
0
 20
0
 30
0.0
 70
     1
 40
0
 41
0
  0
VERTEX
  8
0
 10
170.339
 20
78.0704
 30
0.0
 40
0
 41
0
  0
VERTEX
  8
0
 10
170.339
 20
72.0704
 30
0.0
 40
0
 41
0
  0
VERTEX
  8
0
 10
168.129
 20
72.0704
 30
0.0
 40
0
 41
0
  0
VERTEX
  8
0
 10
168.129
 20
78.0704
 30
0.0
 40
0
 41
0
  0
SEQEND
 8
0
  0
POLYLINE
  8
0
 62
     0
 66
     1
 10
0
 20
0
 30
0.0
 70
     1
 40
0
 41
0
  0
VERTEX
  8
0
 10
156.796
 20
71.5274
 30
0.0
 40
0
 41
0
  0
VERTEX
  8
0
 10
161.992
 20
68.5274
 30
0.0
 40
0
 41
0
  0
VERTEX
  8
0
 10
160.888
 20
66.6135
 30
0.0
 40
0
 41
0
  0
VERTEX
  8
0
 10
155.69
 20
69.6135
 30
0.0
 40
0
 41
0
  0
SEQEND
 8
0
  0
POLYLINE
  8
0
 62
     0
 66
     1
 10
0
 20
0
 30
0.0
 70
     1
 40
0
 41
0
  0
VERTEX
  8
0
 10
155.69
 20
56.5274
 30
0.0
 40
0
 41
0
  0
VERTEX
  8
0
 10
160.888
 20
59.5274
 30
0.0
 40
0
 41
0
  0
VERTEX
  8
0
 10
161.992
 20
57.6135
 30
0.0
 40
0
 41
0
  0
VERTEX
  8
0
 10
156.796
 20
54.6135
 30
0.0
 40
0
 41
0
  0
SEQEND
 8
0
  0
POLYLINE
  8
0
 62
     0
 66
     1
 10
0
 20
0
 30
0.0
 70
     1
 40
0
 41
0
  0
VERTEX
  8
0
 10
139.712
 20
29.2169
 30
0.0
 40
0
 41
0
  0
VERTEX
  8
0
 10
153.725
 20
39.3976
 30
0.0
 40
0
 41
0
  0
VERTEX
  8
0
 10
151.914
 20
56.6233
 30
0.0
 40
0
 41
0
  0
VERTEX
  8
0
 10
136.091
 20
63.6682
 30
0.0
 40
0
 41
0
  0
VERTEX
  8
0
 10
122.079
 20
53.4875
 30
0.0
 40
0
 41
0
  0
VERTEX
  8
0
 10
123.889
 20
36.2618
 30
0.0
 40
0
 41
0
  0
VERTEX
  8
0
 10
139.712
 20
29.2169
 30
0.0
 40
0
 41
0
  0
SEQEND
 8
0
  0
POLYLINE
  8
0
 62
     0
 66
     1
 10
0
 20
0
 30
0.0
 70
     1
 40
0
 41
0
  0
VERTEX
  8
0
 10
129.979
 20
59.2274
 30
0.0
 40
0
 41
0
  0
VERTEX
  8
0
 10
133.506
 20
54.3732
 30
0.0
 40
0
 41
0
  0
VERTEX
  8
0
 10
131.718
 20
53.0742
 30
0.0
 40
0
 41
0
  0
VERTEX
  8
0
 10
128.191
 20
57.9283
 30
0.0
 40
0
 41
0
  0
SEQEND
 8
0
  0
POLYLINE
  8
0
 62
     0
 66
     1
 10
0
 20
0
 30
0.0
 70
     1
 40
0
 41
0
  0
VERTEX
  8
0
 10
122.868
 20
45.9736
 30
0.0
 40
0
 41
0
  0
VERTEX
  8
0
 10
128.836
 20
46.6007
 30
0.0
 40
0
 41
0
  0
VERTEX
  8
0
 10
129.067
 20
44.4028
 30
0.0
 40
0
 41
0
  0
VERTEX
  8
0
 10
123.099
 20
43.7757
 30
0.0
 40
0
 41
0
  0
SEQEND
 8
0
  0
POLYLINE
  8
0
 62
     0
 66
     1
 10
0
 20
0
 30
0.0
 70
     1
 40
0
 41
0
  0
VERTEX
  8
0
 10
130.791
 20
33.1888
 30
0.0
 40
0
 41
0
  0
VERTEX
  8
0
 10
133.232
 20
38.6701
 30
0.0
 40
0
 41
0
  0
VERTEX
  8
0
 10
135.251
 20
37.7713
 30
0.0
 40
0
 41
0
  0
VERTEX
  8
0
 10
132.81
 20
32.29
 30
0.0
 40
0
 41
0
  0
SEQEND
 8
0
  0
POLYLINE
  8
0
 62
     0
 66
     1
 10
0
 20
0
 30
0.0
 70
     1
 40
0
 41
0
  0
VERTEX
  8
0
 10
145.825
 20
33.6578
 30
0.0
 40
0
 41
0
  0
VERTEX
  8
0
 10
142.297
 20
38.5119
 30
0.0
 40
0
 41
0
  0
VERTEX
  8
0
 10
144.086
 20
39.811
 30
0.0
 40
0
 41
0
  0
VERTEX
  8
0
 10
147.612
 20
34.9568
 30
0.0
 40
0
 41
0
  0
SEQEND
 8
0
  0
POLYLINE
  8
0
 62
     0
 66
     1
 10
0
 20
0
 30
0.0
 70
     1
 40
0
 41
0
  0
VERTEX
  8
0
 10
152.935
 20
46.9115
 30
0.0
 40
0
 41
0
  0
VERTEX
  8
0
 10
146.968
 20
46.2844
 30
0.0
 40
0
 41
0
  0
VERTEX
  8
0
 10
146.737
 20
48.4822
 30
0.0
 40
0
 41
0
  0
VERTEX
  8
0
 10
152.704
 20
49.1094
 30
0.0
 40
0
 41
0
  0
SEQEND
 8
0
  0
POLYLINE
  8
0
 62
     0
 66
     1
 10
0
 20
0
 30
0.0
 70
     1
 40
0
 41
0
  0
VERTEX
  8
0
 10
145.013
 20
59.6964
 30
0.0
 40
0
 41
0
  0
VERTEX
  8
0
 10
142.572
 20
54.215
 30
0.0
 40
0
 41
0
  0
VERTEX
  8
0
 10
140.553
 20
55.1139
 30
0.0
 40
0
 41
0
  0
VERTEX
  8
0
 10
142.993
 20
60.5953
 30
0.0
 40
0
 41
0
  0
SEQEND
 8
0
  0
POLYLINE
  8
0
 62
     0
 66
     1
 10
0
 20
0
 30
0.0
 70
     1
 40
0
 41
0
  0
VERTEX
  8
0
 10
87.2947
 20
39.1422
 30
0.0
 40
0
 41
0
  0
VERTEX
  8
0
 10
101.307
 20
28.9615
 30
0.0
 40
0
 41
0
  0
VERTEX
  8
0
 10
117.13
 20
36.0064
 30
0.0
 40
0
 41
0
  0
VERTEX
  8
0
 10
118.941
 20
53.2321
 30
0.0
 40
0
 41
0
  0
VERTEX
  8
0
 10
104.928
 20
63.4128
 30
0.0
 40
0
 41
0
  0
VERTEX
  8
0
 10
89.1051
 20
56.3679
 30
0.0
 40
0
 41
0
  0
VERTEX
  8
0
 10
87.2947
 20
39.1422
 30
0.0
 40
0
 41
0
  0
SEQEND
 8
0
  0
POLYLINE
  8
0
 62
     0
 66
     1
 10
0
 20
0
 30
0.0
 70
     1
 40
0
 41
0
  0
VERTEX
  8
0
 10
112.829
 20
57.6729
 30
0.0
 40
0
 41
0
  0
VERTEX
  8
0
 10
109.302
 20
52.8187
 30
0.0
 40
0
 41
0
  0
VERTEX
  8
0
 10
107.514
 20
54.1178
 30
0.0
 40
0
 41
0
  0
VERTEX
  8
0
 10
111.041
 20
58.9719
 30
0.0
 40
0
 41
0
  0
SEQEND
 8
0
  0
POLYLINE
  8
0
 62
     0
 66
     1
 10
0
 20
0
 30
0.0
 70
     1
 40
0
 41
0
  0
VERTEX
  8
0
 10
98.0263
 20
60.3397
 30
0.0
 40
0
 41
0
  0
VERTEX
  8
0
 10
100.467
 20
54.8585
 30
0.0
 40
0
 41
0
  0
VERTEX
  8
0
 10
98.4476
 20
53.9596
 30
0.0
 40
0
 41
0
  0
VERTEX
  8
0
 10
96.0074
 20
59.4408
 30
0.0
 40
0
 41
0
  0
SEQEND
 8
0
  0
POLYLINE
  8
0
 62
     0
 66
     1
 10
0
 20
0
 30
0.0
 70
     1
 40
0
 41
0
  0
VERTEX
  8
0
 10
88.3154
 20
48.854
 30
0.0
 40
0
 41
0
  0
VERTEX
  8
0
 10
94.2826
 20
48.2268
 30
0.0
 40
0
 41
0
  0
VERTEX
  8
0
 10
94.0515
 20
46.0289
 30
0.0
 40
0
 41
0
  0
VERTEX
  8
0
 10
88.0844
 20
46.6561
 30
0.0
 40
0
 41
0
  0
SEQEND
 8
0
  0
POLYLINE
  8
0
 62
     0
 66
     1
 10
0
 20
0
 30
0.0
 70
     1
 40
0
 41
0
  0
VERTEX
  8
0
 10
93.4071
 20
34.7014
 30
0.0
 40
0
 41
0
  0
VERTEX
  8
0
 10
96.9338
 20
39.5554
 30
0.0
 40
0
 41
0
  0
VERTEX
  8
0
 10
98.7217
 20
38.2564
 30
0.0
 40
0
 41
0
  0
VERTEX
  8
0
 10
95.195
 20
33.4024
 30
0.0
 40
0
 41
0
  0
SEQEND
 8
0
  0
POLYLINE
  8
0
 62
     0
 66
     1
 10
0
 20
0
 30
0.0
 70
     1
 40
0
 41
0
  0
VERTEX
  8
0
 10
108.209
 20
32.0344
 30
0.0
 40
0
 41
0
  0
VERTEX
  8
0
 10
105.769
 20
37.5157
 30
0.0
 40
0
 41
0
  0
VERTEX
  8
0
 10
107.788
 20
38.4147
 30
0.0
 40
0
 41
0
  0
VERTEX
  8
0
 10
110.228
 20
32.9333
 30
0.0
 40
0
 41
0
  0
SEQEND
 8
0
  0
POLYLINE
  8
0
 62
     0
 66
     1
 10
0
 20
0
 30
0.0
 70
     1
 40
0
 41
0
  0
VERTEX
  8
0
 10
117.92
 20
43.5203
 30
0.0
 40
0
 41
0
  0
VERTEX
  8
0
 10
111.953
 20
44.1474
 30
0.0
 40
0
 41
0
  0
VERTEX
  8
0
 10
112.184
 20
46.3453
 30
0.0
 40
0
 41
0
  0
VERTEX
  8
0
 10
118.151
 20
45.7182
 30
0.0
 40
0
 41
0
  0
SEQEND
 8
0
  0
POLYLINE
  8
0
 62
     0
 66
     1
 10
0
 20
0
 30
0.0
 70
     1
 40
0
 41
0
  0
VERTEX
  8
0
 10
56.9519
 20
61.2908
 30
0.0
 40
0
 41
0
  0
VERTEX
  8
0
 10
51.5996
 20
44.8181
 30
0.0
 40
0
 41
0
  0
VERTEX
  8
0
 10
63.1893
 20
31.9464
 30
0.0
 40
0
 41
0
  0
VERTEX
  8
0
 10
80.1314
 20
35.5475
 30
0.0
 40
0
 41
0
  0
VERTEX
  8
0
 10
85.4836
 20
52.0203
 30
0.0
 40
0
 41
0
  0
VERTEX
  8
0
 10
73.8939
 20
64.8919
 30
0.0
 40
0
 41
0
  0
VERTEX
  8
0
 10
56.9519
 20
61.2908
 30
0.0
 40
0
 41
0
  0
SEQEND
 8
0
  0
POLYLINE
  8
0
 62
     0
 66
     1
 10
0
 20
0
 30
0.0
 70
     1
 40
0
 41
0
  0
VERTEX
  8
0
 10
82.466
 20
42.7329
 30
0.0
 40
0
 41
0
  0
VERTEX
  8
0
 10
76.7597
 20
44.5871
 30
0.0
 40
0
 41
0
  0
VERTEX
  8
0
 10
77.4426
 20
46.6889
 30
0.0
 40
0
 41
0
  0
VERTEX
  8
0
 10
83.149
 20
44.8349
 30
0.0
 40
0
 41
0
  0
SEQEND
 8
0
  0
POLYLINE
  8
0
 62
     0
 66
     1
 10
0
 20
0
 30
0.0
 70
     1
 40
0
 41
0
  0
VERTEX
  8
0
 10
80.4282
 20
57.6349
 30
0.0
 40
0
 41
0
  0
VERTEX
  8
0
 10
75.9693
 20
53.6201
 30
0.0
 40
0
 41
0
  0
VERTEX
  8
0
 10
74.4906
 20
55.2625
 30
0.0
 40
0
 41
0
  0
VERTEX
  8
0
 10
78.9494
 20
59.2772
 30
0.0
 40
0
 41
0
  0
SEQEND
 8
0
  0
POLYLINE
  8
0
 62
     0
 66
     1
 10
0
 20
0
 30
0.0
 70
     1
 40
0
 41
0
  0
VERTEX
  8
0
 10
66.5038
 20
63.3211
 30
0.0
 40
0
 41
0
  0
VERTEX
  8
0
 10
67.7512
 20
57.4522
 30
0.0
 40
0
 41
0
  0
VERTEX
  8
0
 10
65.5896
 20
56.9928
 30
0.0
 40
0
 41
0
  0
VERTEX
  8
0
 10
64.3421
 20
62.8617
 30
0.0
 40
0
 41
0
  0
SEQEND
 8
0
  0
POLYLINE
  8
0
 62
     0
 66
     1
 10
0
 20
0
 30
0.0
 70
     1
 40
0
 41
0
  0
VERTEX
  8
0
 10
54.6172
 20
54.1054
 30
0.0
 40
0
 41
0
  0
VERTEX
  8
0
 10
60.3236
 20
52.2513
 30
0.0
 40
0
 41
0
  0
VERTEX
  8
0
 10
59.6407
 20
50.1494
 30
0.0
 40
0
 41
0
  0
VERTEX
  8
0
 10
53.9343
 20
52.0035
 30
0.0
 40
0
 41
0
  0
SEQEND
 8
0
  0
POLYLINE
  8
0
 62
     0
 66
     1
 10
0
 20
0
 30
0.0
 70
     1
 40
0
 41
0
  0
VERTEX
  8
0
 10
56.655
 20
39.2033
 30
0.0
 40
0
 41
0
  0
VERTEX
  8
0
 10
61.1139
 20
43.2182
 30
0.0
 40
0
 41
0
  0
VERTEX
  8
0
 10
62.5928
 20
41.5758
 30
0.0
 40
0
 41
0
  0
VERTEX
  8
0
 10
58.1339
 20
37.561
 30
0.0
 40
0
 41
0
  0
SEQEND
 8
0
  0
POLYLINE
  8
0
 62
     0
 66
     1
 10
0
 20
0
 30
0.0
 70
     1
 40
0
 41
0
  0
VERTEX
  8
0
 10
70.5794
 20
33.5172
 30
0.0
 40
0
 41
0
  0
VERTEX
  8
0
 10
69.3319
 20
39.3861
 30
0.0
 40
0
 41
0
  0
VERTEX
  8
0
 10
71.4937
 20
39.8456
 30
0.0
 40
0
 41
0
  0
VERTEX
  8
0
 10
72.7411
 20
33.9767
 30
0.0
 40
0
 41
0
  0
SEQEND
 8
0
  0
POLYLINE
  8
0
 62
     0
 66
     1
 10
0
 20
0
 30
0.0
 70
     1
 40
0
 41
0
  0
VERTEX
  8
0
 10
18.2389
 20
44.5253
 30
0.0
 40
0
 41
0
  0
VERTEX
  8
0
 10
32.2515
 20
34.3444
 30
0.0
 40
0
 41
0
  0
VERTEX
  8
0
 10
48.0746
 20
41.3894
 30
0.0
 40
0
 41
0
  0
VERTEX
  8
0
 10
49.8851
 20
58.615
 30
0.0
 40
0
 41
0
  0
VERTEX
  8
0
 10
35.8725
 20
68.7958
 30
0.0
 40
0
 41
0
  0
VERTEX
  8
0
 10
20.0493
 20
61.7508
 30
0.0
 40
0
 41
0
  0
VERTEX
  8
0
 10
18.2389
 20
44.5253
 30
0.0
 40
0
 41
0
  0
SEQEND
 8
0
  0
POLYLINE
  8
0
 62
     0
 66
     1
 10
0
 20
0
 30
0.0
 70
     1
 40
0
 41
0
  0
VERTEX
  8
0
 10
43.7728
 20
63.0558
 30
0.0
 40
0
 41
0
  0
VERTEX
  8
0
 10
40.246
 20
58.2018
 30
0.0
 40
0
 41
0
  0
VERTEX
  8
0
 10
38.4581
 20
59.5008
 30
0.0
 40
0
 41
0
  0
VERTEX
  8
0
 10
41.9849
 20
64.3549
 30
0.0
 40
0
 41
0
  0
SEQEND
 8
0
  0
POLYLINE
  8
0
 62
     0
 66
     1
 10
0
 20
0
 30
0.0
 70
     1
 40
0
 41
0
  0
VERTEX
  8
0
 10
28.9704
 20
65.7228
 30
0.0
 40
0
 41
0
  0
VERTEX
  8
0
 10
31.4108
 20
60.2415
 30
0.0
 40
0
 41
0
  0
VERTEX
  8
0
 10
29.3918
 20
59.3426
 30
0.0
 40
0
 41
0
  0
VERTEX
  8
0
 10
26.9514
 20
64.8239
 30
0.0
 40
0
 41
0
  0
SEQEND
 8
0
  0
POLYLINE
  8
0
 62
     0
 66
     1
 10
0
 20
0
 30
0.0
 70
     1
 40
0
 41
0
  0
VERTEX
  8
0
 10
19.2597
 20
54.2371
 30
0.0
 40
0
 41
0
  0
VERTEX
  8
0
 10
25.2268
 20
53.6099
 30
0.0
 40
0
 41
0
  0
VERTEX
  8
0
 10
24.9958
 20
51.4119
 30
0.0
 40
0
 41
0
  0
VERTEX
  8
0
 10
19.0286
 20
52.0392
 30
0.0
 40
0
 41
0
  0
SEQEND
 8
0
  0
POLYLINE
  8
0
 62
     0
 66
     1
 10
0
 20
0
 30
0.0
 70
     1
 40
0
 41
0
  0
VERTEX
  8
0
 10
24.3513
 20
40.0843
 30
0.0
 40
0
 41
0
  0
VERTEX
  8
0
 10
27.8779
 20
44.9385
 30
0.0
 40
0
 41
0
  0
VERTEX
  8
0
 10
29.666
 20
43.6394
 30
0.0
 40
0
 41
0
  0
VERTEX
  8
0
 10
26.1392
 20
38.7854
 30
0.0
 40
0
 41
0
  0
SEQEND
 8
0
  0
POLYLINE
  8
0
 62
     0
 66
     1
 10
0
 20
0
 30
0.0
 70
     1
 40
0
 41
0
  0
VERTEX
  8
0
 10
39.1536
 20
37.4175
 30
0.0
 40
0
 41
0
  0
VERTEX
  8
0
 10
36.7132
 20
42.8987
 30
0.0
 40
0
 41
0
  0
VERTEX
  8
0
 10
38.7321
 20
43.7976
 30
0.0
 40
0
 41
0
  0
VERTEX
  8
0
 10
41.1725
 20
38.3164
 30
0.0
 40
0
 41
0
  0
SEQEND
 8
0
  0
POLYLINE
  8
0
 62
     0
 66
     1
 10
0
 20
0
 30
0.0
 70
     1
 40
0
 41
0
  0
VERTEX
  8
0
 10
48.8643
 20
48.9033
 30
0.0
 40
0
 41
0
  0
VERTEX
  8
0
 10
42.8972
 20
49.5304
 30
0.0
 40
0
 41
0
  0
VERTEX
  8
0
 10
43.1282
 20
51.7283
 30
0.0
 40
0
 41
0
  0
VERTEX
  8
0
 10
49.0954
 20
51.1011
 30
0.0
 40
0
 41
0
  0
SEQEND
 8
0
  0
POLYLINE
  8
0
 62
     0
 66
     1
 10
0
 20
0
 30
0.0
 70
     1
 40
0
 41
0
  0
VERTEX
  8
0
 10
217.161
 20
43.8971
 30
0.0
 40
0
 41
0
  0
VERTEX
  8
0
 10
211.808
 20
60.3699
 30
0.0
 40
0
 41
0
  0
VERTEX
  8
0
 10
194.867
 20
63.971
 30
0.0
 40
0
 41
0
  0
VERTEX
  8
0
 10
183.276
 20
51.0993
 30
0.0
 40
0
 41
0
  0
VERTEX
  8
0
 10
188.629
 20
34.6265
 30
0.0
 40
0
 41
0
  0
VERTEX
  8
0
 10
205.571
 20
31.0254
 30
0.0
 40
0
 41
0
  0
VERTEX
  8
0
 10
217.161
 20
43.8971
 30
0.0
 40
0
 41
0
  0
SEQEND
 8
0
  0
POLYLINE
  8
0
 62
     0
 66
     1
 10
0
 20
0
 30
0.0
 70
     1
 40
0
 41
0
  0
VERTEX
  8
0
 10
185.611
 20
43.9139
 30
0.0
 40
0
 41
0
  0
VERTEX
  8
0
 10
191.318
 20
45.7679
 30
0.0
 40
0
 41
0
  0
VERTEX
  8
0
 10
192.001
 20
43.6661
 30
0.0
 40
0
 41
0
  0
VERTEX
  8
0
 10
186.294
 20
41.8119
 30
0.0
 40
0
 41
0
  0
SEQEND
 8
0
  0
POLYLINE
  8
0
 62
     0
 66
     1
 10
0
 20
0
 30
0.0
 70
     1
 40
0
 41
0
  0
VERTEX
  8
0
 10
196.019
 20
33.0557
 30
0.0
 40
0
 41
0
  0
VERTEX
  8
0
 10
197.267
 20
38.9246
 30
0.0
 40
0
 41
0
  0
VERTEX
  8
0
 10
199.429
 20
38.4651
 30
0.0
 40
0
 41
0
  0
VERTEX
  8
0
 10
198.181
 20
32.5962
 30
0.0
 40
0
 41
0
  0
SEQEND
 8
0
  0
POLYLINE
  8
0
 62
     0
 66
     1
 10
0
 20
0
 30
0.0
 70
     1
 40
0
 41
0
  0
VERTEX
  8
0
 10
210.626
 20
36.6401
 30
0.0
 40
0
 41
0
  0
VERTEX
  8
0
 10
206.168
 20
40.6549
 30
0.0
 40
0
 41
0
  0
VERTEX
  8
0
 10
207.647
 20
42.2972
 30
0.0
 40
0
 41
0
  0
VERTEX
  8
0
 10
212.106
 20
38.2824
 30
0.0
 40
0
 41
0
  0
SEQEND
 8
0
  0
POLYLINE
  8
0
 62
     0
 66
     1
 10
0
 20
0
 30
0.0
 70
     1
 40
0
 41
0
  0
VERTEX
  8
0
 10
214.826
 20
51.0826
 30
0.0
 40
0
 41
0
  0
VERTEX
  8
0
 10
209.119
 20
49.2285
 30
0.0
 40
0
 41
0
  0
VERTEX
  8
0
 10
208.438
 20
51.3303
 30
0.0
 40
0
 41
0
  0
VERTEX
  8
0
 10
214.143
 20
53.1844
 30
0.0
 40
0
 41
0
  0
SEQEND
 8
0
  0
POLYLINE
  8
0
 62
     0
 66
     1
 10
0
 20
0
 30
0.0
 70
     1
 40
0
 41
0
  0
VERTEX
  8
0
 10
204.418
 20
61.9407
 30
0.0
 40
0
 41
0
  0
VERTEX
  8
0
 10
203.171
 20
56.0718
 30
0.0
 40
0
 41
0
  0
VERTEX
  8
0
 10
201.01
 20
56.5313
 30
0.0
 40
0
 41
0
  0
VERTEX
  8
0
 10
202.257
 20
62.4001
 30
0.0
 40
0
 41
0
  0
SEQEND
 8
0
  0
POLYLINE
  8
0
 62
     0
 66
     1
 10
0
 20
0
 30
0.0
 70
     1
 40
0
 41
0
  0
VERTEX
  8
0
 10
189.811
 20
58.3564
 30
0.0
 40
0
 41
0
  0
VERTEX
  8
0
 10
194.269
 20
54.3415
 30
0.0
 40
0
 41
0
  0
VERTEX
  8
0
 10
192.792
 20
52.6992
 30
0.0
 40
0
 41
0
  0
VERTEX
  8
0
 10
188.332
 20
56.714
 30
0.0
 40
0
 41
0
  0
SEQEND
 8
0
  0
POLYLINE
  8
0
 62
     0
 66
     1
 10
0
 20
0
 30
0.0
 70
     1
 40
0
 41
0
  0
VERTEX
  8
0
 10
188.651
 20
24.8492
 30
0.0
 40
0
 41
0
  0
VERTEX
  8
0
 10
183.3
 20
41.3219
 30
0.0
 40
0
 41
0
  0
VERTEX
  8
0
 10
166.357
 20
44.9231
 30
0.0
 40
0
 41
0
  0
VERTEX
  8
0
 10
154.768
 20
32.0515
 30
0.0
 40
0
 41
0
  0
VERTEX
  8
0
 10
160.119
 20
15.5786
 30
0.0
 40
0
 41
0
  0
VERTEX
  8
0
 10
177.063
 20
11.9775
 30
0.0
 40
0
 41
0
  0
VERTEX
  8
0
 10
188.651
 20
24.8492
 30
0.0
 40
0
 41
0
  0
SEQEND
 8
0
  0
POLYLINE
  8
0
 62
     0
 66
     1
 10
0
 20
0
 30
0.0
 70
     1
 40
0
 41
0
  0
VERTEX
  8
0
 10
157.103
 20
24.866
 30
0.0
 40
0
 41
0
  0
VERTEX
  8
0
 10
162.808
 20
26.7201
 30
0.0
 40
0
 41
0
  0
VERTEX
  8
0
 10
163.492
 20
24.6183
 30
0.0
 40
0
 41
0
  0
VERTEX
  8
0
 10
157.785
 20
22.7642
 30
0.0
 40
0
 41
0
  0
SEQEND
 8
0
  0
POLYLINE
  8
0
 62
     0
 66
     1
 10
0
 20
0
 30
0.0
 70
     1
 40
0
 41
0
  0
VERTEX
  8
0
 10
167.51
 20
14.0079
 30
0.0
 40
0
 41
0
  0
VERTEX
  8
0
 10
168.758
 20
19.8768
 30
0.0
 40
0
 41
0
  0
VERTEX
  8
0
 10
170.919
 20
19.4172
 30
0.0
 40
0
 41
0
  0
VERTEX
  8
0
 10
169.672
 20
13.5483
 30
0.0
 40
0
 41
0
  0
SEQEND
 8
0
  0
POLYLINE
  8
0
 62
     0
 66
     1
 10
0
 20
0
 30
0.0
 70
     1
 40
0
 41
0
  0
VERTEX
  8
0
 10
182.118
 20
17.5922
 30
0.0
 40
0
 41
0
  0
VERTEX
  8
0
 10
177.658
 20
21.6069
 30
0.0
 40
0
 41
0
  0
VERTEX
  8
0
 10
179.138
 20
23.2493
 30
0.0
 40
0
 41
0
  0
VERTEX
  8
0
 10
183.596
 20
19.2346
 30
0.0
 40
0
 41
0
  0
SEQEND
 8
0
  0
POLYLINE
  8
0
 62
     0
 66
     1
 10
0
 20
0
 30
0.0
 70
     1
 40
0
 41
0
  0
VERTEX
  8
0
 10
186.317
 20
32.0347
 30
0.0
 40
0
 41
0
  0
VERTEX
  8
0
 10
180.611
 20
30.1806
 30
0.0
 40
0
 41
0
  0
VERTEX
  8
0
 10
179.928
 20
32.2825
 30
0.0
 40
0
 41
0
  0
VERTEX
  8
0
 10
185.635
 20
34.1365
 30
0.0
 40
0
 41
0
  0
SEQEND
 8
0
  0
POLYLINE
  8
0
 62
     0
 66
     1
 10
0
 20
0
 30
0.0
 70
     1
 40
0
 41
0
  0
VERTEX
  8
0
 10
175.91
 20
42.8929
 30
0.0
 40
0
 41
0
  0
VERTEX
  8
0
 10
174.661
 20
37.0239
 30
0.0
 40
0
 41
0
  0
VERTEX
  8
0
 10
172.5
 20
37.4833
 30
0.0
 40
0
 41
0
  0
VERTEX
  8
0
 10
173.747
 20
43.3524
 30
0.0
 40
0
 41
0
  0
SEQEND
 8
0
  0
POLYLINE
  8
0
 62
     0
 66
     1
 10
0
 20
0
 30
0.0
 70
     1
 40
0
 41
0
  0
VERTEX
  8
0
 10
161.301
 20
39.3085
 30
0.0
 40
0
 41
0
  0
VERTEX
  8
0
 10
165.761
 20
35.2937
 30
0.0
 40
0
 41
0
  0
VERTEX
  8
0
 10
164.282
 20
33.6514
 30
0.0
 40
0
 41
0
  0
VERTEX
  8
0
 10
159.824
 20
37.6661
 30
0.0
 40
0
 41
0
  0
SEQEND
 8
0
  0
POLYLINE
  8
0
 62
     0
 66
     1
 10
0
 20
0
 30
0.0
 70
     1
 40
0
 41
0
  0
VERTEX
  8
0
 10
103.388
 20
10.1844
 30
0.0
 40
0
 41
0
  0
VERTEX
  8
0
 10
117.401
 20
0.00363499
 30
0.0
 40
0
 41
0
  0
VERTEX
  8
0
 10
133.224
 20
7.04856
 30
0.0
 40
0
 41
0
  0
VERTEX
  8
0
 10
135.034
 20
24.2742
 30
0.0
 40
0
 41
0
  0
VERTEX
  8
0
 10
121.022
 20
34.4549
 30
0.0
 40
0
 41
0
  0
VERTEX
  8
0
 10
105.199
 20
27.41
 30
0.0
 40
0
 41
0
  0
VERTEX
  8
0
 10
103.388
 20
10.1844
 30
0.0
 40
0
 41
0
  0
SEQEND
 8
0
  0
POLYLINE
  8
0
 62
     0
 66
     1
 10
0
 20
0
 30
0.0
 70
     1
 40
0
 41
0
  0
VERTEX
  8
0
 10
128.922
 20
28.715
 30
0.0
 40
0
 41
0
  0
VERTEX
  8
0
 10
125.395
 20
23.861
 30
0.0
 40
0
 41
0
  0
VERTEX
  8
0
 10
123.607
 20
25.16
 30
0.0
 40
0
 41
0
  0
VERTEX
  8
0
 10
127.134
 20
30.014
 30
0.0
 40
0
 41
0
  0
SEQEND
 8
0
  0
POLYLINE
  8
0
 62
     0
 66
     1
 10
0
 20
0
 30
0.0
 70
     1
 40
0
 41
0
  0
VERTEX
  8
0
 10
114.12
 20
31.3819
 30
0.0
 40
0
 41
0
  0
VERTEX
  8
0
 10
116.56
 20
25.9007
 30
0.0
 40
0
 41
0
  0
VERTEX
  8
0
 10
114.541
 20
25.0018
 30
0.0
 40
0
 41
0
  0
VERTEX
  8
0
 10
112.101
 20
30.4831
 30
0.0
 40
0
 41
0
  0
SEQEND
 8
0
  0
POLYLINE
  8
0
 62
     0
 66
     1
 10
0
 20
0
 30
0.0
 70
     1
 40
0
 41
0
  0
VERTEX
  8
0
 10
104.409
 20
19.8961
 30
0.0
 40
0
 41
0
  0
VERTEX
  8
0
 10
110.376
 20
19.269
 30
0.0
 40
0
 41
0
  0
VERTEX
  8
0
 10
110.145
 20
17.0711
 30
0.0
 40
0
 41
0
  0
VERTEX
  8
0
 10
104.178
 20
17.6982
 30
0.0
 40
0
 41
0
  0
SEQEND
 8
0
  0
POLYLINE
  8
0
 62
     0
 66
     1
 10
0
 20
0
 30
0.0
 70
     1
 40
0
 41
0
  0
VERTEX
  8
0
 10
109.5
 20
5.74354
 30
0.0
 40
0
 41
0
  0
VERTEX
  8
0
 10
113.027
 20
10.5976
 30
0.0
 40
0
 41
0
  0
VERTEX
  8
0
 10
114.815
 20
9.29861
 30
0.0
 40
0
 41
0
  0
VERTEX
  8
0
 10
111.288
 20
4.4445
 30
0.0
 40
0
 41
0
  0
SEQEND
 8
0
  0
POLYLINE
  8
0
 62
     0
 66
     1
 10
0
 20
0
 30
0.0
 70
     1
 40
0
 41
0
  0
VERTEX
  8
0
 10
124.303
 20
3.07667
 30
0.0
 40
0
 41
0
  0
VERTEX
  8
0
 10
121.862
 20
8.55794
 30
0.0
 40
0
 41
0
  0
VERTEX
  8
0
 10
123.881
 20
9.45682
 30
0.0
 40
0
 41
0
  0
VERTEX
  8
0
 10
126.322
 20
3.97553
 30
0.0
 40
0
 41
0
  0
SEQEND
 8
0
  0
POLYLINE
  8
0
 62
     0
 66
     1
 10
0
 20
0
 30
0.0
 70
     1
 40
0
 41
0
  0
VERTEX
  8
0
 10
134.013
 20
14.5624
 30
0.0
 40
0
 41
0
  0
VERTEX
  8
0
 10
128.046
 20
15.1896
 30
0.0
 40
0
 41
0
  0
VERTEX
  8
0
 10
128.277
 20
17.3875
 30
0.0
 40
0
 41
0
  0
VERTEX
  8
0
 10
134.245
 20
16.7603
 30
0.0
 40
0
 41
0
  0
SEQEND
 8
0
  0
POLYLINE
  8
0
 62
     0
 66
     1
 10
0
 20
0
 30
0.0
 70
     1
 40
0
 41
0
  0
VERTEX
  8
0
 10
92.1193
 20
31.1964
 30
0.0
 40
0
 41
0
  0
VERTEX
  8
0
 10
74.7989
 20
31.1964
 30
0.0
 40
0
 41
0
  0
VERTEX
  8
0
 10
66.1386
 20
16.1964
 30
0.0
 40
0
 41
0
  0
VERTEX
  8
0
 10
74.7989
 20
1.1964
 30
0.0
 40
0
 41
0
  0
VERTEX
  8
0
 10
92.1193
 20
1.1964
 30
0.0
 40
0
 41
0
  0
VERTEX
  8
0
 10
100.78
 20
16.1964
 30
0.0
 40
0
 41
0
  0
VERTEX
  8
0
 10
92.1193
 20
31.1964
 30
0.0
 40
0
 41
0
  0
SEQEND
 8
0
  0
POLYLINE
  8
0
 62
     0
 66
     1
 10
0
 20
0
 30
0.0
 70
     1
 40
0
 41
0
  0
VERTEX
  8
0
 10
82.3542
 20
1.1964
 30
0.0
 40
0
 41
0
  0
VERTEX
  8
0
 10
82.3542
 20
7.1964
 30
0.0
 40
0
 41
0
  0
VERTEX
  8
0
 10
84.5642
 20
7.1964
 30
0.0
 40
0
 41
0
  0
VERTEX
  8
0
 10
84.5642
 20
1.1964
 30
0.0
 40
0
 41
0
  0
SEQEND
 8
0
  0
POLYLINE
  8
0
 62
     0
 66
     1
 10
0
 20
0
 30
0.0
 70
     1
 40
0
 41
0
  0
VERTEX
  8
0
 10
95.8971
 20
7.73947
 30
0.0
 40
0
 41
0
  0
VERTEX
  8
0
 10
90.7008
 20
10.7395
 30
0.0
 40
0
 41
0
  0
VERTEX
  8
0
 10
91.8058
 20
12.6534
 30
0.0
 40
0
 41
0
  0
VERTEX
  8
0
 10
97.0019
 20
9.65338
 30
0.0
 40
0
 41
0
  0
SEQEND
 8
0
  0
POLYLINE
  8
0
 62
     0
 66
     1
 10
0
 20
0
 30
0.0
 70
     1
 40
0
 41
0
  0
VERTEX
  8
0
 10
97.0019
 20
22.7394
 30
0.0
 40
0
 41
0
  0
VERTEX
  8
0
 10
91.8058
 20
19.7394
 30
0.0
 40
0
 41
0
  0
VERTEX
  8
0
 10
90.7008
 20
21.6533
 30
0.0
 40
0
 41
0
  0
VERTEX
  8
0
 10
95.8971
 20
24.6533
 30
0.0
 40
0
 41
0
  0
SEQEND
 8
0
  0
POLYLINE
  8
0
 62
     0
 66
     1
 10
0
 20
0
 30
0.0
 70
     1
 40
0
 41
0
  0
VERTEX
  8
0
 10
84.5642
 20
31.1964
 30
0.0
 40
0
 41
0
  0
VERTEX
  8
0
 10
84.5642
 20
25.1964
 30
0.0
 40
0
 41
0
  0
VERTEX
  8
0
 10
82.3542
 20
25.1964
 30
0.0
 40
0
 41
0
  0
VERTEX
  8
0
 10
82.3542
 20
31.1964
 30
0.0
 40
0
 41
0
  0
SEQEND
 8
0
  0
POLYLINE
  8
0
 62
     0
 66
     1
 10
0
 20
0
 30
0.0
 70
     1
 40
0
 41
0
  0
VERTEX
  8
0
 10
71.0212
 20
24.6533
 30
0.0
 40
0
 41
0
  0
VERTEX
  8
0
 10
76.2174
 20
21.6533
 30
0.0
 40
0
 41
0
  0
VERTEX
  8
0
 10
75.1124
 20
19.7394
 30
0.0
 40
0
 41
0
  0
VERTEX
  8
0
 10
69.9163
 20
22.7394
 30
0.0
 40
0
 41
0
  0
SEQEND
 8
0
  0
POLYLINE
  8
0
 62
     0
 66
     1
 10
0
 20
0
 30
0.0
 70
     1
 40
0
 41
0
  0
VERTEX
  8
0
 10
69.9163
 20
9.65338
 30
0.0
 40
0
 41
0
  0
VERTEX
  8
0
 10
75.1124
 20
12.6534
 30
0.0
 40
0
 41
0
  0
VERTEX
  8
0
 10
76.2174
 20
10.7395
 30
0.0
 40
0
 41
0
  0
VERTEX
  8
0
 10
71.0212
 20
7.73947
 30
0.0
 40
0
 41
0
  0
SEQEND
 8
0
  0
POLYLINE
  8
0
 62
     0
 66
     1
 10
0
 20
0
 30
0.0
 70
     1
 40
0
 41
0
  0
VERTEX
  8
0
 10
63.3304
 20
14.6542
 30
0.0
 40
0
 41
0
  0
VERTEX
  8
0
 10
57.9782
 20
31.1269
 30
0.0
 40
0
 41
0
  0
VERTEX
  8
0
 10
41.0361
 20
34.7281
 30
0.0
 40
0
 41
0
  0
VERTEX
  8
0
 10
29.4464
 20
21.8564
 30
0.0
 40
0
 41
0
  0
VERTEX
  8
0
 10
34.7988
 20
5.38363
 30
0.0
 40
0
 41
0
  0
VERTEX
  8
0
 10
51.7408
 20
1.7825
 30
0.0
 40
0
 41
0
  0
VERTEX
  8
0
 10
63.3304
 20
14.6542
 30
0.0
 40
0
 41
0
  0
SEQEND
 8
0
  0
POLYLINE
  8
0
 62
     0
 66
     1
 10
0
 20
0
 30
0.0
 70
     1
 40
0
 41
0
  0
VERTEX
  8
0
 10
31.7811
 20
14.671
 30
0.0
 40
0
 41
0
  0
VERTEX
  8
0
 10
37.4874
 20
16.525
 30
0.0
 40
0
 41
0
  0
VERTEX
  8
0
 10
38.1704
 20
14.4232
 30
0.0
 40
0
 41
0
  0
VERTEX
  8
0
 10
32.464
 20
12.5691
 30
0.0
 40
0
 41
0
  0
SEQEND
 8
0
  0
POLYLINE
  8
0
 62
     0
 66
     1
 10
0
 20
0
 30
0.0
 70
     1
 40
0
 41
0
  0
VERTEX
  8
0
 10
42.1889
 20
3.81278
 30
0.0
 40
0
 41
0
  0
VERTEX
  8
0
 10
43.4364
 20
9.68169
 30
0.0
 40
0
 41
0
  0
VERTEX
  8
0
 10
45.5981
 20
9.22222
 30
0.0
 40
0
 41
0
  0
VERTEX
  8
0
 10
44.3506
 20
3.35331
 30
0.0
 40
0
 41
0
  0
SEQEND
 8
0
  0
POLYLINE
  8
0
 62
     0
 66
     1
 10
0
 20
0
 30
0.0
 70
     1
 40
0
 41
0
  0
VERTEX
  8
0
 10
56.7963
 20
7.39714
 30
0.0
 40
0
 41
0
  0
VERTEX
  8
0
 10
52.3374
 20
11.4119
 30
0.0
 40
0
 41
0
  0
VERTEX
  8
0
 10
53.8161
 20
13.0543
 30
0.0
 40
0
 41
0
  0
VERTEX
  8
0
 10
58.275
 20
9.0395
 30
0.0
 40
0
 41
0
  0
SEQEND
 8
0
  0
POLYLINE
  8
0
 62
     0
 66
     1
 10
0
 20
0
 30
0.0
 70
     1
 40
0
 41
0
  0
VERTEX
  8
0
 10
60.9958
 20
21.8396
 30
0.0
 40
0
 41
0
  0
VERTEX
  8
0
 10
55.2894
 20
19.9856
 30
0.0
 40
0
 41
0
  0
VERTEX
  8
0
 10
54.6064
 20
22.0874
 30
0.0
 40
0
 41
0
  0
VERTEX
  8
0
 10
60.3128
 20
23.9415
 30
0.0
 40
0
 41
0
  0
SEQEND
 8
0
  0
POLYLINE
  8
0
 62
     0
 66
     1
 10
0
 20
0
 30
0.0
 70
     1
 40
0
 41
0
  0
VERTEX
  8
0
 10
50.5879
 20
32.6978
 30
0.0
 40
0
 41
0
  0
VERTEX
  8
0
 10
49.3406
 20
26.8289
 30
0.0
 40
0
 41
0
  0
VERTEX
  8
0
 10
47.1788
 20
27.2883
 30
0.0
 40
0
 41
0
  0
VERTEX
  8
0
 10
48.4262
 20
33.1572
 30
0.0
 40
0
 41
0
  0
SEQEND
 8
0
  0
POLYLINE
  8
0
 62
     0
 66
     1
 10
0
 20
0
 30
0.0
 70
     1
 40
0
 41
0
  0
VERTEX
  8
0
 10
35.9807
 20
29.1135
 30
0.0
 40
0
 41
0
  0
VERTEX
  8
0
 10
40.4394
 20
25.0986
 30
0.0
 40
0
 41
0
  0
VERTEX
  8
0
 10
38.9607
 20
23.4562
 30
0.0
 40
0
 41
0
  0
VERTEX
  8
0
 10
34.5018
 20
27.4711
 30
0.0
 40
0
 41
0
  0
SEQEND
 8
0
  0
ENDSEC
  0
EOF
