  0
SECTION
  2
HEADER
  9
$ACADVER
  1
AC1015
  9
$ACADMAINTVER
 70
     6
  9
$DWGCODEPAGE
  3
ANSI_1252
  9
$INSBASE
 10
0.0
 20
0.0
 30
0.0
  9
$EXTMIN
 10
-1.1406087414
 20
4.8278655379
 30
0.0
  9
$EXTMAX
 10
113.8593912586
 20
39.8278655379
 30
0.0
  9
$LIMMIN
 10
0.0
 20
0.0
  9
$LIMMAX
 10
420.0
 20
297.0
  9
$ORTHOMODE
 70
     0
  9
$REGENMODE
 70
     1
  9
$FILLMODE
 70
     1
  9
$QTEXTMODE
 70
     0
  9
$MIRRTEXT
 70
     1
  9
$LTSCALE
 40
1.0
  9
$ATTMODE
 70
     1
  9
$TEXTSIZE
 40
3.175
  9
$TRACEWID
 40
1.0
  9
$TEXTSTYLE
  7
Standard
  9
$CLAYER
  8
0
  9
$CELTYPE
  6
ByLayer
  9
$CECOLOR
 62
   256
  9
$CELTSCALE
 40
1.0
  9
$DISPSILH
 70
     0
  9
$DIMSCALE
 40
1.0
  9
$DIMASZ
 40
3.302
  9
$DIMEXO
 40
0.0
  9
$DIMDLI
 40
3.75
  9
$DIMRND
 40
0.0
  9
$DIMDLE
 40
0.0
  9
$DIMEXE
 40
3.175
  9
$DIMTP
 40
0.0
  9
$DIMTM
 40
0.0
  9
$DIMTXT
 40
3.175
  9
$DIMCEN
 40
2.5
  9
$DIMTSZ
 40
0.0
  9
$DIMTOL
 70
     0
  9
$DIMLIM
 70
     0
  9
$DIMTIH
 70
     1
  9
$DIMTOH
 70
     1
  9
$DIMSE1
 70
     0
  9
$DIMSE2
 70
     0
  9
$DIMTAD
 70
     0
  9
$DIMZIN
 70
     1
  9
$DIMBLK
  1

  9
$DIMASO
 70
     1
  9
$DIMSHO
 70
     1
  9
$DIMPOST
  1

  9
$DIMAPOST
  1

  9
$DIMALT
 70
     0
  9
$DIMALTD
 70
     3
  9
$DIMALTF
 40
0.0393700787
  9
$DIMLFAC
 40
1.0
  9
$DIMTOFL
 70
     1
  9
$DIMTVP
 40
0.0
  9
$DIMTIX
 70
     0
  9
$DIMSOXD
 70
     0
  9
$DIMSAH
 70
     0
  9
$DIMBLK1
  1

  9
$DIMBLK2
  1

  9
$DIMSTYLE
  2
ISO-25
  9
$DIMCLRD
 70
     0
  9
$DIMCLRE
 70
     0
  9
$DIMCLRT
 70
     0
  9
$DIMTFAC
 40
1.0
  9
$DIMGAP
 40
1.524
  9
$DIMJUST
 70
     0
  9
$DIMSD1
 70
     0
  9
$DIMSD2
 70
     0
  9
$DIMTOLJ
 70
     0
  9
$DIMTZIN
 70
     1
  9
$DIMALTZ
 70
     0
  9
$DIMALTTZ
 70
     0
  9
$DIMUPT
 70
     0
  9
$DIMDEC
 70
     2
  9
$DIMTDEC
 70
     2
  9
$DIMALTU
 70
     2
  9
$DIMALTTD
 70
     3
  9
$DIMTXSTY
  7
Standard
  9
$DIMAUNIT
 70
     0
  9
$DIMADEC
 70
     2
  9
$DIMALTRND
 40
0.0
  9
$DIMAZIN
 70
     0
  9
$DIMDSEP
 70
    44
  9
$DIMATFIT
 70
     3
  9
$DIMFRAC
 70
     0
  9
$DIMLDRBLK
  1

  9
$DIMLUNIT
 70
     2
  9
$DIMLWD
 70
    -2
  9
$DIMLWE
 70
    -2
  9
$DIMTMOVE
 70
     0
  9
$LUNITS
 70
     2
  9
$LUPREC
 70
     2
  9
$SKETCHINC
 40
1.0
  9
$FILLETRAD
 40
10.0
  9
$AUNITS
 70
     0
  9
$AUPREC
 70
     2
  9
$MENU
  1
.
  9
$ELEVATION
 40
0.0
  9
$PELEVATION
 40
0.0
  9
$THICKNESS
 40
0.0
  9
$LIMCHECK
 70
     0
  9
$CHAMFERA
 40
0.0
  9
$CHAMFERB
 40
0.0
  9
$CHAMFERC
 40
0.0
  9
$CHAMFERD
 40
0.0
  9
$SKPOLY
 70
     0
  9
$TDCREATE
 40
2459621.660072685
  9
$TDUCREATE
 40
2459621.430906019
  9
$TDUPDATE
 40
2459621.660137188
  9
$TDUUPDATE
 40
2459621.430970521
  9
$TDINDWG
 40
0.0000000116
  9
$TDUSRTIMER
 40
0.0000000116
  9
$USRTIMER
 70
     1
  9
$ANGBASE
 50
0.0
  9
$ANGDIR
 70
     0
  9
$PDMODE
 70
     0
  9
$PDSIZE
 40
-1.0
  9
$PLINEWID
 40
0.0
  9
$SPLFRAME
 70
     0
  9
$SPLINETYPE
 70
     6
  9
$SPLINESEGS
 70
     8
  9
$HANDSEED
  5
DD
  9
$SURFTAB1
 70
     6
  9
$SURFTAB2
 70
     6
  9
$SURFTYPE
 70
     6
  9
$SURFU
 70
     6
  9
$SURFV
 70
     6
  9
$UCSBASE
  2

  9
$UCSNAME
  2

  9
$UCSORG
 10
0.0
 20
0.0
 30
0.0
  9
$UCSXDIR
 10
1.0
 20
0.0
 30
0.0
  9
$UCSYDIR
 10
0.0
 20
1.0
 30
0.0
  9
$UCSORTHOREF
  2

  9
$UCSORTHOVIEW
 70
     0
  9
$UCSORGTOP
 10
0.0
 20
0.0
 30
0.0
  9
$UCSORGBOTTOM
 10
0.0
 20
0.0
 30
0.0
  9
$UCSORGLEFT
 10
0.0
 20
0.0
 30
0.0
  9
$UCSORGRIGHT
 10
0.0
 20
0.0
 30
0.0
  9
$UCSORGFRONT
 10
0.0
 20
0.0
 30
0.0
  9
$UCSORGBACK
 10
0.0
 20
0.0
 30
0.0
  9
$PUCSBASE
  2

  9
$PUCSNAME
  2

  9
$PUCSORG
 10
0.0
 20
0.0
 30
0.0
  9
$PUCSXDIR
 10
1.0
 20
0.0
 30
0.0
  9
$PUCSYDIR
 10
0.0
 20
1.0
 30
0.0
  9
$PUCSORTHOREF
  2

  9
$PUCSORTHOVIEW
 70
     0
  9
$PUCSORGTOP
 10
0.0
 20
0.0
 30
0.0
  9
$PUCSORGBOTTOM
 10
0.0
 20
0.0
 30
0.0
  9
$PUCSORGLEFT
 10
0.0
 20
0.0
 30
0.0
  9
$PUCSORGRIGHT
 10
0.0
 20
0.0
 30
0.0
  9
$PUCSORGFRONT
 10
0.0
 20
0.0
 30
0.0
  9
$PUCSORGBACK
 10
0.0
 20
0.0
 30
0.0
  9
$USERI1
 70
     0
  9
$USERI2
 70
     0
  9
$USERI3
 70
     0
  9
$USERI4
 70
     0
  9
$USERI5
 70
     0
  9
$USERR1
 40
0.0
  9
$USERR2
 40
0.0
  9
$USERR3
 40
0.0
  9
$USERR4
 40
0.0
  9
$USERR5
 40
0.0
  9
$WORLDVIEW
 70
     1
  9
$SHADEDGE
 70
     3
  9
$SHADEDIF
 70
    70
  9
$TILEMODE
 70
     1
  9
$MAXACTVP
 70
    64
  9
$PINSBASE
 10
0.0
 20
0.0
 30
0.0
  9
$PLIMCHECK
 70
     0
  9
$PEXTMIN
 10
1.0000000000E+20
 20
1.0000000000E+20
 30
1.0000000000E+20
  9
$PEXTMAX
 10
-1.0000000000E+20
 20
-1.0000000000E+20
 30
-1.0000000000E+20
  9
$PLIMMIN
 10
0.0
 20
0.0
  9
$PLIMMAX
 10
420.0
 20
297.0
  9
$UNITMODE
 70
     0
  9
$VISRETAIN
 70
     1
  9
$PLINEGEN
 70
     0
  9
$PSLTSCALE
 70
     1
  9
$TREEDEPTH
 70
  3020
  9
$CMLSTYLE
  2
Standard
  9
$CMLJUST
 70
     0
  9
$CMLSCALE
 40
20.0
  9
$PROXYGRAPHICS
 70
     1
  9
$MEASUREMENT
 70
     1
  9
$CELWEIGHT
370
    -1
  9
$ENDCAPS
280
     0
  9
$JOINSTYLE
280
     0
  9
$LWDISPLAY
290
     1
  9
$INSUNITS
 70
     4
  9
$HYPERLINKBASE
  1

  9
$STYLESHEET
  1

  9
$XEDIT
290
     1
  9
$CEPSNTYPE
380
     0
  9
$PSTYLEMODE
290
     1
  9
$FINGERPRINTGUID
  2
{b83eb6cd-7e9d-4ebe-976b-5dcf451316e4}
  9
$VERSIONGUID
  2
{FAEB1C32-E019-11D5-929B-00C0DF256EC4}
  9
$EXTNAMES
290
     1
  9
$PSVPSCALE
 40
0.0
  9
$OLESTARTUP
290
     0
  0
ENDSEC
  0
SECTION
  2
CLASSES
  0
CLASS
  1
ACDBDICTIONARYWDFLT
  2
AcDbDictionaryWithDefault
  3
ObjectDBX Classes
 90
        0
280
     0
281
     0
  0
CLASS
  1
VISUALSTYLE
  2
AcDbVisualStyle
  3
ObjectDBX Classes
 90
     4095
280
     0
281
     0
  0
CLASS
  1
MATERIAL
  2
AcDbMaterial
  3
ObjectDBX Classes
 90
     1153
280
     0
281
     0
  0
CLASS
  1
SCALE
  2
AcDbScale
  3
ObjectDBX Classes
 90
     1153
280
     0
281
     0
  0
CLASS
  1
TABLESTYLE
  2
AcDbTableStyle
  3
ObjectDBX Classes
 90
     4095
280
     0
281
     0
  0
CLASS
  1
MLEADERSTYLE
  2
AcDbMLeaderStyle
  3
ACDB_MLEADERSTYLE_CLASS
 90
     4095
280
     0
281
     0
  0
CLASS
  1
SUN
  2
AcDbSun
  3
SCENEOE
 90
     1153
280
     0
281
     0
  0
CLASS
  1
ACDBPLACEHOLDER
  2
AcDbPlaceHolder
  3
ObjectDBX Classes
 90
        0
280
     0
281
     0
  0
CLASS
  1
LAYOUT
  2
AcDbLayout
  3
ObjectDBX Classes
 90
        0
280
     0
281
     0
  0
ENDSEC
  0
SECTION
  2
TABLES
  0
TABLE
  2
VPORT
  5
8
330
0
100
AcDbSymbolTable
 70
     1
  0
VPORT
  5
29
330
8
100
AcDbSymbolTableRecord
100
AcDbViewportTableRecord
  2
*Active
 70
     0
 10
0.0
 20
0.0
 11
1.0
 21
1.0
 12
56.3593912586
 22
22.3278655379
 13
0.0
 23
0.0
 14
10.0
 24
10.0
 15
10.0
 25
10.0
 16
0.0
 26
0.0
 36
1.0
 17
0.0
 27
0.0
 37
0.0
 40
35.7
 41
3.2857142857
 42
50.0
 43
0.0
 44
0.0
 50
0.0
 51
0.0
 71
     0
 72
   100
 73
     1
 74
     3
 75
     0
 76
     0
 77
     0
 78
     0
281
     0
 65
     1
110
0.0
120
0.0
130
0.0
111
1.0
121
0.0
131
0.0
112
0.0
122
1.0
132
0.0
 79
     0
146
0.0
  0
ENDTAB
  0
TABLE
  2
LTYPE
  5
5
330
0
100
AcDbSymbolTable
 70
     6
  0
LTYPE
  5
14
330
5
100
AcDbSymbolTableRecord
100
AcDbLinetypeTableRecord
  2
ByBlock
 70
     0
  3

 72
    65
 73
     0
 40
0.0
  0
LTYPE
  5
15
330
5
100
AcDbSymbolTableRecord
100
AcDbLinetypeTableRecord
  2
ByLayer
 70
     0
  3

 72
    65
 73
     0
 40
0.0
  0
LTYPE
  5
16
330
5
100
AcDbSymbolTableRecord
100
AcDbLinetypeTableRecord
  2
Continuous
 70
     0
  3
Solid line
 72
    65
 73
     0
 40
0.0
  0
LTYPE
  5
6E
330
5
100
AcDbSymbolTableRecord
100
AcDbLinetypeTableRecord
  2
HIDDEN
 70
     0
  3
Hidden __ __ __ __ __ __ __ __ __ __ __ __ __ __
 72
    65
 73
     2
 40
1.905
 49
1.27
 74
     0
 49
-0.635
 74
     0
  0
LTYPE
  5
6F
330
5
100
AcDbSymbolTableRecord
100
AcDbLinetypeTableRecord
  2
PHANTOM
 70
     0
  3
Phantom ______  __  __  ______  __  __  ______
 72
    65
 73
     6
 40
12.7
 49
6.35
 74
     0
 49
-1.27
 74
     0
 49
1.27
 74
     0
 49
-1.27
 74
     0
 49
1.27
 74
     0
 49
-1.27
 74
     0
  0
LTYPE
  5
70
330
5
100
AcDbSymbolTableRecord
100
AcDbLinetypeTableRecord
  2
CENTER
 70
     0
  3
Center ____ _ ____ _ ____ _ ____ _ ____ _ ____
 72
    65
 73
     4
 40
10.16
 49
6.35
 74
     0
 49
-1.27
 74
     0
 49
1.27
 74
     0
 49
-1.27
 74
     0
  0
LTYPE
  5
71
330
5
100
AcDbSymbolTableRecord
100
AcDbLinetypeTableRecord
  2
CENTERX2
 70
     0
  3
Center (2x) ________  __  ________  __  _____
 72
    65
 73
     4
 40
20.32
 49
12.7
 74
     0
 49
-2.54
 74
     0
 49
2.54
 74
     0
 49
-2.54
 74
     0
  0
LTYPE
  5
72
330
5
100
AcDbSymbolTableRecord
100
AcDbLinetypeTableRecord
  2
DOT2
 70
     0
  3
Dot (.5x) ........................................
 72
    65
 73
     2
 40
0.635
 49
0.0
 74
     0
 49
-0.635
 74
     0
  0
ENDTAB
  0
TABLE
  2
LAYER
  5
2
330
0
100
AcDbSymbolTable
 70
     1
  0
LAYER
  5
10
330
2
100
AcDbSymbolTableRecord
100
AcDbLayerTableRecord
  2
0
 70
     0
 62
     7
  6
Continuous
370
    -3
390
F
  0
ENDTAB
  0
TABLE
  2
STYLE
  5
3
330
0
100
AcDbSymbolTable
 70
     2
  0
STYLE
  5
11
330
3
100
AcDbSymbolTableRecord
100
AcDbTextStyleTableRecord
  2
Standard
 70
     0
 40
0.0
 41
1.0
 50
0.0
 71
     0
 42
3.175
  3
txt
  4

  0
STYLE
  5
D9
330
3
100
AcDbSymbolTableRecord
100
AcDbTextStyleTableRecord
  2
SLDTEXTSTYLE0
 70
     0
 40
0.0
 41
0.7
 50
0.0
 71
     0
 42
3.175
  3
TXT
  4

  0
ENDTAB
  0
TABLE
  2
VIEW
  5
6
330
0
100
AcDbSymbolTable
 70
     0
  0
ENDTAB
  0
TABLE
  2
UCS
  5
7
330
0
100
AcDbSymbolTable
 70
     0
  0
ENDTAB
  0
TABLE
  2
APPID
  5
9
330
0
100
AcDbSymbolTable
 70
     1
  0
APPID
  5
12
330
9
100
AcDbSymbolTableRecord
100
AcDbRegAppTableRecord
  2
ACAD
 70
     0
  0
ENDTAB
  0
TABLE
  2
DIMSTYLE
  5
A
330
0
100
AcDbSymbolTable
 70
     1
100
AcDbDimStyleTable
  0
DIMSTYLE
105
27
330
A
100
AcDbSymbolTableRecord
100
AcDbDimStyleTableRecord
  2
ISO-25
 70
     0
 41
2.5
 42
0.625
 43
3.75
 44
1.25
 73
     0
 74
     0
 77
     1
 78
     8
140
2.5
141
2.5
143
0.0393700787
147
0.625
171
     3
172
     1
178
     0
271
     2
272
     2
274
     3
278
    44
283
     0
284
     8
340
11
  0
ENDTAB
  0
TABLE
  2
BLOCK_RECORD
  5
1
330
0
100
AcDbSymbolTable
 70
     1
  0
BLOCK_RECORD
  5
1F
330
1
100
AcDbSymbolTableRecord
100
AcDbBlockTableRecord
  2
*Model_Space
340
22
  0
BLOCK_RECORD
  5
1B
330
1
100
AcDbSymbolTableRecord
100
AcDbBlockTableRecord
  2
*Paper_Space
340
1E
  0
BLOCK_RECORD
  5
23
330
1
100
AcDbSymbolTableRecord
100
AcDbBlockTableRecord
  2
*Paper_Space0
340
26
  0
ENDTAB
  0
ENDSEC
  0
SECTION
  2
BLOCKS
  0
BLOCK
  5
20
330
1F
100
AcDbEntity
  8
0
100
AcDbBlockBegin
  2
*Model_Space
 70
     0
 10
0.0
 20
0.0
 30
0.0
  3
*Model_Space
  1

  0
ENDBLK
  5
21
330
1F
100
AcDbEntity
  8
0
100
AcDbBlockEnd
  0
BLOCK
  5
1C
330
1B
100
AcDbEntity
 67
     1
  8
0
100
AcDbBlockBegin
  2
*Paper_Space
 70
     0
 10
0.0
 20
0.0
 30
0.0
  3
*Paper_Space
  1

  0
ENDBLK
  5
1D
330
1B
100
AcDbEntity
 67
     1
  8
0
100
AcDbBlockEnd
  0
BLOCK
  5
24
330
23
100
AcDbEntity
  8
0
100
AcDbBlockBegin
  2
*Paper_Space0
 70
     0
 10
0.0
 20
0.0
 30
0.0
  3
*Paper_Space0
  1

  0
ENDBLK
  5
25
330
23
100
AcDbEntity
  8
0
100
AcDbBlockEnd
  0
ENDSEC
  0
SECTION
  2
ENTITIES
  0
LINE
  5
73
330
1F
100
AcDbEntity
  8
0
  6
Continuous
 62
     7
100
AcDbLine
 10
28.8517381006
 20
30.2959550427
 30
0.0
 11
27.4813677303
 21
29.592251339
 31
0.0
  0
LINE
  5
74
330
1F
100
AcDbEntity
  8
0
  6
Continuous
 62
     7
100
AcDbLine
 10
27.4813677303
 20
29.592251339
 30
0.0
 11
15.8147010636
 21
36.3329920797
 31
0.0
  0
LINE
  5
75
330
1F
100
AcDbEntity
  8
0
  6
Continuous
 62
     7
100
AcDbLine
 10
15.8147010636
 20
36.3329920797
 30
0.0
 11
11.9628492118
 21
34.0737328205
 31
0.0
  0
LINE
  5
76
330
1F
100
AcDbEntity
  8
0
  6
Continuous
 62
     7
100
AcDbLine
 10
10.0739603229
 20
30.5181772649
 30
0.0
 11
7.8147010636
 21
31.7774365242
 31
0.0
  0
LINE
  5
77
330
1F
100
AcDbEntity
  8
0
  6
Continuous
 62
     7
100
AcDbLine
 10
7.8147010636
 20
31.7774365242
 30
0.0
 11
4.185071434
 21
29.592251339
 31
0.0
  0
LINE
  5
78
330
1F
100
AcDbEntity
  8
0
  6
Continuous
 62
     7
100
AcDbLine
 10
4.185071434
 20
29.592251339
 30
0.0
 11
2.9628492118
 21
30.4441031908
 31
0.0
  0
LINE
  5
79
330
1F
100
AcDbEntity
  8
0
  6
Continuous
 62
     7
100
AcDbLine
 10
2.4813677303
 20
29.6663254131
 30
0.0
 11
3.7776640266
 21
28.7774365242
 31
0.0
  0
LINE
  5
7A
330
1F
100
AcDbEntity
  8
0
  6
Continuous
 62
     7
100
AcDbLine
 10
3.7776640266
 20
28.7774365242
 30
0.0
 11
3.8517381006
 21
15.3700291168
 31
0.0
  0
LINE
  5
7B
330
1F
100
AcDbEntity
  8
0
  6
Continuous
 62
     7
100
AcDbLine
 10
3.8517381006
 20
15.3700291168
 30
0.0
 11
7.5184047673
 21
13.3329920797
 31
0.0
  0
LINE
  5
7C
330
1F
100
AcDbEntity
  8
0
  6
Continuous
 62
     7
100
AcDbLine
 10
12.222108471
 20
14.0737328205
 30
0.0
 11
12.2961825451
 21
10.4441031908
 31
0.0
  0
LINE
  5
7D
330
1F
100
AcDbEntity
  8
0
  6
Continuous
 62
     7
100
AcDbLine
 10
12.2961825451
 20
10.4441031908
 30
0.0
 11
15.3332195821
 21
8.6663254131
 31
0.0
  0
LINE
  5
7E
330
1F
100
AcDbEntity
  8
0
  6
Continuous
 62
     7
100
AcDbLine
 10
15.3332195821
 20
8.6663254131
 30
0.0
 11
15.2591455081
 21
7.1107698575
 31
0.0
  0
LINE
  5
7F
330
1F
100
AcDbEntity
  8
0
  6
Continuous
 62
     7
100
AcDbLine
 10
16.2961825451
 20
7.1107698575
 30
0.0
 11
16.3702566192
 21
8.7033624501
 31
0.0
  0
LINE
  5
80
330
1F
100
AcDbEntity
  8
0
  6
Continuous
 62
     7
100
AcDbLine
 10
16.3702566192
 20
8.7033624501
 30
0.0
 11
27.9628492118
 21
15.4811402279
 31
0.0
  0
LINE
  5
81
330
1F
100
AcDbEntity
  8
0
  6
Continuous
 62
     7
100
AcDbLine
 10
27.9628492118
 20
15.4811402279
 30
0.0
 11
27.8887751377
 21
20.0366957834
 31
0.0
  0
LINE
  5
82
330
1F
100
AcDbEntity
  8
0
  6
Continuous
 62
     7
100
AcDbLine
 10
25.4813677303
 20
23.1478068945
 30
0.0
 11
27.9258121747
 21
24.4441031908
 31
0.0
  0
LINE
  5
83
330
1F
100
AcDbEntity
  8
0
  6
Continuous
 62
     7
100
AcDbLine
 10
27.9258121747
 20
24.4441031908
 30
0.0
 11
27.9998862488
 21
28.9255846723
 31
0.0
  0
LINE
  5
84
330
1F
100
AcDbEntity
  8
0
  6
Continuous
 62
     7
100
AcDbLine
 10
27.9998862488
 20
28.9255846723
 30
0.0
 11
29.222108471
 21
29.592251339
 31
0.0
  0
LINE
  5
85
330
1F
100
AcDbEntity
  8
0
  6
Continuous
 62
     7
100
AcDbLine
 10
-1.1406087414
 20
39.8278655379
 30
0.0
 11
33.8593912586
 21
39.8278655379
 31
0.0
  0
LINE
  5
86
330
1F
100
AcDbEntity
  8
0
  6
Continuous
 62
     7
100
AcDbLine
 10
-1.1406087414
 20
39.8278655379
 30
0.0
 11
-1.1406087414
 21
4.8278655379
 31
0.0
  0
LINE
  5
87
330
1F
100
AcDbEntity
  8
0
  6
Continuous
 62
     7
100
AcDbLine
 10
-1.1406087414
 20
4.8278655379
 30
0.0
 11
33.8593912586
 21
4.8278655379
 31
0.0
  0
LINE
  5
88
330
1F
100
AcDbEntity
  8
0
  6
Continuous
 62
     7
100
AcDbLine
 10
33.8593912586
 20
39.8278655379
 30
0.0
 11
33.8593912586
 21
4.8278655379
 31
0.0
  0
LINE
  5
89
330
1F
100
AcDbEntity
  8
0
  6
Continuous
 62
     7
100
AcDbLine
 10
68.8517381006
 20
30.2959550427
 30
0.0
 11
67.4813677303
 21
29.592251339
 31
0.0
  0
LINE
  5
8A
330
1F
100
AcDbEntity
  8
0
  6
Continuous
 62
     7
100
AcDbLine
 10
67.4813677303
 20
29.592251339
 30
0.0
 11
55.8147010636
 21
36.3329920797
 31
0.0
  0
LINE
  5
8B
330
1F
100
AcDbEntity
  8
0
  6
Continuous
 62
     7
100
AcDbLine
 10
55.8147010636
 20
36.3329920797
 30
0.0
 11
51.9628492118
 21
34.0737328205
 31
0.0
  0
LINE
  5
8C
330
1F
100
AcDbEntity
  8
0
  6
Continuous
 62
     7
100
AcDbLine
 10
50.0739603229
 20
30.5181772649
 30
0.0
 11
47.8147010636
 21
31.7774365242
 31
0.0
  0
LINE
  5
8D
330
1F
100
AcDbEntity
  8
0
  6
Continuous
 62
     7
100
AcDbLine
 10
47.8147010636
 20
31.7774365242
 30
0.0
 11
44.185071434
 21
29.592251339
 31
0.0
  0
LINE
  5
8E
330
1F
100
AcDbEntity
  8
0
  6
Continuous
 62
     7
100
AcDbLine
 10
44.185071434
 20
29.592251339
 30
0.0
 11
42.9628492118
 21
30.4441031908
 31
0.0
  0
LINE
  5
8F
330
1F
100
AcDbEntity
  8
0
  6
Continuous
 62
     7
100
AcDbLine
 10
42.4813677303
 20
29.6663254131
 30
0.0
 11
43.7776640266
 21
28.7774365242
 31
0.0
  0
LINE
  5
90
330
1F
100
AcDbEntity
  8
0
  6
Continuous
 62
     7
100
AcDbLine
 10
43.7776640266
 20
28.7774365242
 30
0.0
 11
43.8517381006
 21
15.3700291168
 31
0.0
  0
LINE
  5
91
330
1F
100
AcDbEntity
  8
0
  6
Continuous
 62
     7
100
AcDbLine
 10
43.8517381006
 20
15.3700291168
 30
0.0
 11
47.5184047673
 21
13.3329920797
 31
0.0
  0
LINE
  5
92
330
1F
100
AcDbEntity
  8
0
  6
Continuous
 62
     7
100
AcDbLine
 10
52.222108471
 20
14.0737328205
 30
0.0
 11
52.2961825451
 21
10.4441031908
 31
0.0
  0
LINE
  5
93
330
1F
100
AcDbEntity
  8
0
  6
Continuous
 62
     7
100
AcDbLine
 10
52.2961825451
 20
10.4441031908
 30
0.0
 11
55.3332195821
 21
8.6663254131
 31
0.0
  0
LINE
  5
94
330
1F
100
AcDbEntity
  8
0
  6
Continuous
 62
     7
100
AcDbLine
 10
55.3332195821
 20
8.6663254131
 30
0.0
 11
55.2591455081
 21
7.1107698575
 31
0.0
  0
LINE
  5
95
330
1F
100
AcDbEntity
  8
0
  6
Continuous
 62
     7
100
AcDbLine
 10
56.2961825451
 20
7.1107698575
 30
0.0
 11
56.3702566192
 21
8.7033624501
 31
0.0
  0
LINE
  5
96
330
1F
100
AcDbEntity
  8
0
  6
Continuous
 62
     7
100
AcDbLine
 10
56.3702566192
 20
8.7033624501
 30
0.0
 11
67.9628492118
 21
15.4811402279
 31
0.0
  0
LINE
  5
97
330
1F
100
AcDbEntity
  8
0
  6
Continuous
 62
     7
100
AcDbLine
 10
67.9628492118
 20
15.4811402279
 30
0.0
 11
67.8887751377
 21
20.0366957834
 31
0.0
  0
LINE
  5
98
330
1F
100
AcDbEntity
  8
0
  6
Continuous
 62
     7
100
AcDbLine
 10
65.4813677303
 20
23.1478068945
 30
0.0
 11
67.9258121747
 21
24.4441031908
 31
0.0
  0
LINE
  5
99
330
1F
100
AcDbEntity
  8
0
  6
Continuous
 62
     7
100
AcDbLine
 10
67.9258121747
 20
24.4441031908
 30
0.0
 11
67.9998862488
 21
28.9255846723
 31
0.0
  0
LINE
  5
9A
330
1F
100
AcDbEntity
  8
0
  6
Continuous
 62
     7
100
AcDbLine
 10
67.9998862488
 20
28.9255846723
 30
0.0
 11
69.222108471
 21
29.592251339
 31
0.0
  0
LINE
  5
9B
330
1F
100
AcDbEntity
  8
0
  6
Continuous
 62
     7
100
AcDbLine
 10
38.8593912586
 20
39.8278655379
 30
0.0
 11
73.8593912586
 21
39.8278655379
 31
0.0
  0
LINE
  5
9C
330
1F
100
AcDbEntity
  8
0
  6
Continuous
 62
     7
100
AcDbLine
 10
38.8593912586
 20
39.8278655379
 30
0.0
 11
38.8593912586
 21
4.8278655379
 31
0.0
  0
LINE
  5
9D
330
1F
100
AcDbEntity
  8
0
  6
Continuous
 62
     7
100
AcDbLine
 10
38.8593912586
 20
4.8278655379
 30
0.0
 11
73.8593912586
 21
4.8278655379
 31
0.0
  0
LINE
  5
9E
330
1F
100
AcDbEntity
  8
0
  6
Continuous
 62
     7
100
AcDbLine
 10
73.8593912586
 20
39.8278655379
 30
0.0
 11
73.8593912586
 21
4.8278655379
 31
0.0
  0
LINE
  5
9F
330
1F
100
AcDbEntity
  8
0
  6
Continuous
 62
     7
100
AcDbLine
 10
108.8517381006
 20
30.2959550427
 30
0.0
 11
107.4813677303
 21
29.592251339
 31
0.0
  0
LINE
  5
A0
330
1F
100
AcDbEntity
  8
0
  6
Continuous
 62
     7
100
AcDbLine
 10
107.4813677303
 20
29.592251339
 30
0.0
 11
95.8147010636
 21
36.3329920797
 31
0.0
  0
LINE
  5
A1
330
1F
100
AcDbEntity
  8
0
  6
Continuous
 62
     7
100
AcDbLine
 10
95.8147010636
 20
36.3329920797
 30
0.0
 11
91.9628492118
 21
34.0737328205
 31
0.0
  0
LINE
  5
A2
330
1F
100
AcDbEntity
  8
0
  6
Continuous
 62
     7
100
AcDbLine
 10
90.0739603229
 20
30.5181772649
 30
0.0
 11
87.8147010636
 21
31.7774365242
 31
0.0
  0
LINE
  5
A3
330
1F
100
AcDbEntity
  8
0
  6
Continuous
 62
     7
100
AcDbLine
 10
87.8147010636
 20
31.7774365242
 30
0.0
 11
84.185071434
 21
29.592251339
 31
0.0
  0
LINE
  5
A4
330
1F
100
AcDbEntity
  8
0
  6
Continuous
 62
     7
100
AcDbLine
 10
84.185071434
 20
29.592251339
 30
0.0
 11
82.9628492118
 21
30.4441031908
 31
0.0
  0
LINE
  5
A5
330
1F
100
AcDbEntity
  8
0
  6
Continuous
 62
     7
100
AcDbLine
 10
82.4813677303
 20
29.6663254131
 30
0.0
 11
83.7776640266
 21
28.7774365242
 31
0.0
  0
LINE
  5
A6
330
1F
100
AcDbEntity
  8
0
  6
Continuous
 62
     7
100
AcDbLine
 10
83.7776640266
 20
28.7774365242
 30
0.0
 11
83.8517381006
 21
15.3700291168
 31
0.0
  0
LINE
  5
A7
330
1F
100
AcDbEntity
  8
0
  6
Continuous
 62
     7
100
AcDbLine
 10
83.8517381006
 20
15.3700291168
 30
0.0
 11
87.5184047673
 21
13.3329920797
 31
0.0
  0
LINE
  5
A8
330
1F
100
AcDbEntity
  8
0
  6
Continuous
 62
     7
100
AcDbLine
 10
92.222108471
 20
14.0737328205
 30
0.0
 11
92.2961825451
 21
10.4441031908
 31
0.0
  0
LINE
  5
A9
330
1F
100
AcDbEntity
  8
0
  6
Continuous
 62
     7
100
AcDbLine
 10
92.2961825451
 20
10.4441031908
 30
0.0
 11
95.3332195821
 21
8.6663254131
 31
0.0
  0
LINE
  5
AA
330
1F
100
AcDbEntity
  8
0
  6
Continuous
 62
     7
100
AcDbLine
 10
95.3332195821
 20
8.6663254131
 30
0.0
 11
95.2591455081
 21
7.1107698575
 31
0.0
  0
LINE
  5
AB
330
1F
100
AcDbEntity
  8
0
  6
Continuous
 62
     7
100
AcDbLine
 10
96.2961825451
 20
7.1107698575
 30
0.0
 11
96.3702566192
 21
8.7033624501
 31
0.0
  0
LINE
  5
AC
330
1F
100
AcDbEntity
  8
0
  6
Continuous
 62
     7
100
AcDbLine
 10
96.3702566192
 20
8.7033624501
 30
0.0
 11
107.9628492118
 21
15.4811402279
 31
0.0
  0
LINE
  5
AD
330
1F
100
AcDbEntity
  8
0
  6
Continuous
 62
     7
100
AcDbLine
 10
107.9628492118
 20
15.4811402279
 30
0.0
 11
107.8887751377
 21
20.0366957834
 31
0.0
  0
LINE
  5
AE
330
1F
100
AcDbEntity
  8
0
  6
Continuous
 62
     7
100
AcDbLine
 10
105.4813677303
 20
23.1478068945
 30
0.0
 11
107.9258121747
 21
24.4441031908
 31
0.0
  0
LINE
  5
AF
330
1F
100
AcDbEntity
  8
0
  6
Continuous
 62
     7
100
AcDbLine
 10
107.9258121747
 20
24.4441031908
 30
0.0
 11
107.9998862488
 21
28.9255846723
 31
0.0
  0
LINE
  5
B0
330
1F
100
AcDbEntity
  8
0
  6
Continuous
 62
     7
100
AcDbLine
 10
107.9998862488
 20
28.9255846723
 30
0.0
 11
109.222108471
 21
29.592251339
 31
0.0
  0
LINE
  5
B1
330
1F
100
AcDbEntity
  8
0
  6
Continuous
 62
     7
100
AcDbLine
 10
78.8593912586
 20
39.8278655379
 30
0.0
 11
113.8593912586
 21
39.8278655379
 31
0.0
  0
LINE
  5
B2
330
1F
100
AcDbEntity
  8
0
  6
Continuous
 62
     7
100
AcDbLine
 10
78.8593912586
 20
39.8278655379
 30
0.0
 11
78.8593912586
 21
4.8278655379
 31
0.0
  0
LINE
  5
B3
330
1F
100
AcDbEntity
  8
0
  6
Continuous
 62
     7
100
AcDbLine
 10
78.8593912586
 20
4.8278655379
 30
0.0
 11
113.8593912586
 21
4.8278655379
 31
0.0
  0
LINE
  5
B4
330
1F
100
AcDbEntity
  8
0
  6
Continuous
 62
     7
100
AcDbLine
 10
113.8593912586
 20
39.8278655379
 30
0.0
 11
113.8593912586
 21
4.8278655379
 31
0.0
  0
ARC
  5
B5
330
1F
100
AcDbEntity
  8
0
  6
Continuous
 62
     7
100
AcDbCircle
 10
15.8618523708
 20
22.4292550642
 30
0.0
 40
15.18624706189013
100
AcDbArc
 50
31.1991788352
 51
148.1450826605
  0
LWPOLYLINE
  5
B6
330
1F
100
AcDbEntity
  8
0
  6
Continuous
 62
     7
100
AcDbPolyline
 90
        4
 70
   128
 43
0.0
 10
11.9628459215
 20
34.0737328205
 10
13.6295158785
 20
33.0366957834
 10
15.7035899525
 20
33.2589180056
 10
16.4620379513
 20
33.2825093149
  0
LWPOLYLINE
  5
B7
330
1F
100
AcDbEntity
  8
0
  6
Continuous
 62
     7
100
AcDbPolyline
 90
       39
 70
   128
 43
0.0
 10
7.5184032321
 20
13.3329920797
 10
7.5440110634
 20
15.4270691519
 10
7.0281486948
 20
16.8134375887
 10
5.9258121747
 20
19.0366957834
 10
5.7124924046
 20
20.3408304663
 10
5.7659653429
 20
21.5846328137
 10
6.4813677303
 20
23.0737328205
 10
6.8393957794
 20
23.4090856247
 10
7.2591455081
 20
23.6663254131
 10
8.3317928095
 20
23.9322795052
 10
8.8080715767
 20
23.9176177577
 10
9.0341547854
 20
23.9017446824
 10
9.1381659183
 20
23.8943054949
 10
9.222108471
 20
23.8885476353
 10
9.2641068012
 20
23.8703029744
 10
9.2817253736
 20
23.8587926111
 10
9.2897170077
 20
23.8543984621
 10
9.2933142792
 20
23.8527093719
 10
9.2949156978
 20
23.8520232329
 10
9.2956241776
 20
23.8517332098
 10
9.2959366766
 20
23.8516079701
 10
9.2960743266
 20
23.8515533295
 10
9.2961349219
 20
23.8515293782
 10
9.2961615895
 20
23.8515188572
 10
9.2961825451
 20
23.8515105982
 10
10.7794882832
 20
23.2046337142
 10
12.2979299984
 20
21.8277871656
 10
13.5293748889
 20
19.717389861
 10
13.8285607344
 20
18.801680883
 10
13.9150741165
 20
18.3957255946
 10
13.9441062965
 20
18.2156586005
 10
13.9550508838
 20
18.136221606
 10
13.9595054273
 20
18.1012353338
 10
13.9613949372
 20
18.0858353192
 10
13.962212625
 20
18.0790581854
 10
13.9625697517
 20
18.0760760321
 10
13.9627263729
 20
18.0747638434
 10
13.9628492118
 20
18.0737328205
 10
14.039260328
 20
17.4368158079
  0
ARC
  5
B8
330
1F
100
AcDbEntity
  8
0
  6
Continuous
 62
     7
100
AcDbCircle
 10
15.8860477713
 20
22.363010429
 30
0.0
 40
15.2651189565567
100
AcDbArc
 50
151.4169839424
 51
267.646312645
  0
LWPOLYLINE
  5
B9
330
1F
100
AcDbEntity
  8
0
  6
Continuous
 62
     7
100
AcDbPolyline
 90
       19
 70
   128
 43
0.0
 10
29.2221009731
 20
29.592251339
 10
29.3134252029
 20
29.5151071028
 10
29.3491969828
 20
29.4780935856
 10
29.3619527457
 20
29.4597292904
 10
29.3668061282
 20
29.4511202207
 10
29.3687791848
 20
29.44721909
 10
29.369614566
 20
29.4454797713
 10
29.3699756785
 20
29.4447099747
 10
29.3701333087
 20
29.4443703871
 10
29.3702024214
 20
29.4442207982
 10
29.3702327835
 20
29.444154946
 10
29.3702566192
 20
29.4441031908
 10
30.7097642842
 20
25.8342215055
 10
31.1139804128
 20
21.8570856437
 10
30.4759126404
 20
17.9139068454
 10
28.7992441343
 20
14.2525543772
 10
25.6043049177
 20
10.6253929306
 10
21.2629323701
 20
8.0986385612
 10
16.2961825451
 20
7.1107698575
  0
LWPOLYLINE
  5
BA
330
1F
100
AcDbEntity
  8
0
  6
Continuous
 62
     7
100
AcDbPolyline
 90
        8
 70
   128
 43
0.0
 10
27.8887748718
 20
20.0366957834
 10
25.9777071185
 20
18.9760401407
 10
25.2571658857
 20
17.3159598462
 10
24.3837023233
 20
15.90523207
 10
23.3346569069
 20
14.9121156055
 10
21.1697582482
 20
13.964741681
 10
19.2416205919
 20
14.2992751148
 10
17.964304483
 20
16.5431016865
  0
LWPOLYLINE
  5
BB
330
1F
100
AcDbEntity
  8
0
  6
Continuous
 62
     7
100
AcDbPolyline
 90
        3
 70
   128
 43
0.0
 10
18.054023385
 20
18.6178074215
 10
17.9402470674
 20
17.4601236816
 10
17.964304483
 20
16.5431016865
  0
LWPOLYLINE
  5
BC
330
1F
100
AcDbEntity
  8
0
  6
Continuous
 62
     7
100
AcDbPolyline
 90
       25
 70
   128
 43
0.0
 10
18.054023385
 20
18.6178074215
 10
18.1491983923
 20
18.9003271163
 10
18.2144519177
 20
19.1205770042
 10
18.3284637644
 20
19.5148334235
 10
18.5701137074
 20
20.2033394752
 10
19.2733010121
 20
21.4381692808
 10
20.87132991
 20
23.0974514007
 10
21.8007976946
 20
23.6549369125
 10
22.7904584748
 20
23.9807623079
 10
23.633221719
 20
24.0214019168
 10
23.9840165909
 20
23.9677034276
 10
24.1381503361
 20
23.9427937682
 10
24.2591455081
 20
23.9255846723
 10
24.3020057347
 20
23.908614701
 10
24.3195829662
 20
23.8973422519
 10
24.3272239084
 20
23.892345353
 10
24.3305811152
 20
23.8901991582
 10
24.3320584802
 20
23.8892700626
 10
24.3327086542
 20
23.8888646416
 10
24.3329947647
 20
23.8886869478
 10
24.3331206606
 20
23.8886088995
 10
24.3331760563
 20
23.8885745851
 10
24.3332004307
 20
23.8885594919
 10
24.3332195821
 20
23.8885476353
 10
25.4813677303
 20
23.1478068945
  0
LWPOLYLINE
  5
BD
330
1F
100
AcDbEntity
  8
0
  6
Continuous
 62
     7
100
AcDbPolyline
 90
        3
 70
   128
 43
0.0
 10
14.0392556787
 20
17.4368158079
 10
14.0519384761
 20
16.799396033
 10
13.9110608695
 20
16.3260858599
  0
ARC
  5
BE
330
1F
100
AcDbEntity
  8
0
  6
Continuous
 62
     7
100
AcDbCircle
 10
10.8683030781
 20
16.8483057486
 30
0.0
 40
3.087238891868624
100
AcDbArc
 50
296.0092703722
 51
350.2613451592
  0
LWPOLYLINE
  5
BF
330
1F
100
AcDbEntity
  8
0
  6
Continuous
 62
     7
100
AcDbPolyline
 90
        3
 70
   128
 43
0.0
 10
16.4620280266
 20
33.2825093149
 10
17.0106902597
 20
33.2183041596
 10
17.4248501328
 20
33.0920384477
  0
LWPOLYLINE
  5
C0
330
1F
100
AcDbEntity
  8
0
  6
Continuous
 62
     7
100
AcDbPolyline
 90
       16
 70
   128
 43
0.0
 10
17.4248367548
 20
33.0920384477
 10
18.920706571
 20
32.5761118241
 10
19.978572291
 20
31.7983221669
 10
20.7192661239
 20
30.6424648108
 10
20.8472647426
 20
30.1020338626
 10
20.8887751377
 20
29.6663254131
 10
20.8821678407
 20
29.3377027696
 10
20.8263122561
 20
28.93175358
 10
20.5335657625
 20
28.331039113
 10
19.3928345647
 20
27.0719410311
 10
17.5641524021
 20
26.2454982689
 10
15.3443069932
 20
25.9967755029
 10
12.9346762869
 20
26.4636955376
 10
11.1960146654
 20
27.4627516957
 10
10.282647539
 20
28.6771788761
 10
10.0739603229
 20
30.5181772649
  0
ARC
  5
C1
330
1F
100
AcDbEntity
  8
0
  6
Continuous
 62
     7
100
AcDbCircle
 10
55.8618528596
 20
22.4292561388
 30
0.0
 40
15.18624608716456
100
AcDbArc
 50
31.1991763224
 51
148.1450851488
  0
LWPOLYLINE
  5
C2
330
1F
100
AcDbEntity
  8
0
  6
Continuous
 62
     7
100
AcDbPolyline
 90
        4
 70
   128
 43
0.0
 10
51.9628226757
 20
34.0737328205
 10
53.6295158785
 20
33.0366957834
 10
55.7035899525
 20
33.2589180056
 10
56.4620379513
 20
33.2825093149
  0
LWPOLYLINE
  5
C3
330
1F
100
AcDbEntity
  8
0
  6
Continuous
 62
     7
100
AcDbPolyline
 90
       39
 70
   128
 43
0.0
 10
47.518402338
 20
13.3329920797
 10
47.5440110634
 20
15.4270691519
 10
47.0281486948
 20
16.8134375887
 10
45.9258121747
 20
19.0366957834
 10
45.7124924046
 20
20.3408304663
 10
45.7659653429
 20
21.5846328137
 10
46.4813677303
 20
23.0737328205
 10
46.8393957794
 20
23.4090856247
 10
47.2591455081
 20
23.6663254131
 10
48.3317928095
 20
23.9322795052
 10
48.8080715767
 20
23.9176177577
 10
49.0341547854
 20
23.9017446824
 10
49.1381659183
 20
23.8943054949
 10
49.222108471
 20
23.8885476353
 10
49.2641068012
 20
23.8703029744
 10
49.2817253736
 20
23.8587926111
 10
49.2897170077
 20
23.8543984621
 10
49.2933142792
 20
23.8527093719
 10
49.2949156978
 20
23.8520232329
 10
49.2956241776
 20
23.8517332098
 10
49.2959366766
 20
23.8516079701
 10
49.2960743266
 20
23.8515533295
 10
49.2961349219
 20
23.8515293782
 10
49.2961615895
 20
23.8515188572
 10
49.2961825451
 20
23.8515105982
 10
50.7794882832
 20
23.2046337142
 10
52.2979299984
 20
21.8277871656
 10
53.5293748889
 20
19.717389861
 10
53.8285607344
 20
18.801680883
 10
53.9150741165
 20
18.3957255946
 10
53.9441062965
 20
18.2156586005
 10
53.9550508838
 20
18.136221606
 10
53.9595054273
 20
18.1012353338
 10
53.9613949372
 20
18.0858353192
 10
53.962212625
 20
18.0790581854
 10
53.9625697517
 20
18.0760760321
 10
53.9627263729
 20
18.0747638434
 10
53.9628492118
 20
18.0737328205
 10
54.039260328
 20
17.4368158079
  0
ARC
  5
C4
330
1F
100
AcDbEntity
  8
0
  6
Continuous
 62
     7
100
AcDbCircle
 10
55.8860478154
 20
22.3630104291
 30
0.0
 40
15.26511899522389
100
AcDbArc
 50
151.4169840221
 51
267.6463091266
  0
LWPOLYLINE
  5
C5
330
1F
100
AcDbEntity
  8
0
  6
Continuous
 62
     7
100
AcDbPolyline
 90
       19
 70
   128
 43
0.0
 10
69.2220926285
 20
29.592251339
 10
69.3134252029
 20
29.5151071028
 10
69.3491969828
 20
29.4780935856
 10
69.3619527457
 20
29.4597292904
 10
69.3668061282
 20
29.4511202207
 10
69.3687791848
 20
29.44721909
 10
69.369614566
 20
29.4454797713
 10
69.3699756785
 20
29.4447099747
 10
69.3701333087
 20
29.4443703871
 10
69.3702024214
 20
29.4442207982
 10
69.3702327835
 20
29.444154946
 10
69.3702566192
 20
29.4441031908
 10
70.7097642842
 20
25.8342215055
 10
71.1139804128
 20
21.8570856437
 10
70.4759126404
 20
17.9139068454
 10
68.7992441343
 20
14.2525543772
 10
65.6043049177
 20
10.6253929306
 10
61.2629323701
 20
8.0986385612
 10
56.2961825451
 20
7.1107698575
  0
LWPOLYLINE
  5
C6
330
1F
100
AcDbEntity
  8
0
  6
Continuous
 62
     7
100
AcDbPolyline
 90
        8
 70
   128
 43
0.0
 10
67.8887367249
 20
20.0366957834
 10
65.9777071185
 20
18.9760401407
 10
65.2571658857
 20
17.3159598462
 10
64.3837023233
 20
15.90523207
 10
63.3346569069
 20
14.9121156055
 10
61.1697582482
 20
13.964741681
 10
59.2416205919
 20
14.2992751148
 10
57.964304483
 20
16.5431016865
  0
LWPOLYLINE
  5
C7
330
1F
100
AcDbEntity
  8
0
  6
Continuous
 62
     7
100
AcDbPolyline
 90
        3
 70
   128
 43
0.0
 10
58.0540001392
 20
18.6178074215
 10
57.9402470674
 20
17.4601236816
 10
57.964304483
 20
16.5431016865
  0
LWPOLYLINE
  5
C8
330
1F
100
AcDbEntity
  8
0
  6
Continuous
 62
     7
100
AcDbPolyline
 90
       25
 70
   128
 43
0.0
 10
58.0540001392
 20
18.6178074215
 10
58.1491983923
 20
18.9003271163
 10
58.2144519177
 20
19.1205770042
 10
58.3284637644
 20
19.5148334235
 10
58.5701137074
 20
20.2033394752
 10
59.2733010121
 20
21.4381692808
 10
60.87132991
 20
23.0974514007
 10
61.8007976946
 20
23.6549369125
 10
62.7904584748
 20
23.9807623079
 10
63.633221719
 20
24.0214019168
 10
63.9840165909
 20
23.9677034276
 10
64.1381503361
 20
23.9427937682
 10
64.2591455081
 20
23.9255846723
 10
64.3020057347
 20
23.908614701
 10
64.3195829662
 20
23.8973422519
 10
64.3272239084
 20
23.892345353
 10
64.3305811152
 20
23.8901991582
 10
64.3320584802
 20
23.8892700626
 10
64.3327086542
 20
23.8888646416
 10
64.3329947647
 20
23.8886869478
 10
64.3331206606
 20
23.8886088995
 10
64.3331760563
 20
23.8885745851
 10
64.3332004307
 20
23.8885594919
 10
64.3332195821
 20
23.8885476353
 10
65.4813677303
 20
23.1478068945
  0
LWPOLYLINE
  5
C9
330
1F
100
AcDbEntity
  8
0
  6
Continuous
 62
     7
100
AcDbPolyline
 90
        3
 70
   128
 43
0.0
 10
54.0392398834
 20
17.4368158079
 10
54.0519384761
 20
16.799396033
 10
53.9110608695
 20
16.3260858599
  0
ARC
  5
CA
330
1F
100
AcDbEntity
  8
0
  6
Continuous
 62
     7
100
AcDbCircle
 10
50.8682630652
 20
16.8483446101
 30
0.0
 40
3.08729136394597
100
AcDbArc
 50
296.0096214848
 51
350.2607805321
  0
LWPOLYLINE
  5
CB
330
1F
100
AcDbEntity
  8
0
  6
Continuous
 62
     7
100
AcDbPolyline
 90
        3
 70
   128
 43
0.0
 10
56.4620196819
 20
33.2825093149
 10
57.0106902597
 20
33.2183041596
 10
57.4248501328
 20
33.0920384477
  0
LWPOLYLINE
  5
CC
330
1F
100
AcDbEntity
  8
0
  6
Continuous
 62
     7
100
AcDbPolyline
 90
       16
 70
   128
 43
0.0
 10
57.4248433113
 20
33.0920384477
 10
58.920706571
 20
32.5761118241
 10
59.978572291
 20
31.7983221669
 10
60.7192661239
 20
30.6424648108
 10
60.8472647426
 20
30.1020338626
 10
60.8887751377
 20
29.6663254131
 10
60.8821678407
 20
29.3377027696
 10
60.8263122561
 20
28.93175358
 10
60.5335657625
 20
28.331039113
 10
59.3928345647
 20
27.0719410311
 10
57.5641524021
 20
26.2454982689
 10
55.3443069932
 20
25.9967755029
 10
52.9346762869
 20
26.4636955376
 10
51.1960146654
 20
27.4627516957
 10
50.282647539
 20
28.6771788761
 10
50.0739603229
 20
30.5181772649
  0
ARC
  5
CD
330
1F
100
AcDbEntity
  8
0
  6
Continuous
 62
     7
100
AcDbCircle
 10
95.8618336108
 20
22.429213815
 30
0.0
 40
15.18628447637795
100
AcDbArc
 50
31.1992752902
 51
148.1449871472
  0
LWPOLYLINE
  5
CE
330
1F
100
AcDbEntity
  8
0
  6
Continuous
 62
     7
100
AcDbPolyline
 90
        4
 70
   128
 43
0.0
 10
91.9628143311
 20
34.0737328205
 10
93.6295158785
 20
33.0366957834
 10
95.7035899525
 20
33.2589180056
 10
96.4620379513
 20
33.2825093149
  0
LWPOLYLINE
  5
CF
330
1F
100
AcDbEntity
  8
0
  6
Continuous
 62
     7
100
AcDbPolyline
 90
       39
 70
   128
 43
0.0
 10
87.5183939934
 20
13.3329920797
 10
87.5440110634
 20
15.4270691519
 10
87.0281486948
 20
16.8134375887
 10
85.9258121747
 20
19.0366957834
 10
85.7124924046
 20
20.3408304663
 10
85.7659653429
 20
21.5846328137
 10
86.4813677303
 20
23.0737328205
 10
86.8393957794
 20
23.4090856247
 10
87.2591455081
 20
23.6663254131
 10
88.3317928095
 20
23.9322795052
 10
88.8080715767
 20
23.9176177577
 10
89.0341547854
 20
23.9017446824
 10
89.1381659183
 20
23.8943054949
 10
89.222108471
 20
23.8885476353
 10
89.2641068012
 20
23.8703029744
 10
89.2817253736
 20
23.8587926111
 10
89.2897170077
 20
23.8543984621
 10
89.2933142792
 20
23.8527093719
 10
89.2949156978
 20
23.8520232329
 10
89.2956241776
 20
23.8517332098
 10
89.2959366766
 20
23.8516079701
 10
89.2960743266
 20
23.8515533295
 10
89.2961349219
 20
23.8515293782
 10
89.2961615895
 20
23.8515188572
 10
89.2961825451
 20
23.8515105982
 10
90.7794882832
 20
23.2046337142
 10
92.2979299984
 20
21.8277871656
 10
93.5293748889
 20
19.717389861
 10
93.8285607344
 20
18.801680883
 10
93.9150741165
 20
18.3957255946
 10
93.9441062965
 20
18.2156586005
 10
93.9550508838
 20
18.136221606
 10
93.9595054273
 20
18.1012353338
 10
93.9613949372
 20
18.0858353192
 10
93.962212625
 20
18.0790581854
 10
93.9625697517
 20
18.0760760321
 10
93.9627263729
 20
18.0747638434
 10
93.9628492118
 20
18.0737328205
 10
94.039260328
 20
17.4368158079
  0
ARC
  5
D0
330
1F
100
AcDbEntity
  8
0
  6
Continuous
 62
     7
100
AcDbCircle
 10
95.8860482271
 20
22.3630104304
 30
0.0
 40
15.26511935612068
100
AcDbArc
 50
151.4169847656
 51
267.6462762887
  0
LWPOLYLINE
  5
D1
330
1F
100
AcDbEntity
  8
0
  6
Continuous
 62
     7
100
AcDbPolyline
 90
       19
 70
   128
 43
0.0
 10
109.2220544815
 20
29.592251339
 10
109.3134252029
 20
29.5151071028
 10
109.3491969828
 20
29.4780935856
 10
109.3619527457
 20
29.4597292904
 10
109.3668061282
 20
29.4511202207
 10
109.3687791848
 20
29.44721909
 10
109.369614566
 20
29.4454797713
 10
109.3699756785
 20
29.4447099747
 10
109.3701333087
 20
29.4443703871
 10
109.3702024214
 20
29.4442207982
 10
109.3702327835
 20
29.444154946
 10
109.3702566192
 20
29.4441031908
 10
110.7097642842
 20
25.8342215055
 10
111.1139804128
 20
21.8570856437
 10
110.4759126404
 20
17.9139068454
 10
108.7992441343
 20
14.2525543772
 10
105.6043049177
 20
10.6253929306
 10
101.2629323701
 20
8.0986385612
 10
96.2961825451
 20
7.1107698575
  0
LWPOLYLINE
  5
D2
330
1F
100
AcDbEntity
  8
0
  6
Continuous
 62
     7
100
AcDbPolyline
 90
        8
 70
   128
 43
0.0
 10
107.8887581825
 20
20.0366957834
 10
105.9777071185
 20
18.9760401407
 10
105.2571658857
 20
17.3159598462
 10
104.3837023233
 20
15.90523207
 10
103.3346569069
 20
14.9121156055
 10
101.1697582482
 20
13.964741681
 10
99.2416205919
 20
14.2992751148
 10
97.964304483
 20
16.5431016865
  0
LWPOLYLINE
  5
D3
330
1F
100
AcDbEntity
  8
0
  6
Continuous
 62
     7
100
AcDbPolyline
 90
        3
 70
   128
 43
0.0
 10
98.0539917946
 20
18.6178074215
 10
97.9402470674
 20
17.4601236816
 10
97.964304483
 20
16.5431016865
  0
LWPOLYLINE
  5
D4
330
1F
100
AcDbEntity
  8
0
  6
Continuous
 62
     7
100
AcDbPolyline
 90
       25
 70
   128
 43
0.0
 10
98.0539917946
 20
18.6178074215
 10
98.1491983923
 20
18.9003271163
 10
98.2144519177
 20
19.1205770042
 10
98.3284637644
 20
19.5148334235
 10
98.5701137074
 20
20.2033394752
 10
99.2733010121
 20
21.4381692808
 10
100.87132991
 20
23.0974514007
 10
101.8007976946
 20
23.6549369125
 10
102.7904584748
 20
23.9807623079
 10
103.633221719
 20
24.0214019168
 10
103.9840165909
 20
23.9677034276
 10
104.1381503361
 20
23.9427937682
 10
104.2591455081
 20
23.9255846723
 10
104.3020057347
 20
23.908614701
 10
104.3195829662
 20
23.8973422519
 10
104.3272239084
 20
23.892345353
 10
104.3305811152
 20
23.8901991582
 10
104.3320584802
 20
23.8892700626
 10
104.3327086542
 20
23.8888646416
 10
104.3329947647
 20
23.8886869478
 10
104.3331206606
 20
23.8886088995
 10
104.3331760563
 20
23.8885745851
 10
104.3332004307
 20
23.8885594919
 10
104.3332195821
 20
23.8885476353
 10
105.4813677303
 20
23.1478068945
  0
LWPOLYLINE
  5
D5
330
1F
100
AcDbEntity
  8
0
  6
Continuous
 62
     7
100
AcDbPolyline
 90
        3
 70
   128
 43
0.0
 10
94.0392017365
 20
17.4368158079
 10
94.0519384761
 20
16.799396033
 10
93.9110608695
 20
16.3260858599
  0
ARC
  5
D6
330
1F
100
AcDbEntity
  8
0
  6
Continuous
 62
     7
100
AcDbCircle
 10
90.8683139904
 20
16.8482951502
 30
0.0
 40
3.087224581624707
100
AcDbArc
 50
296.0091746143
 51
350.2614991484
  0
LWPOLYLINE
  5
D7
330
1F
100
AcDbEntity
  8
0
  6
Continuous
 62
     7
100
AcDbPolyline
 90
        3
 70
   128
 43
0.0
 10
96.4620113373
 20
33.2825093149
 10
97.0106902597
 20
33.2183041596
 10
97.4248501328
 20
33.0920384477
  0
LWPOLYLINE
  5
D8
330
1F
100
AcDbEntity
  8
0
  6
Continuous
 62
     7
100
AcDbPolyline
 90
       16
 70
   128
 43
0.0
 10
97.4248051643
 20
33.0920384477
 10
98.920706571
 20
32.5761118241
 10
99.978572291
 20
31.7983221669
 10
100.7192661239
 20
30.6424648108
 10
100.8472647426
 20
30.1020338626
 10
100.8887751377
 20
29.6663254131
 10
100.8821678407
 20
29.3377027696
 10
100.8263122561
 20
28.93175358
 10
100.5335657625
 20
28.331039113
 10
99.3928345647
 20
27.0719410311
 10
97.5641524021
 20
26.2454982689
 10
95.3443069932
 20
25.9967755029
 10
92.9346762869
 20
26.4636955376
 10
91.1960146654
 20
27.4627516957
 10
90.282647539
 20
28.6771788761
 10
90.0739603229
 20
30.5181772649
  0
MTEXT
  5
DA
330
1F
100
AcDbEntity
  8
0
  6
Continuous
 62
     7
100
AcDbMText
 10
-1.1406087414
 20
3.8082991462
 30
0.0
 40
4.83362
 41
0.0
 71
     1
 72
     1
  1
SOLIDWORKS Educational Product.
  7
SLDTEXTSTYLE0
 73
     1
 44
1.0
  0
MTEXT
  5
DB
330
1F
100
AcDbEntity
  8
0
  6
Continuous
 62
     7
100
AcDbMText
 10
-1.1406087414
 20
-3.4421308538
 30
0.0
 40
4.83362
 41
0.0
 71
     1
 72
     1
  1
For Instructional Use Only.
  7
SLDTEXTSTYLE0
 73
     1
 44
1.0
  0
ENDSEC
  0
SECTION
  2
OBJECTS
  0
DICTIONARY
  5
C
330
0
100
AcDbDictionary
281
     1
  3
ACAD_GROUP
350
D
  3
ACAD_LAYOUT
350
1A
  3
ACAD_MLINESTYLE
350
17
  3
ACAD_PLOTSETTINGS
350
19
  3
ACAD_PLOTSTYLENAME
350
E
  3
ACAD_SCALELIST
350
47
  3
DWGPROPS
350
DC
  0
DICTIONARY
  5
D
102
{ACAD_REACTORS
330
C
102
}
330
C
100
AcDbDictionary
281
     1
  0
DICTIONARY
  5
1A
102
{ACAD_REACTORS
330
C
102
}
330
C
100
AcDbDictionary
281
     1
  3
Layout1
350
1E
  3
Layout2
350
26
  3
Model
350
22
  0
DICTIONARY
  5
17
102
{ACAD_REACTORS
330
C
102
}
330
C
100
AcDbDictionary
281
     1
  3
Standard
350
18
  0
DICTIONARY
  5
19
102
{ACAD_REACTORS
330
C
102
}
330
C
100
AcDbDictionary
281
     1
  0
ACDBDICTIONARYWDFLT
  5
E
102
{ACAD_REACTORS
330
C
102
}
330
C
100
AcDbDictionary
281
     1
  3
Normal
350
F
100
AcDbDictionaryWithDefault
340
F
  0
DICTIONARY
  5
47
102
{ACAD_REACTORS
330
C
102
}
330
C
100
AcDbDictionary
281
     1
  3
A0
350
48
  3
A1
350
49
  3
A2
350
4A
  3
A3
350
4B
  3
A4
350
4C
  3
A5
350
4D
  3
A6
350
4E
  3
A7
350
4F
  3
A8
350
50
  3
A9
350
51
  3
B0
350
52
  3
B1
350
53
  3
B2
350
54
  3
B3
350
55
  3
B4
350
56
  3
B5
350
57
  3
B6
350
58
  3
B7
350
59
  3
B8
350
5A
  3
B9
350
5B
  3
C0
350
5C
  3
C1
350
5D
  3
C2
350
5E
  3
C3
350
5F
  3
C4
350
60
  3
C5
350
61
  3
C6
350
62
  3
C7
350
63
  3
C8
350
64
  3
C9
350
65
  3
D0
350
66
  3
D1
350
67
  3
D2
350
68
  0
XRECORD
  5
DC
102
{ACAD_REACTORS
330
C
102
}
330
C
100
AcDbXrecord
280
     1
  1
DWGPROPS COOKIE
  2

  3

  4

  6

  7

  8
kiran
  9

300
=
301
=
302
=
303
=
304
=
305
=
306
=
307
=
308
=
309
=
 40
0.0
 41
2459621.430906019
 42
2459621.430970521
  1

 90
        0
  0
LAYOUT
  5
1E
102
{ACAD_REACTORS
330
1A
102
}
330
1A
100
AcDbPlotSettings
  1

  2
none_device
  4

  6

 40
0.0
 41
0.0
 42
0.0
 43
0.0
 44
0.0
 45
0.0
 46
0.0
 47
0.0
 48
0.0
 49
0.0
140
0.0
141
0.0
142
1.0
143
1.0
 70
   688
 72
     1
 73
     0
 74
     5
  7

 75
    16
147
1.0
148
0.0
149
0.0
100
AcDbLayout
  1
Layout1
 70
     1
 71
     1
 10
0.0
 20
0.0
 11
420.0
 21
297.0
 12
0.0
 22
0.0
 32
0.0
 14
1.0000000000E+20
 24
1.0000000000E+20
 34
1.0000000000E+20
 15
-1.0000000000E+20
 25
-1.0000000000E+20
 35
-1.0000000000E+20
146
0.0
 13
0.0
 23
0.0
 33
0.0
 16
1.0
 26
0.0
 36
0.0
 17
0.0
 27
1.0
 37
0.0
 76
     0
330
1B
  0
LAYOUT
  5
26
102
{ACAD_REACTORS
330
1A
102
}
330
1A
100
AcDbPlotSettings
  1

  2
none_device
  4

  6

 40
0.0
 41
0.0
 42
0.0
 43
0.0
 44
0.0
 45
0.0
 46
0.0
 47
0.0
 48
0.0
 49
0.0
140
0.0
141
0.0
142
1.0
143
1.0
 70
   688
 72
     1
 73
     0
 74
     5
  7

 75
    16
147
1.0
148
0.0
149
0.0
100
AcDbLayout
  1
Layout2
 70
     1
 71
     2
 10
0.0
 20
0.0
 11
0.0
 21
0.0
 12
0.0
 22
0.0
 32
0.0
 14
0.0
 24
0.0
 34
0.0
 15
0.0
 25
0.0
 35
0.0
146
0.0
 13
0.0
 23
0.0
 33
0.0
 16
1.0
 26
0.0
 36
0.0
 17
0.0
 27
1.0
 37
0.0
 76
     0
330
23
  0
LAYOUT
  5
22
102
{ACAD_REACTORS
330
1A
102
}
330
1A
100
AcDbPlotSettings
  1

  2
none_device
  4
ANSI_A_(11.00_x_8.50_Inches)
  6

 40
6.35
 41
19.05
 42
6.35000508
 43
19.05000254
 44
279.4
 45
215.9
 46
-2.2095310485
 47
35.1954632954
 48
0.0
 49
0.0
140
0.0
141
0.0
142
0.0946956522
143
1.0
 70
  1696
 72
     0
 73
     0
 74
     0
  7

 75
     0
147
0.0179189148
148
-1300.4909072572
149
0.0
100
AcDbLayout
  1
Model
 70
     1
 71
     0
 10
0.0
 20
0.0
 11
420.0
 21
297.0
 12
0.0
 22
0.0
 32
0.0
 14
-1.1406087414
 24
4.8278655379
 34
0.0
 15
113.8593912586
 25
39.8278655379
 35
0.0
146
0.0
 13
0.0
 23
0.0
 33
0.0
 16
1.0
 26
0.0
 36
0.0
 17
0.0
 27
1.0
 37
0.0
 76
     0
330
1F
331
29
  0
MLINESTYLE
  5
18
102
{ACAD_REACTORS
330
17
102
}
330
17
100
AcDbMlineStyle
  2
Standard
 70
     0
  3

 62
   256
 51
90.0
 52
90.0
 71
     2
 49
0.5
 62
   256
  6
BYLAYER
 49
-0.5
 62
   256
  6
BYLAYER
  0
ACDBPLACEHOLDER
  5
F
102
{ACAD_REACTORS
330
E
102
}
330
E
  0
SCALE
  5
48
102
{ACAD_REACTORS
330
47
102
}
330
47
100
AcDbScale
 70
     0
300
1:1
140
1.0
141
1.0
290
     1
  0
SCALE
  5
49
102
{ACAD_REACTORS
330
47
102
}
330
47
100
AcDbScale
 70
     0
300
1:2
140
1.0
141
2.0
290
     0
  0
SCALE
  5
4A
102
{ACAD_REACTORS
330
47
102
}
330
47
100
AcDbScale
 70
     0
300
1:4
140
1.0
141
4.0
290
     0
  0
SCALE
  5
4B
102
{ACAD_REACTORS
330
47
102
}
330
47
100
AcDbScale
 70
     0
300
1:5
140
1.0
141
5.0
290
     0
  0
SCALE
  5
4C
102
{ACAD_REACTORS
330
47
102
}
330
47
100
AcDbScale
 70
     0
300
1:8
140
1.0
141
8.0
290
     0
  0
SCALE
  5
4D
102
{ACAD_REACTORS
330
47
102
}
330
47
100
AcDbScale
 70
     0
300
1:10
140
1.0
141
10.0
290
     0
  0
SCALE
  5
4E
102
{ACAD_REACTORS
330
47
102
}
330
47
100
AcDbScale
 70
     0
300
1:16
140
1.0
141
16.0
290
     0
  0
SCALE
  5
4F
102
{ACAD_REACTORS
330
47
102
}
330
47
100
AcDbScale
 70
     0
300
1:20
140
1.0
141
20.0
290
     0
  0
SCALE
  5
50
102
{ACAD_REACTORS
330
47
102
}
330
47
100
AcDbScale
 70
     0
300
1:30
140
1.0
141
30.0
290
     0
  0
SCALE
  5
51
102
{ACAD_REACTORS
330
47
102
}
330
47
100
AcDbScale
 70
     0
300
1:40
140
1.0
141
40.0
290
     0
  0
SCALE
  5
52
102
{ACAD_REACTORS
330
47
102
}
330
47
100
AcDbScale
 70
     0
300
1:50
140
1.0
141
50.0
290
     0
  0
SCALE
  5
53
102
{ACAD_REACTORS
330
47
102
}
330
47
100
AcDbScale
 70
     0
300
1:100
140
1.0
141
100.0
290
     0
  0
SCALE
  5
54
102
{ACAD_REACTORS
330
47
102
}
330
47
100
AcDbScale
 70
     0
300
2:1
140
2.0
141
1.0
290
     0
  0
SCALE
  5
55
102
{ACAD_REACTORS
330
47
102
}
330
47
100
AcDbScale
 70
     0
300
4:1
140
4.0
141
1.0
290
     0
  0
SCALE
  5
56
102
{ACAD_REACTORS
330
47
102
}
330
47
100
AcDbScale
 70
     0
300
8:1
140
8.0
141
1.0
290
     0
  0
SCALE
  5
57
102
{ACAD_REACTORS
330
47
102
}
330
47
100
AcDbScale
 70
     0
300
10:1
140
10.0
141
1.0
290
     0
  0
SCALE
  5
58
102
{ACAD_REACTORS
330
47
102
}
330
47
100
AcDbScale
 70
     0
300
100:1
140
100.0
141
1.0
290
     0
  0
SCALE
  5
59
102
{ACAD_REACTORS
330
47
102
}
330
47
100
AcDbScale
 70
     0
300
1/128" = 1'-0"
140
0.0078125
141
12.0
290
     0
  0
SCALE
  5
5A
102
{ACAD_REACTORS
330
47
102
}
330
47
100
AcDbScale
 70
     0
300
1/64" = 1'-0"
140
0.015625
141
12.0
290
     0
  0
SCALE
  5
5B
102
{ACAD_REACTORS
330
47
102
}
330
47
100
AcDbScale
 70
     0
300
1/32" = 1'-0"
140
0.03125
141
12.0
290
     0
  0
SCALE
  5
5C
102
{ACAD_REACTORS
330
47
102
}
330
47
100
AcDbScale
 70
     0
300
1/16" = 1'-0"
140
0.0625
141
12.0
290
     0
  0
SCALE
  5
5D
102
{ACAD_REACTORS
330
47
102
}
330
47
100
AcDbScale
 70
     0
300
3/32" = 1'-0"
140
0.09375
141
12.0
290
     0
  0
SCALE
  5
5E
102
{ACAD_REACTORS
330
47
102
}
330
47
100
AcDbScale
 70
     0
300
1/8" = 1'-0"
140
0.125
141
12.0
290
     0
  0
SCALE
  5
5F
102
{ACAD_REACTORS
330
47
102
}
330
47
100
AcDbScale
 70
     0
300
3/16" = 1'-0"
140
0.1875
141
12.0
290
     0
  0
SCALE
  5
60
102
{ACAD_REACTORS
330
47
102
}
330
47
100
AcDbScale
 70
     0
300
1/4" = 1'-0"
140
0.25
141
12.0
290
     0
  0
SCALE
  5
61
102
{ACAD_REACTORS
330
47
102
}
330
47
100
AcDbScale
 70
     0
300
3/8" = 1'-0"
140
0.375
141
12.0
290
     0
  0
SCALE
  5
62
102
{ACAD_REACTORS
330
47
102
}
330
47
100
AcDbScale
 70
     0
300
1/2" = 1'-0"
140
0.5
141
12.0
290
     0
  0
SCALE
  5
63
102
{ACAD_REACTORS
330
47
102
}
330
47
100
AcDbScale
 70
     0
300
3/4" = 1'-0"
140
0.75
141
12.0
290
     0
  0
SCALE
  5
64
102
{ACAD_REACTORS
330
47
102
}
330
47
100
AcDbScale
 70
     0
300
1" = 1'-0"
140
1.0
141
12.0
290
     0
  0
SCALE
  5
65
102
{ACAD_REACTORS
330
47
102
}
330
47
100
AcDbScale
 70
     0
300
1-1/2" = 1'-0"
140
1.5
141
12.0
290
     0
  0
SCALE
  5
66
102
{ACAD_REACTORS
330
47
102
}
330
47
100
AcDbScale
 70
     0
300
3" = 1'-0"
140
3.0
141
12.0
290
     0
  0
SCALE
  5
67
102
{ACAD_REACTORS
330
47
102
}
330
47
100
AcDbScale
 70
     0
300
6" = 1'-0"
140
6.0
141
12.0
290
     0
  0
SCALE
  5
68
102
{ACAD_REACTORS
330
47
102
}
330
47
100
AcDbScale
 70
     0
300
1'-0" = 1'-0"
140
12.0
141
12.0
290
     0
  0
ENDSEC
  0
EOF
