0
SECTION
2
HEADER
9
$INSUNITS
70
4
9
$ACADVER
1
AC1014
9
$HANDSEED
5
FFFF
0
ENDSEC
0
SECTION
2
TABLES
0
TABLE
2
VPORT
5
8
100
AcDbSymbolTable
0
ENDTAB
0
TABLE
2
LTYPE
5
5
100
AcDbSymbolTable
0
LTYPE
5
14
100
AcDbSymbolTableRecord
100
AcDbLinetypeTableRecord
2
BYBLOCK
70
0
0
LTYPE
5
15
100
AcDbSymbolTableRecord
100
AcDbLinetypeTableRecord
2
BYLAYER
70
0
0
ENDTAB
0
TABLE
2
LAYER
5
2
100
AcDbSymbolTable
70
2
0
LAYER
5
50
100
AcDbSymbolTableRecord
100
AcDbLayerTableRecord
2
0
70
0
6
CONTINUOUS
0
ENDTAB
0
TABLE
2
STYLE
5
3
100
AcDbSymbolTable
70
1
0
STYLE
5
11
100
AcDbSymbolTableRecord
100
AcDbTextStyleTableRecord
2
STANDARD
70
0
0
ENDTAB
0
TABLE
2
VIEW
5
6
100
AcDbSymbolTable
70
0
0
ENDTAB
0
TABLE
2
UCS
5
7
100
AcDbSymbolTable
70
0
0
ENDTAB
0
TABLE
2
APPID
5
9
100
AcDbSymbolTable
70
2
0
APPID
5
12
100
AcDbSymbolTableRecord
100
AcDbRegAppTableRecord
2
ACAD
70
0
0
ENDTAB
0
TABLE
2
DIMSTYLE
5
A
100
AcDbSymbolTable
70
1
0
ENDTAB
0
TABLE
2
BLOCK_RECORD
5
1
100
AcDbSymbolTable
70
1
0
BLOCK_RECORD
5
1F
100
AcDbSymbolTableRecord
100
AcDbBlockTableRecord
2
*MODEL_SPACE
0
BLOCK_RECORD
5
1B
100
AcDbSymbolTableRecord
100
AcDbBlockTableRecord
2
*PAPER_SPACE
0
ENDTAB
0
ENDSEC
0
SECTION
2
BLOCKS
0
BLOCK
5
20
100
AcDbEntity
100
AcDbBlockBegin
2
*MODEL_SPACE
0
ENDBLK
5
21
100
AcDbEntity
100
AcDbBlockEnd
0
BLOCK
5
1C
100
AcDbEntity
100
AcDbBlockBegin
2
*PAPER_SPACE
0
ENDBLK
5
1D
100
AcDbEntity
100
AcDbBlockEnd
0
ENDSEC
0
SECTION
2
ENTITIES
0
LWPOLYLINE
5
100
100
AcDbEntity
8
0
100
AcDbPolyline
90
4
70
1
43
0.0
10
-15
20
20
10
-15
20
0
10
15
20
0
10
15
20
20
0
LINE
5
101
100
AcDbEntity
8
0
100
AcDbLine
10
39.870500564575195
20
-11.209807395935062
30
0
11
38.996694274246693
21
-11.286205053329471
31
0
0
SPLINE
5
102
100
AcDbEntity
8
0
100
AcDbSpline
70
0
71
3
72
9
73
5
74
0
42
0.000000001
43
0.0000000001
44
0.0000000001
40
0
40
0
40
0
40
0
40
0.048956839441813407
40
0.091672321342870386
40
0.091672321342870386
40
0.091672321342870386
40
0.091672321342870386
10
38.996694274246693
20
-11.286205053329471
30
0
10
38.972089990053284
20
-11.123370768676835
30
0
10
38.926018146513016
20
-10.818461443677316
30
0
10
38.778798668271449
20
-10.547981033542333
30
0
10
38.710200525820255
20
-10.421948432922367
30
0
0
SPLINE
5
103
100
AcDbEntity
8
0
100
AcDbSpline
70
0
71
3
72
9
73
5
74
0
42
0.000000001
43
0.0000000001
44
0.0000000001
40
0
40
0
40
0
40
0
40
0.042044213570370033
40
0.090077032019528921
40
0.090077032019528921
40
0.090077032019528921
40
0.090077032019528921
10
38.710200525820255
20
-10.421948432922367
30
0
10
38.618739648748829
20
-10.313711894331803
30
0
10
38.422790583398665
20
-10.081822049704616
30
0
10
38.14933403763839
20
-9.9486324425381767
30
0
10
38.003515638411045
20
-9.8776102066040075
30
0
0
SPLINE
5
104
100
AcDbEntity
8
0
100
AcDbSpline
70
0
71
3
72
9
73
5
74
0
42
0.000000001
43
0.0000000001
44
0.0000000001
40
0
40
0
40
0
40
0
40
0.053018813457201823
40
0.10995257609154231
40
0.10995257609154231
40
0.10995257609154231
40
0.10995257609154231
10
38.003515638411045
20
-9.8776102066040075
30
0
10
37.836067961073077
20
-9.817746263054941
30
0
10
37.488808143598725
20
-9.6935979772104837
30
0
10
37.120088118760528
20
-9.6795593359082091
30
0
10
36.929163821041584
20
-9.6722900867462194
30
0
0
SPLINE
5
105
100
AcDbEntity
8
0
100
AcDbSpline
70
0
71
3
72
9
73
5
74
0
42
0.000000001
43
0.0000000001
44
0.0000000001
40
0
40
0
40
0
40
0
40
0.05005295571487646
40
0.095313341201496815
40
0.095313341201496815
40
0.095313341201496815
40
0.095313341201496815
10
36.929163821041584
20
-9.6722900867462194
30
0
10
36.761454325608838
20
-9.6774301654711294
30
0
10
36.442093517988027
20
-9.6872181604119447
30
0
10
36.137786677605021
20
-9.7839343738588163
30
0
10
35.993283875286579
20
-9.829860925674442
30
0
0
SPLINE
5
106
100
AcDbEntity
8
0
100
AcDbSpline
70
0
71
3
72
9
73
5
74
0
42
0.000000001
43
0.0000000001
44
0.0000000001
40
0
40
0
40
0
40
0
40
0.039941085111906527
40
0.07471931024930259
40
0.07471931024930259
40
0.07471931024930259
40
0.07471931024930259
10
35.993283875286579
20
-9.829860925674442
30
0
10
35.869427995939049
20
-9.8836086962712777
30
0
10
35.63772608175119
20
-9.9841566992907573
30
0
10
35.469805649604176
20
-10.172116072323412
30
0
10
35.391646809875965
20
-10.25960206985474
30
0
0
SPLINE
5
107
100
AcDbEntity
8
0
100
AcDbSpline
70
0
71
3
72
9
73
5
74
0
42
0.000000001
43
0.0000000001
44
0.0000000001
40
0
40
0
40
0
40
0
40
0.032569299561328903
40
0.064244119342640571
40
0.064244119342640571
40
0.064244119342640571
40
0.064244119342640571
10
35.391646809875965
20
-10.25960206985474
30
0
10
35.333157573888293
20
-10.353132801530549
30
0
10
35.217785444070884
20
-10.537625546812666
30
0
10
35.199912882013663
20
-10.754374077744892
30
0
10
35.191101022064686
20
-10.861239433288578
30
0
0
SPLINE
5
108
100
AcDbEntity
8
0
100
AcDbSpline
70
0
71
3
72
9
73
5
74
0
42
0.000000001
43
0.0000000001
44
0.0000000001
40
0
40
0
40
0
40
0
40
0.031166022394724012
40
0.061290513069468214
40
0.061290513069468214
40
0.061290513069468214
40
0.061290513069468214
10
35.191101022064686
20
-10.861239433288578
30
0
10
35.198504064355866
20
-10.966765184036973
30
0
10
35.213062747993916
20
-11.174290139371184
30
0
10
35.326394179039909
20
-11.348568724782782
30
0
10
35.382096953690052
20
-11.434227228164676
30
0
0
SPLINE
5
109
100
AcDbEntity
8
0
100
AcDbSpline
70
0
71
3
72
9
73
5
74
0
42
0.000000001
43
0.0000000001
44
0.0000000001
40
0
40
0
40
0
40
0
40
0.034062981873589651
40
0.076183873973257404
40
0.076183873973257404
40
0.076183873973257404
40
0.076183873973257404
10
35.382096953690052
20
-11.434227228164676
30
0
10
35.462579712839215
20
-11.515923717485656
30
0
10
35.642584164674766
20
-11.698642748649304
30
0
10
35.880721253915979
20
-11.795881295266836
30
0
10
36.012383587658405
20
-11.849642992019657
30
0
0
SPLINE
5
110
100
AcDbEntity
8
0
100
AcDbSpline
70
0
71
3
72
9
73
5
74
0
42
0.000000001
43
0.0000000001
44
0.0000000001
40
0
40
0
40
0
40
0
40
0.047348913032522193
40
0.1291964288335434
40
0.1291964288335434
40
0.1291964288335434
40
0.1291964288335434
10
36.012383587658405
20
-11.849642992019657
30
0
10
36.162774930657513
20
-11.897685181649161
30
0
10
36.573133335920566
20
-12.028773287710059
30
0
10
36.992780297281385
20
-12.126652699480037
30
0
10
37.258631773293018
20
-12.18866050243378
30
0
0
SPLINE
5
111
100
AcDbEntity
8
0
100
AcDbSpline
70
0
71
3
72
9
73
5
74
0
42
0.000000001
43
0.0000000001
44
0.0000000001
40
0
40
0
40
0
40
0
40
0.085087435109066731
40
0.14230018817541545
40
0.14230018817541545
40
0.14230018817541545
40
0.14230018817541545
10
37.258631773293018
20
-12.18866050243378
30
0
10
37.534991426951905
20
-12.255374039633455
30
0
10
37.997175187331365
20
-12.366945729215971
30
0
10
38.434213444731832
20
-12.553104509930591
30
0
10
38.609927631914616
20
-12.627950906753544
30
0
0
SPLINE
5
112
100
AcDbEntity
8
0
100
AcDbSpline
70
0
71
3
72
9
73
5
74
0
42
0.000000001
43
0.0000000001
44
0.0000000001
40
0
40
0
40
0
40
0
40
0.052741128753185457
40
0.10002910317974925
40
0.10002910317974925
40
0.10002910317974925
40
0.10002910317974925
10
38.609927631914616
20
-12.627950906753544
30
0
10
38.763922024704343
20
-12.716776470721642
30
0
10
39.055988602906581
20
-12.885243504196493
30
0
10
39.262133289475422
20
-13.151477511229842
30
0
10
39.359586574137211
20
-13.277337551116947
30
0
0
SPLINE
5
113
100
AcDbEntity
8
0
100
AcDbSpline
70
0
71
3
72
9
73
5
74
0
42
0.000000001
43
0.0000000001
44
0.0000000001
40
0
40
0
40
0
40
0
40
0.045270029961154347
40
0.091629907072263372
40
0.091629907072263372
40
0.091629907072263372
40
0.091629907072263372
10
39.359586574137211
20
-13.277337551116947
30
0
10
39.430610326831633
20
-13.412566177250023
30
0
10
39.574367683849026
20
-13.686278972596435
30
0
10
39.59345112987949
20
-13.994965170297789
30
0
10
39.603106342256069
20
-14.151144027709964
30
0
0
SPLINE
5
114
100
AcDbEntity
8
0
100
AcDbSpline
70
0
71
3
72
9
73
5
74
0
42
0.000000001
43
0.0000000001
44
0.0000000001
40
0
40
0
40
0
40
0
40
0.051760017019649801
40
0.1044629118355658
40
0.1044629118355658
40
0.1044629118355658
40
0.1044629118355658
10
39.603106342256069
20
-14.151144027709964
30
0
10
39.590125804031409
20
-14.325507619536141
30
0
10
39.563928269752665
20
-14.677411068743972
30
0
10
39.390024462734445
20
-14.984577922226539
30
0
10
39.302287735044956
20
-15.139547586441044
30
0
0
SPLINE
5
115
100
AcDbEntity
8
0
100
AcDbSpline
70
0
71
3
72
9
73
5
74
0
42
0.000000001
43
0.0000000001
44
0.0000000001
40
0
40
0
40
0
40
0
40
0.055012547331330874
40
0.11379483320877923
40
0.11379483320877923
40
0.11379483320877923
40
0.11379483320877923
10
39.302287735044956
20
-15.139547586441044
30
0
10
39.187465643386517
20
-15.285798778815934
30
0
10
38.949953268432118
20
-15.588323036466644
30
0
10
38.602953915631247
20
-15.755236040363879
30
0
10
38.423706628382206
20
-15.841457247734073
30
0
0
SPLINE
5
116
100
AcDbEntity
8
0
100
AcDbSpline
70
0
71
3
72
9
73
5
74
0
42
0.000000001
43
0.0000000001
44
0.0000000001
40
0
40
0
40
0
40
0
40
0.063573090562525872
40
0.13128207205809289
40
0.13128207205809289
40
0.13128207205809289
40
0.13128207205809289
10
38.423706628382206
20
-15.841457247734073
30
0
10
38.222253066066777
20
-15.911072125067797
30
0
10
37.80623992512561
20
-16.054830832747001
30
0
10
37.366207193710139
20
-16.071569473885468
30
0
10
37.139259465038776
20
-16.080202460289005
30
0
0
SPLINE
5
117
100
AcDbEntity
8
0
100
AcDbSpline
70
0
71
3
72
9
73
5
74
0
42
0.000000001
43
0.0000000001
44
0.0000000001
40
0
40
0
40
0
40
0
40
0.073448306508163419
40
0.14007331687148109
40
0.14007331687148109
40
0.14007331687148109
40
0.14007331687148109
10
37.139259465038776
20
-16.080202460289005
30
0
10
36.892920553952059
20
-16.071870315451051
30
0
10
36.42312744379246
20
-16.055980076184934
30
0
10
35.979752368532978
20
-15.900897250349786
30
0
10
35.768863745033741
20
-15.827133059501652
30
0
0
SPLINE
5
118
100
AcDbEntity
8
0
100
AcDbSpline
70
0
71
3
72
9
73
5
74
0
42
0.000000001
43
0.0000000001
44
0.0000000001
40
0
40
0
40
0
40
0
40
0.061093535874721418
40
0.11889251334350893
40
0.11889251334350893
40
0.11889251334350893
40
0.11889251334350893
10
35.768863745033741
20
-15.827133059501652
30
0
10
35.583028966620233
20
-15.736782112769793
30
0
10
35.221380822411945
20
-15.560952526445899
30
0
10
34.972886929972475
20
-15.245267123508956
30
0
10
34.852082915604115
20
-15.091798305511478
30
0
0
SPLINE
5
119
100
AcDbEntity
8
0
100
AcDbSpline
70
0
71
3
72
9
73
5
74
0
42
0.000000001
43
0.0000000001
44
0.0000000001
40
0
40
0
40
0
40
0
40
0.057455324367440636
40
0.11664349891258856
40
0.11664349891258856
40
0.11664349891258856
40
0.11664349891258856
10
34.852082915604115
20
-15.091798305511478
30
0
10
34.757726615850011
20
-14.922597419220754
30
0
10
34.566168234291204
20
-14.579092554991924
30
0
10
34.527773194446667
20
-14.187501383893322
30
0
10
34.508290477097034
20
-13.98879706859589
30
0
0
LINE
5
120
100
AcDbEntity
8
0
100
AcDbLine
10
34.508290477097034
20
-13.988797068595893
30
0
11
35.396421737968922
21
-13.921948671340946
31
0
0
SPLINE
5
121
100
AcDbEntity
8
0
100
AcDbSpline
70
0
71
3
72
9
73
5
74
0
42
0.000000001
43
0.0000000001
44
0.0000000001
40
0
40
0
40
0
40
0
40
0.06034717703307943
40
0.11374287409243289
40
0.11374287409243289
40
0.11374287409243289
40
0.11374287409243289
10
35.396421737968922
20
-13.921948671340946
30
0
10
35.429952494515661
20
-14.125646065530109
30
0
10
35.493151550505125
20
-14.509576651835982
30
0
10
35.758769273590275
20
-14.792065056181496
30
0
10
35.88346142321825
20
-14.924677014350895
30
0
0
SPLINE
5
122
100
AcDbEntity
8
0
100
AcDbSpline
70
0
71
3
72
9
73
5
74
0
42
0.000000001
43
0.0000000001
44
0.0000000001
40
0
40
0
40
0
40
0
40
0.056961807160224136
40
0.12825522958821223
40
0.12825522958821223
40
0.12825522958821223
40
0.12825522958821223
10
35.88346142321825
20
-14.924677014350895
30
0
10
36.049233413610537
20
-15.023240129083259
30
0
10
36.422485698729474
20
-15.24516488075715
30
0
10
36.858623488139884
20
-15.257074759217758
30
0
10
37.101060040295124
20
-15.263695120811466
30
0
0
SPLINE
5
123
100
AcDbEntity
8
0
100
AcDbSpline
70
0
71
3
72
9
73
5
74
0
42
0.000000001
43
0.0000000001
44
0.0000000001
40
0
40
0
40
0
40
0
40
0.073110725450443975
40
0.12827913330528598
40
0.12827913330528598
40
0.12827913330528598
40
0.12827913330528598
10
37.101060040295124
20
-15.263695120811466
30
0
10
37.349478536742382
20
-15.259763083571865
30
0
10
37.785350417713623
20
-15.252863981885859
30
0
10
38.164954225523495
20
-15.043406838495869
30
0
10
38.328208662569523
20
-14.953326582908634
30
0
0
SPLINE
5
124
100
AcDbEntity
8
0
100
AcDbSpline
70
0
71
3
72
9
73
5
74
0
42
0.000000001
43
0.0000000001
44
0.0000000001
40
0
40
0
40
0
40
0
40
0.044294916249354319
40
0.085641375656556468
40
0.085641375656556468
40
0.085641375656556468
40
0.085641375656556468
10
38.328208662569523
20
-14.953326582908634
30
0
10
38.439583879985321
20
-14.848748079359517
30
0
10
38.654920709607971
20
-14.646552259468313
30
0
10
38.692201757072752
20
-14.354308634951627
30
0
10
38.710200525820255
20
-14.213217496871952
30
0
0
SPLINE
5
125
100
AcDbEntity
8
0
100
AcDbSpline
70
0
71
3
72
9
73
5
74
0
42
0.000000001
43
0.0000000001
44
0.0000000001
40
0
40
0
40
0
40
0
40
0.03504611139763017
40
0.069450494501647156
40
0.069450494501647156
40
0.069450494501647156
40
0.069450494501647156
10
38.710200525820255
20
-14.213217496871952
30
0
10
38.699285166614516
20
-14.093432347819533
30
0
10
38.677654319017748
20
-13.856055431982682
30
0
10
38.517412064893563
20
-13.679795873756383
30
0
10
38.438031263649464
20
-13.592480421066288
30
0
0
SPLINE
5
126
100
AcDbEntity
8
0
100
AcDbSpline
70
0
71
3
72
9
73
5
74
0
42
0.000000001
43
0.0000000001
44
0.0000000001
40
0
40
0
40
0
40
0
40
0.05418834846546678
40
0.14886695198634242
40
0.14886695198634242
40
0.14886695198634242
40
0.14886695198634242
10
38.438031263649464
20
-13.592480421066288
30
0
10
38.279685711039221
20
-13.503951239115397
30
0
10
37.844676701810918
20
-13.260742692405911
30
0
10
37.355118168254378
20
-13.157058534278786
30
0
10
37.043761499226093
20
-13.091115951538089
30
0
0
SPLINE
5
127
100
AcDbEntity
8
0
100
AcDbSpline
70
0
71
3
72
9
73
5
74
0
42
0.000000001
43
0.0000000001
44
0.0000000001
40
0
40
0
40
0
40
0
40
0.098292330779554168
40
0.16156309206527708
40
0.16156309206527708
40
0.16156309206527708
40
0.16156309206527708
10
37.043761499226093
20
-13.091115951538089
30
0
10
36.723328787817195
20
-13.020376089869094
30
0
10
36.196633579315211
20
-12.904100987906711
30
0
10
35.690234071164774
20
-12.719387468221584
30
0
10
35.491919703781605
20
-12.64705061912537
30
0
0
SPLINE
5
128
100
AcDbEntity
8
0
100
AcDbSpline
70
0
71
3
72
9
73
5
74
0
42
0.000000001
43
0.0000000001
44
0.0000000001
40
0
40
0
40
0
40
0
40
0.062010371518967634
40
0.11631437678123856
40
0.11631437678123856
40
0.11631437678123856
40
0.11631437678123856
10
35.491919703781605
20
-12.64705061912537
30
0
10
35.305318802619432
20
-12.552197088893575
30
0
10
34.955306909546721
20
-12.374277992714045
30
0
10
34.705903362166637
20
-12.071960126935767
30
0
10
34.589463658630848
20
-11.93081617355347
30
0
0
SPLINE
5
129
100
AcDbEntity
8
0
100
AcDbSpline
70
0
71
3
72
9
73
5
74
0
42
0.000000001
43
0.0000000001
44
0.0000000001
40
0
40
0
40
0
40
0
40
0.051209663992137694
40
0.10470893745576053
40
0.10470893745576053
40
0.10470893745576053
40
0.10470893745576053
10
34.589463658630848
20
-11.93081617355347
30
0
10
34.504521608454347
20
-11.780027843652391
30
0
10
34.330839706915974
20
-11.47170936284583
30
0
10
34.309233937968834
20
-11.118237568823391
30
0
10
34.298194833099842
20
-10.937637090682987
30
0
0
SPLINE
5
130
100
AcDbEntity
8
0
100
AcDbSpline
70
0
71
3
72
9
73
5
74
0
42
0.000000001
43
0.0000000001
44
0.0000000001
40
0
40
0
40
0
40
0
40
0.054900192695529287
40
0.11145315482960826
40
0.11145315482960826
40
0.11145315482960826
40
0.11145315482960826
10
34.298194833099842
20
-10.937637090682987
30
0
10
34.312297980482946
20
-10.752811885584082
30
0
10
34.340928850279539
20
-10.377597315490597
30
0
10
34.524809496022158
20
-10.049080149415193
30
0
10
34.618113227188587
20
-9.8823857307434118
30
0
0
SPLINE
5
131
100
AcDbEntity
8
0
100
AcDbSpline
70
0
71
3
72
9
73
5
74
0
42
0.000000001
43
0.0000000001
44
0.0000000001
40
0
40
0
40
0
40
0
40
0.058677082294476858
40
0.12124859146395542
40
0.12124859146395542
40
0.12124859146395542
40
0.12124859146395542
10
34.618113227188587
20
-9.8823857307434118
30
0
10
34.739534570615859
20
-9.7260283574175439
30
0
10
34.990436051884693
20
-9.4029360948264689
30
0
10
35.352712446721021
20
-9.2121061303047611
30
0
10
35.539668686687946
20
-9.1136264801025426
30
0
0
SPLINE
5
132
100
AcDbEntity
8
0
100
AcDbSpline
70
0
71
3
72
9
73
5
74
0
42
0.000000001
43
0.0000000001
44
0.0000000001
40
0
40
0
40
0
40
0
40
0.066706114696888516
40
0.13817672548966425
40
0.13817672548966425
40
0.13817672548966425
40
0.13817672548966425
10
35.539668686687946
20
-9.1136264801025426
30
0
10
35.749024851309102
20
-9.034269889584273
30
0
10
36.182690481812017
20
-8.8698886499683116
30
0
10
36.646360706431473
20
-8.8511498400243376
30
0
10
36.886189766228199
20
-8.8414573669433629
30
0
0
SPLINE
5
133
100
AcDbEntity
8
0
100
AcDbSpline
70
0
71
3
72
9
73
5
74
0
42
0.000000001
43
0.0000000001
44
0.0000000001
40
0
40
0
40
0
40
0
40
0.087654490244428604
40
0.16268763598715702
40
0.16268763598715702
40
0.16268763598715702
40
0.16268763598715702
10
36.886189766228199
20
-8.8414573669433629
30
0
10
37.180288528895886
20
-8.8489643780206784
30
0
10
37.726138859115508
20
-8.8628974678383425
30
0
10
38.2427426793869
20
-9.0377556721106505
30
0
10
38.481005467474461
20
-9.1184020042419469
30
0
0
SPLINE
5
134
100
AcDbEntity
8
0
100
AcDbSpline
70
0
71
3
72
9
73
5
74
0
42
0.000000001
43
0.0000000001
44
0.0000000001
40
0
40
0
40
0
40
0
40
0.066842216137765725
40
0.13201358319397738
40
0.13201358319397738
40
0.13201358319397738
40
0.13201358319397738
10
38.481005467474461
20
-9.1184020042419469
30
0
10
38.682144682746895
20
-9.221060940495672
30
0
10
39.079395253766442
20
-9.4238126564741442
30
0
10
39.353293119675271
20
-9.7755772935254441
30
0
10
39.488508738577366
20
-9.9492335319519078
30
0
0
SPLINE
5
135
100
AcDbEntity
8
0
100
AcDbSpline
70
0
71
3
72
9
73
5
74
0
42
0.000000001
43
0.0000000001
44
0.0000000001
40
0
40
0
40
0
40
0
40
0.065581921885175795
40
0.13301502761933043
40
0.13301502761933043
40
0.13301502761933043
40
0.13301502761933043
10
39.488508738577366
20
-9.9492335319519078
30
0
10
39.59518572002311
20
-10.143009023192205
30
0
10
39.81155085885203
20
-10.536029715150661
30
0
10
39.850669191378934
20
-10.983140672581122
30
0
10
39.870500564575195
20
-11.209807395935062
30
0
0
SPLINE
5
136
100
AcDbEntity
8
0
100
AcDbSpline
70
0
71
3
72
9
73
5
74
0
42
0.000000001
43
0.0000000001
44
0.0000000001
40
0
40
0
40
0
40
0
40
0.12414879470135562
40
0.22834550202928161
40
0.22834550202928161
40
0.22834550202928161
40
0.22834550202928161
10
4.1256185248494148
20
-11.496300697326667
30
0
10
4.1060307303047416
20
-11.923118199484206
30
0
10
4.0700031169097795
20
-12.708158900358468
30
0
10
3.5704753936325107
20
-13.308835052965851
30
0
10
3.3425350859761238
20
-13.582930564880378
30
0
0
SPLINE
5
137
100
AcDbEntity
8
0
100
AcDbSpline
70
0
71
3
72
9
73
5
74
0
42
0.000000001
43
0.0000000001
44
0.0000000001
40
0
40
0
40
0
40
0
40
0.083984248670689043
40
0.17202152434097825
40
0.17202152434097825
40
0.17202152434097825
40
0.17202152434097825
10
3.3425350859761238
20
-13.582930564880378
30
0
10
3.1090074946136559
20
-13.747241165286447
30
0
10
2.6306824172605747
20
-14.083791892293164
30
0
10
2.0466276962264507
20
-14.125184546798856
30
0
10
1.747719831764698
20
-14.146368503570564
30
0
0
SPLINE
5
138
100
AcDbEntity
8
0
100
AcDbSpline
70
0
71
3
72
9
73
5
74
0
42
0.000000001
43
0.0000000001
44
0.0000000001
40
0
40
0
40
0
40
0
40
0.096562853722592143
40
0.18834169150501795
40
0.18834169150501795
40
0.18834169150501795
40
0.18834169150501795
10
1.747719831764698
20
-14.146368503570564
30
0
10
1.4180458301559407
20
-14.120743790471838
30
0
10
0.77503087446086028
20
-14.070763890093069
30
0
10
0.27968552688462545
20
-13.659293162490997
30
0
10
0.0383039191365242
20
-13.458783626556404
30
0
0
SPLINE
5
139
100
AcDbEntity
8
0
100
AcDbSpline
70
0
71
3
72
9
73
5
74
0
42
0.000000001
43
0.0000000001
44
0.0000000001
40
0
40
0
40
0
40
0
40
0.095424377353004367
40
0.20436926779173115
40
0.20436926779173115
40
0.20436926779173115
40
0.20436926779173115
10
0.0383039191365242
20
-13.458783626556404
30
0
10
-0.15505214727636663
20
-13.197448377398294
30
0
10
-0.56916056288288885
20
-12.637749744825232
30
0
10
-0.60584828207510988
20
-11.939921403024378
30
0
10
-0.62540572136640549
20
-11.567924022674568
30
0
0
SPLINE
5
140
100
AcDbEntity
8
0
100
AcDbSpline
70
0
71
3
72
9
73
5
74
0
42
0.000000001
43
0.0000000001
44
0.0000000001
40
0
40
0
40
0
40
0
40
0.087812416398452303
40
0.15813863850434037
40
0.15813863850434037
40
0.15813863850434037
40
0.15813863850434037
10
-0.62540572136640549
20
-11.567924022674568
30
0
10
-0.61954446501120586
20
-11.27238988094361
30
0
10
-0.60898911147521773
20
-10.740171673978221
30
0
10
-0.41543658904957148
20
-10.245582394129407
30
0
10
-0.32936137169599533
20
-10.025632381439216
30
0
0
SPLINE
5
141
100
AcDbEntity
8
0
100
AcDbSpline
70
0
71
3
72
9
73
5
74
0
42
0.000000001
43
0.0000000001
44
0.0000000001
40
0
40
0
40
0
40
0
40
0.061294880208138551
40
0.12327309484602644
40
0.12327309484602644
40
0.12327309484602644
40
0.12327309484602644
10
-0.32936137169599533
20
-10.025632381439216
30
0
10
-0.22041588275048873
20
-9.8494737102717007
30
0
10
-0.0013103465911523671
20
-9.4951924961630567
30
0
10
0.34914592311166004
20
-9.269880643807225
30
0
10
0.52534539252519608
20
-9.1566002368927073
30
0
0
SPLINE
5
142
100
AcDbEntity
8
0
100
AcDbSpline
70
0
71
3
72
9
73
5
74
0
42
0.000000001
43
0.0000000001
44
0.0000000001
40
0
40
0
40
0
40
0
40
0.062954046601496214
40
0.12716955368693095
40
0.12716955368693095
40
0.12716955368693095
40
0.12716955368693095
10
0.52534539252519608
20
-9.1566002368927073
30
0
10
0.717019549808664
20
-9.0660785035236575
30
0
10
1.1042085924662848
20
-8.883221180556335
30
0
10
1.531802244571856
20
-8.8586435868558979
30
0
10
1.747719831764698
20
-8.8462328910827708
30
0
0
SPLINE
5
143
100
AcDbEntity
8
0
100
AcDbSpline
70
0
71
3
72
9
73
5
74
0
42
0.000000001
43
0.0000000001
44
0.0000000001
40
0
40
0
40
0
40
0
40
0.097834241742062775
40
0.18951113189905985
40
0.18951113189905985
40
0.18951113189905985
40
0.18951113189905985
10
1.747719831764698
20
-8.8462328910827708
30
0
10
2.0818977636642888
20
-8.8707998390346514
30
0
10
2.7292216147239934
20
-8.9183875755036581
30
0
10
3.2294633067635559
20
-9.3299479846987055
30
0
10
3.4714575484395027
20
-9.5290422439575266
30
0
0
SPLINE
5
144
100
AcDbEntity
8
0
100
AcDbSpline
70
0
71
3
72
9
73
5
74
0
42
0.000000001
43
0.0000000001
44
0.0000000001
40
0
40
0
40
0
40
0
40
0.096693561808255238
40
0.21127051093820454
40
0.21127051093820454
40
0.21127051093820454
40
0.21127051093820454
10
3.4714575484395027
20
-9.5290422439575266
30
0
10
3.6618941060159482
20
-9.7973378905810193
30
0
10
4.0779882912759025
20
-10.383550222453175
30
0
10
4.1088704217705763
20
-11.105026956763398
30
0
10
4.1256185248494148
20
-11.496300697326667
30
0
0
LINE
5
145
100
AcDbEntity
8
0
100
AcDbLine
10
-1.6329101845622063
20
-8.9608299732208323
30
0
11
-1.6329101845622063
21
-14.031770825386054
31
0
0
LINE
5
146
100
AcDbEntity
8
0
100
AcDbLine
10
-1.6329101845622063
20
-14.031770825386054
30
0
11
-2.4016670510172844
21
-14.031770825386054
31
0
0
LINE
5
147
100
AcDbEntity
8
0
100
AcDbLine
10
-2.4016670510172844
20
-14.031770825386054
30
0
11
-2.4016670510172844
21
-13.320311307907112
31
0
0
SPLINE
5
148
100
AcDbEntity
8
0
100
AcDbSpline
70
0
71
3
72
9
73
5
74
0
42
0.000000001
43
0.0000000001
44
0.0000000001
40
0
40
0
40
0
40
0
40
0.043575152067273262
40
0.087817251526746992
40
0.087817251526746992
40
0.087817251526746992
40
0.087817251526746992
10
-2.4016670510172844
20
-13.320311307907112
30
0
10
-2.4883096740565769
20
-13.438570428683141
30
0
10
-2.6629210445145191
20
-13.676898706654201
30
0
10
-2.9114966043250323
20
-13.836677176133399
30
0
10
-3.0367283150553703
20
-13.917173147201545
30
0
0
SPLINE
5
149
100
AcDbEntity
8
0
100
AcDbSpline
70
0
71
3
72
9
73
5
74
0
42
0.000000001
43
0.0000000001
44
0.0000000001
40
0
40
0
40
0
40
0
40
0.045730677489825448
40
0.093940642834409741
40
0.093940642834409741
40
0.093940642834409741
40
0.093940642834409741
10
-3.0367283150553703
20
-13.917173147201545
30
0
10
-3.175526976813865
20
-13.984008977680812
30
0
10
-3.4606492672730305
20
-14.121304141982522
30
0
10
-3.7768882117764235
20
-14.137867998233137
30
0
10
-3.9391807839274406
20
-14.146368503570564
30
0
0
SPLINE
5
150
100
AcDbEntity
8
0
100
AcDbSpline
70
0
71
3
72
9
73
5
74
0
42
0.000000001
43
0.0000000001
44
0.0000000001
40
0
40
0
40
0
40
0
40
0.051543844379724625
40
0.096090674607383741
40
0.096090674607383741
40
0.096090674607383741
40
0.096090674607383741
10
-3.9391807839274406
20
-14.146368503570564
30
0
10
-4.1133118574592054
20
-14.139793754093617
30
0
10
-4.437935923186771
20
-14.127536769380562
30
0
10
-4.7268171880244747
20
-13.980543610056305
30
0
10
-4.8607401177287102
20
-13.912398815155036
30
0
0
SPLINE
5
151
100
AcDbEntity
8
0
100
AcDbSpline
70
0
71
3
72
9
73
5
74
0
42
0.000000001
43
0.0000000001
44
0.0000000001
40
0
40
0
40
0
40
0
40
0.041747423121811476
40
0.084209234437895228
40
0.084209234437895228
40
0.084209234437895228
40
0.084209234437895228
10
-4.8607401177287102
20
-13.912398815155036
30
0
10
-4.9729568268676783
20
-13.826064162660687
30
0
10
-5.199310514379345
20
-13.651917486091026
30
0
10
-5.3138808920817748
20
-13.39020446778086
30
0
10
-5.3716520592570305
20
-13.258237838745124
30
0
0
SPLINE
5
152
100
AcDbEntity
8
0
100
AcDbSpline
70
0
71
3
72
9
73
5
74
0
42
0.000000001
43
0.0000000001
44
0.0000000001
40
0
40
0
40
0
40
0
40
0.096075635323801728
40
0.18623283674278554
40
0.18623283674278554
40
0.18623283674278554
40
0.18623283674278554
10
-5.3716520592570305
20
-13.258237838745124
30
0
10
-5.5819069964088452
20
-13.517198748386626
30
0
10
-5.989464784114249
20
-14.019168104566164
30
0
10
-6.6284700293974286
20
-14.104876299040011
30
0
10
-6.9378189370036125
20
-14.146368503570564
30
0
0
SPLINE
5
153
100
AcDbEntity
8
0
100
AcDbSpline
70
0
71
3
72
9
73
5
74
0
42
0.000000001
43
0.0000000001
44
0.0000000001
40
0
40
0
40
0
40
0
40
0.067550862808133535
40
0.12606374329237813
40
0.12606374329237813
40
0.12606374329237813
40
0.12606374329237813
10
-6.9378189370036125
20
-14.146368503570564
30
0
10
-7.1690127598911602
20
-14.134463026811018
30
0
10
-7.6004677780463314
20
-14.112244969134213
30
0
10
-7.940359359328939
20
-13.848565066543161
30
0
10
-8.0981210991740227
20
-13.726177215576179
30
0
0
SPLINE
5
154
100
AcDbEntity
8
0
100
AcDbSpline
70
0
71
3
72
9
73
5
74
0
42
0.000000001
43
0.0000000001
44
0.0000000001
40
0
40
0
40
0
40
0
40
0.061017095738437117
40
0.13725801541364208
40
0.13725801541364208
40
0.13725801541364208
40
0.13725801541364208
10
-8.0981210991740227
20
-13.726177215576179
30
0
10
-8.2161237734783121
20
-13.555529246317926
30
0
10
-8.4815709025573405
20
-13.171656475723223
30
0
10
-8.4959814023660751
20
-12.702388603799303
30
0
10
-8.5039858147501945
20
-12.441730499267585
30
0
0
LINE
5
155
100
AcDbEntity
8
0
100
AcDbLine
10
-8.5039858147501945
20
-12.441730499267585
30
0
11
-8.5039858147501945
21
-8.9608299732208323
31
0
0
LINE
5
156
100
AcDbEntity
8
0
100
AcDbLine
10
-8.5039858147501945
20
-8.9608299732208323
30
0
11
-7.6492790505290031
21
-8.9608299732208323
31
0
0
LINE
5
157
100
AcDbEntity
8
0
100
AcDbLine
10
-7.6492790505290031
20
-8.9608299732208323
30
0
11
-7.6492790505290031
21
-12.155236005783088
31
0
0
SPLINE
5
158
100
AcDbEntity
8
0
100
AcDbSpline
70
0
71
3
72
9
73
5
74
0
42
0.000000001
43
0.0000000001
44
0.0000000001
40
0
40
0
40
0
40
0
40
0.044339295294238849
40
0.074754056376690095
40
0.074754056376690095
40
0.074754056376690095
40
0.074754056376690095
10
-7.6492790505290031
20
-12.155236005783088
30
0
10
-7.6492830401309231
20
-12.303804353531236
30
0
10
-7.6492897664201998
20
-12.55428390151809
30
0
10
-7.5881889124336155
20
-12.796710816839333
30
0
10
-7.5633291527628899
20
-12.895345687866218
30
0
0
SPLINE
5
159
100
AcDbEntity
8
0
100
AcDbSpline
70
0
71
3
72
9
73
5
74
0
42
0.000000001
43
0.0000000001
44
0.0000000001
40
0
40
0
40
0
40
0
40
0.023675978438165646
40
0.048212757084543596
40
0.048212757084543596
40
0.048212757084543596
40
0.048212757084543596
10
-7.5633291527628899
20
-12.895345687866218
30
0
10
-7.5298678098709715
20
-12.968358747211351
30
0
10
-7.4617285521510013
20
-13.117039440742129
30
0
10
-7.3297030295056587
20
-13.213778859133402
30
0
10
-7.2625116631388664
20
-13.263012170791633
30
0
0
SPLINE
5
160
100
AcDbEntity
8
0
100
AcDbSpline
70
0
71
3
72
9
73
5
74
0
42
0.000000001
43
0.0000000001
44
0.0000000001
40
0
40
0
40
0
40
0
40
0.026035755415038716
40
0.053945510633021096
40
0.053945510633021096
40
0.053945510633021096
40
0.053945510633021096
10
-7.2625116631388664
20
-13.263012170791633
30
0
10
-7.1845056740548685
20
-13.303386326753898
30
0
10
-7.0228789861985597
20
-13.387040686884493
30
0
10
-6.8409475612390747
20
-13.396559662802394
30
0
10
-6.7468218132853508
20
-13.401484489440925
30
0
0
SPLINE
5
161
100
AcDbEntity
8
0
100
AcDbSpline
70
0
71
3
72
9
73
5
74
0
42
0.000000001
43
0.0000000001
44
0.0000000001
40
0
40
0
40
0
40
0
40
0.049754703545253236
40
0.097827911219690755
40
0.097827911219690755
40
0.097827911219690755
40
0.097827911219690755
10
-6.7468218132853508
20
-13.401484489440925
30
0
10
-6.5771718467500229
20
-13.387615582198801
30
0
10
-6.2436053559046734
20
-13.360346477376126
30
0
10
-5.9855187835836521
20
-13.147808885958494
30
0
10
-5.8586935326457024
20
-13.043366670608528
30
0
0
SPLINE
5
162
100
AcDbEntity
8
0
100
AcDbSpline
70
0
71
3
72
9
73
5
74
0
42
0.000000001
43
0.0000000001
44
0.0000000001
40
0
40
0
40
0
40
0
40
0.053155197396342203
40
0.1212949162529543
40
0.1212949162529543
40
0.1212949162529543
40
0.1212949162529543
10
-5.8586935326457024
20
-13.043366670608528
30
0
10
-5.7560331894203198
20
-12.894615666569212
30
0
10
-5.5217724144828306
20
-12.55518055088411
30
0
10
-5.5112556522483569
20
-12.140113383626577
30
0
10
-5.5053476616740227
20
-11.906941533088691
30
0
0
LINE
5
163
100
AcDbEntity
8
0
100
AcDbLine
10
-5.5053476616740227
20
-11.906941533088691
30
0
11
-5.5053476616740227
21
-8.9608299732208323
31
0
0
LINE
5
164
100
AcDbEntity
8
0
100
AcDbLine
10
-5.5053476616740227
20
-8.9608299732208323
30
0
11
-4.645867757499218
21
-8.9608299732208323
31
0
0
LINE
5
165
100
AcDbEntity
8
0
100
AcDbLine
10
-4.645867757499218
20
-8.9608299732208323
30
0
11
-4.645867757499218
21
-12.255508899688728
31
0
0
SPLINE
5
166
100
AcDbEntity
8
0
100
AcDbSpline
70
0
71
3
72
9
73
5
74
0
42
0.000000001
43
0.0000000001
44
0.0000000001
40
0
40
0
40
0
40
0
40
0.05041081840491702
40
0.089535812275391355
40
0.089535812275391355
40
0.089535812275391355
40
0.089535812275391355
10
-4.645867757499218
20
-12.255508899688728
30
0
10
-4.6424823528381332
20
-12.426378846182251
30
0
10
-4.6364694578722965
20
-12.729864882252198
30
0
10
-4.4968038242345898
20
-12.997876130460684
30
0
10
-4.4357733055949211
20
-13.114990592002876
30
0
0
SPLINE
5
167
100
AcDbEntity
8
0
100
AcDbSpline
70
0
71
3
72
9
73
5
74
0
42
0.000000001
43
0.0000000001
44
0.0000000001
40
0
40
0
40
0
40
0
40
0.035052300111339078
40
0.076736501590855377
40
0.076736501590855377
40
0.076736501590855377
40
0.076736501590855377
10
-4.4357733055949211
20
-13.114990592002876
30
0
10
-4.3486641413236438
20
-13.198387245538658
30
0
10
-4.1579647435252465
20
-13.380959214179612
30
0
10
-3.8924300859160432
20
-13.394259572790101
30
0
10
-3.748188428580761
20
-13.401484489440925
30
0
0
SPLINE
5
168
100
AcDbEntity
8
0
100
AcDbSpline
70
0
71
3
72
9
73
5
74
0
42
0.000000001
43
0.0000000001
44
0.0000000001
40
0
40
0
40
0
40
0
40
0.035300437714287342
40
0.070680130002672426
40
0.070680130002672426
40
0.070680130002672426
40
0.070680130002672426
10
-3.748188428580761
20
-13.401484489440925
30
0
10
-3.6293555897965923
20
-13.393490542310836
30
0
10
-3.3914231153657681
20
-13.377484700486374
30
0
10
-3.1805050334090357
20
-13.266195535381735
30
0
10
-3.0749277397990227
20
-13.210488557815559
30
0
0
SPLINE
5
169
100
AcDbEntity
8
0
100
AcDbSpline
70
0
71
3
72
9
73
5
74
0
42
0.000000001
43
0.0000000001
44
0.0000000001
40
0
40
0
40
0
40
0
40
0.035340908884683879
40
0.072373732299088472
40
0.072373732299088472
40
0.072373732299088472
40
0.072373732299088472
10
-3.0749277397990227
20
-13.210488557815559
30
0
10
-2.9795205565200078
20
-13.138086793760603
30
0
10
-2.7841386560551573
20
-12.989817095695027
30
0
10
-2.6827453909037935
20
-12.766231683566108
30
0
10
-2.6308635994791985
20
-12.65182554721833
30
0
0
SPLINE
5
170
100
AcDbEntity
8
0
100
AcDbSpline
70
0
71
3
72
9
73
5
74
0
42
0.000000001
43
0.0000000001
44
0.0000000001
40
0
40
0
40
0
40
0
40
0.046069889093964166
40
0.10728657387026522
40
0.10728657387026522
40
0.10728657387026522
40
0.10728657387026522
10
-2.6308635994791985
20
-12.65182554721833
30
0
10
-2.5906770417200509
20
-12.503008065794376
30
0
10
-2.4970914442200431
20
-12.156445093146161
30
0
10
-2.494098075864013
20
-11.796932491681567
30
0
10
-2.492390088737011
20
-11.591798067092903
30
0
0
LINE
5
171
100
AcDbEntity
8
0
100
AcDbLine
10
-2.492390088737011
20
-11.591798067092903
30
0
11
-2.492390088737011
21
-8.9608299732208323
31
0
0
LINE
5
172
100
AcDbEntity
8
0
100
AcDbLine
10
-2.492390088737011
20
-8.9608299732208323
30
0
11
-1.6329101845622063
21
-8.9608299732208323
31
0
0
LINE
5
173
100
AcDbEntity
8
0
100
AcDbLine
10
-36.613803319633007
20
-10.593844652175912
30
0
11
-37.501936368644238
21
-10.484021902084359
31
0
0
SPLINE
5
174
100
AcDbEntity
8
0
100
AcDbSpline
70
0
71
3
72
9
73
5
74
0
42
0.000000001
43
0.0000000001
44
0.0000000001
40
0
40
0
40
0
40
0
40
0.075331756970933958
40
0.14578059626470566
40
0.14578059626470566
40
0.14578059626470566
40
0.14578059626470566
10
-37.501936368644238
20
-10.484021902084359
30
0
10
-37.420339916619128
20
-10.241708115059362
30
0
10
-37.262436000560264
20
-9.7727870414503588
30
0
10
-36.899175165051552
20
-9.4378378710425679
30
0
10
-36.723628453910351
20
-9.2759728431701749
30
0
0
SPLINE
5
175
100
AcDbEntity
8
0
100
AcDbSpline
70
0
71
3
72
9
73
5
74
0
42
0.000000001
43
0.0000000001
44
0.0000000001
40
0
40
0
40
0
40
0
40
0.072283547829873673
40
0.15345440937985783
40
0.15345440937985783
40
0.15345440937985783
40
0.15345440937985783
10
-36.723628453910351
20
-9.2759728431701749
30
0
10
-36.513415630864131
20
-9.1507455656659111
30
0
10
-36.067144168365495
20
-8.8848942276423202
30
0
10
-35.54712689171896
20
-8.8596081510655331
30
0
10
-35.272059850394726
20
-8.8462328910827726
30
0
0
SPLINE
5
176
100
AcDbEntity
8
0
100
AcDbSpline
70
0
71
3
72
9
73
5
74
0
42
0.000000001
43
0.0000000001
44
0.0000000001
40
0
40
0
40
0
40
0
40
0.10124524815315329
40
0.19361624488389129
40
0.19361624488389129
40
0.19361624488389129
40
0.19361624488389129
10
-35.272059850394726
20
-8.8462328910827726
30
0
10
-34.92586832513345
20
-8.8690917480594997
30
0
10
-34.263829322272571
20
-8.9128058593971122
30
0
10
-33.750327656779398
20
-9.3300041024578633
30
0
10
-33.505344800651073
20
-9.5290422439575284
30
0
0
SPLINE
5
177
100
AcDbEntity
8
0
100
AcDbSpline
70
0
71
3
72
9
73
5
74
0
42
0.000000001
43
0.0000000001
44
0.0000000001
40
0
40
0
40
0
40
0
40
0.095791955191171632
40
0.20692618178031935
40
0.20692618178031935
40
0.20692618178031935
40
0.20692618178031935
10
-33.505344800651073
20
-9.5290422439575284
30
0
10
-33.316216526989457
20
-9.7945238322074637
30
0
10
-32.907668737591052
20
-10.368007182452285
30
0
10
-32.87402724625808
20
-11.074102841143102
30
0
10
-32.855959348380566
20
-11.453326940536508
30
0
0
SPLINE
5
178
100
AcDbEntity
8
0
100
AcDbSpline
70
0
71
3
72
9
73
5
74
0
42
0.000000001
43
0.0000000001
44
0.0000000001
40
0
40
0
40
0
40
0
40
0.11483032644476324
40
0.2131471754077725
40
0.2131471754077725
40
0.2131471754077725
40
0.2131471754077725
10
-32.855959348380566
20
-11.453326940536508
30
0
10
-32.873834117288645
20
-11.845041731937709
30
0
10
-32.907013126891613
20
-12.572139737644189
30
0
10
-33.323011364387554
20
-13.165834599015771
30
0
10
-33.514895848929882
20
-13.439683914184579
30
0
0
SPLINE
5
179
100
AcDbEntity
8
0
100
AcDbSpline
70
0
71
3
72
9
73
5
74
0
42
0.000000001
43
0.0000000001
44
0.0000000001
40
0
40
0
40
0
40
0
40
0.092395521102964076
40
0.18927916341364742
40
0.18927916341364742
40
0.18927916341364742
40
0.18927916341364742
10
-33.514895848929882
20
-13.439683914184579
30
0
10
-33.754832567633585
20
-13.645767909013205
30
0
10
-34.246360953926676
20
-14.067946448280658
30
0
10
-34.893213919262067
20
-14.119817833106092
30
0
10
-35.224309377372265
20
-14.146368503570566
30
0
0
SPLINE
5
180
100
AcDbEntity
8
0
100
AcDbSpline
70
0
71
3
72
9
73
5
74
0
42
0.000000001
43
0.0000000001
44
0.0000000001
40
0
40
0
40
0
40
0
40
0.094001692017453856
40
0.18421649899969322
40
0.18421649899969322
40
0.18421649899969322
40
0.18421649899969322
10
-35.224309377372265
20
-14.146368503570566
30
0
10
-35.545494618489357
20
-14.119966888577382
30
0
10
-36.174926061467815
20
-14.068227255198451
30
0
10
-36.652227558405748
20
-13.655923011200082
30
0
10
-36.885972432792187
20
-13.454008698463449
30
0
0
SPLINE
5
181
100
AcDbEntity
8
0
100
AcDbSpline
70
0
71
3
72
9
73
5
74
0
42
0.000000001
43
0.0000000001
44
0.0000000001
40
0
40
0
40
0
40
0
40
0.096332204478243422
40
0.2089846457308453
40
0.2089846457308453
40
0.2089846457308453
40
0.2089846457308453
10
-36.885972432792187
20
-13.454008698463449
30
0
10
-37.073681056263354
20
-13.185502750701236
30
0
10
-37.480899186370699
20
-12.603001595727834
30
0
10
-37.513182524676807
20
-11.890124470701572
30
0
10
-37.530584745109081
20
-11.505850553512582
30
0
0
SPLINE
5
182
100
AcDbEntity
8
0
100
AcDbSpline
70
0
71
3
72
9
73
5
74
0
42
0.000000001
43
0.0000000001
44
0.0000000001
40
0
40
0
40
0
40
0
40
0.0095506001919427892
40
0.022925074671432254
40
0.022925074671432254
40
0.022925074671432254
40
0.022925074671432254
10
-37.530584745109081
20
-11.505850553512582
30
0
10
-37.530282164588883
20
-11.474015838685377
30
0
10
-37.529555856201952
20
-11.39760040929978
30
0
10
-37.527191164715781
20
-11.321217146017212
30
0
10
-37.525811605155468
20
-11.276655197143564
30
0
0
LINE
5
183
100
AcDbEntity
8
0
100
AcDbLine
10
-37.525811605155461
20
-11.276655197143565
30
0
11
-33.744092397391796
21
-11.276655197143564
31
0
0
SPLINE
5
184
100
AcDbEntity
8
0
100
AcDbSpline
70
0
71
3
72
9
73
5
74
0
42
0.000000001
43
0.0000000001
44
0.0000000001
40
0
40
0
40
0
40
0
40
0.075127433648443959
40
0.13861325817164344
40
0.13861325817164344
40
0.13861325817164344
40
0.13861325817164344
10
-33.744092397391796
20
-11.276655197143564
30
0
10
-33.76892976927806
20
-11.022040574211033
30
0
10
-33.814755759523976
20
-10.552265942643363
30
0
10
-34.090508338548204
20
-10.171415110478719
30
0
10
-34.216804914176464
20
-9.9969828128814786
30
0
0
SPLINE
5
185
100
AcDbEntity
8
0
100
AcDbSpline
70
0
71
3
72
9
73
5
74
0
42
0.000000001
43
0.0000000001
44
0.0000000001
40
0
40
0
40
0
40
0
40
0.058217136158671572
40
0.11751883254760263
40
0.11751883254760263
40
0.11751883254760263
40
0.11751883254760263
10
-34.216804914176464
20
-9.9969828128814786
30
0
10
-34.368177247225589
20
-9.8674667324654148
30
0
10
-34.673741914842608
20
-9.6060217427092542
30
0
10
-35.074569576311447
20
-9.5707274760347953
30
0
10
-35.276832990348339
20
-9.5529174804687589
30
0
0
SPLINE
5
186
100
AcDbEntity
8
0
100
AcDbSpline
70
0
71
3
72
9
73
5
74
0
42
0.000000001
43
0.0000000001
44
0.0000000001
40
0
40
0
40
0
40
0
40
0.044246987500484621
40
0.085567361097028144
40
0.085567361097028144
40
0.085567361097028144
40
0.085567361097028144
10
-35.276832990348339
20
-9.5529174804687589
30
0
10
-35.426579436099047
20
-9.5617724963582376
30
0
10
-35.716167697817568
20
-9.5788968337411298
30
0
10
-35.964075100987849
20
-9.7288157139601807
30
0
10
-36.08378928154707
20
-9.8012113571167081
30
0
0
SPLINE
5
187
100
AcDbEntity
8
0
100
AcDbSpline
70
0
71
3
72
9
73
5
74
0
42
0.000000001
43
0.0000000001
44
0.0000000001
40
0
40
0
40
0
40
0
40
0.044006435513723872
40
0.09637880835027679
40
0.09637880835027679
40
0.09637880835027679
40
0.09637880835027679
10
-36.08378928154707
20
-9.8012113571167081
30
0
10
-36.191733952418787
20
-9.9030997418121736
30
0
10
-36.428144346147072
20
-10.126246219981738
30
0
10
-36.548436437149931
20
-10.429212417102079
30
0
10
-36.613803319633007
20
-10.593844652175912
30
0
0
LINE
5
188
100
AcDbEntity
8
0
100
AcDbLine
10
-24.986930303275585
20
-8.9608299732208341
30
0
11
-24.986930303275585
21
-14.031770825386056
31
0
0
LINE
5
189
100
AcDbEntity
8
0
100
AcDbLine
10
-24.986930303275585
20
-14.031770825386056
30
0
11
-25.760465078055859
21
-14.031770825386056
31
0
0
LINE
5
190
100
AcDbEntity
8
0
100
AcDbLine
10
-25.760465078055859
20
-14.031770825386056
30
0
11
-25.760465078055859
21
-13.263012170791635
31
0
0
SPLINE
5
191
100
AcDbEntity
8
0
100
AcDbSpline
70
0
71
3
72
9
73
5
74
0
42
0.000000001
43
0.0000000001
44
0.0000000001
40
0
40
0
40
0
40
0
40
0.053019361616364745
40
0.090075653435808339
40
0.090075653435808339
40
0.090075653435808339
40
0.090075653435808339
10
-25.760465078055859
20
-13.263012170791635
30
0
10
-25.846513479743454
20
-13.419113107589506
30
0
10
-25.992702829686969
20
-13.684316109952146
30
0
10
-26.213832571221545
20
-13.889897853800047
30
0
10
-26.304803304374218
20
-13.974472284317025
30
0
0
SPLINE
5
192
100
AcDbEntity
8
0
100
AcDbSpline
70
0
71
3
72
9
73
5
74
0
42
0.000000001
43
0.0000000001
44
0.0000000001
40
0
40
0
40
0
40
0
40
0.029469821937250576
40
0.058676414959104438
40
0.058676414959104438
40
0.058676414959104438
40
0.058676414959104438
10
-26.304803304374218
20
-13.974472284317025
30
0
10
-26.390920117765955
20
-14.024608242553871
30
0
10
-26.562384536122057
20
-14.124432337050997
30
0
10
-26.760219067249107
20
-14.139078349276627
30
0
10
-26.858692578971386
20
-14.146368503570566
30
0
0
SPLINE
5
193
100
AcDbEntity
8
0
100
AcDbSpline
70
0
71
3
72
9
73
5
74
0
42
0.000000001
43
0.0000000001
44
0.0000000001
40
0
40
0
40
0
40
0
40
0.044353612985308363
40
0.093485647080378181
40
0.093485647080378181
40
0.093485647080378181
40
0.093485647080378181
10
-26.858692578971386
20
-14.146368503570566
30
0
10
-27.007583817525376
20
-14.132641904445178
30
0
10
-27.321407040572154
20
-14.103709875799062
30
0
10
-27.597136289207469
20
-13.950136186336346
30
0
10
-27.742047719657421
20
-13.869424462318429
30
0
0
LINE
5
194
100
AcDbEntity
8
0
100
AcDbLine
10
-27.742047719657421
20
-13.869424462318429
30
0
11
-27.446003369987011
21
-13.072016239166269
31
0
0
SPLINE
5
195
100
AcDbEntity
8
0
100
AcDbSpline
70
0
71
3
72
9
73
5
74
0
42
0.000000001
43
0.0000000001
44
0.0000000001
40
0
40
0
40
0
40
0
40
0.034470847089151414
40
0.066327036814467333
40
0.066327036814467333
40
0.066327036814467333
40
0.066327036814467333
10
-27.446003369987011
20
-13.072016239166269
30
0
10
-27.343194600074714
20
-13.126305767161099
30
0
10
-27.145375235520444
20
-13.230766893765864
30
0
10
-26.922675584691753
20
-13.249324711054843
30
0
10
-26.815715245902538
20
-13.258237838745126
30
0
0
SPLINE
5
196
100
AcDbEntity
8
0
100
AcDbSpline
70
0
71
3
72
9
73
5
74
0
42
0.000000001
43
0.0000000001
44
0.0000000001
40
0
40
0
40
0
40
0
40
0.027082715938253295
40
0.054215563084345109
40
0.054215563084345109
40
0.054215563084345109
40
0.054215563084345109
10
-26.815715245902538
20
-13.258237838745126
30
0
10
-26.724160975785107
20
-13.251049190849171
30
0
10
-26.54088296487549
20
-13.236658588577864
30
0
10
-26.386726132295124
20
-13.136478153618416
30
0
10
-26.309576444327831
20
-13.086341619491586
30
0
0
SPLINE
5
197
100
AcDbEntity
8
0
100
AcDbSpline
70
0
71
3
72
9
73
5
74
0
42
0.000000001
43
0.0000000001
44
0.0000000001
40
0
40
0
40
0
40
0
40
0.02777688734560178
40
0.057410432107775355
40
0.057410432107775355
40
0.057410432107775355
40
0.057410432107775355
10
-26.309576444327831
20
-13.086341619491586
30
0
10
-26.23967018553957
20
-13.023532362395983
30
0
10
-26.095185007119959
20
-12.893715563797848
30
0
10
-26.025583216737964
20
-12.712130051066692
30
0
10
-25.989656858146191
20
-12.618401050567636
30
0
0
SPLINE
5
198
100
AcDbEntity
8
0
100
AcDbSpline
70
0
71
3
72
9
73
5
74
0
42
0.000000001
43
0.0000000001
44
0.0000000001
40
0
40
0
40
0
40
0
40
0.049175546630672147
40
0.10158326425452566
40
0.10158326425452566
40
0.10158326425452566
40
0.10158326425452566
10
-25.989656858146191
20
-12.618401050567636
30
0
10
-25.947890048767466
20
-12.459307671779776
30
0
10
-25.861611214572626
20
-12.130664151862662
30
0
10
-25.851583562923174
20
-11.790939241443469
30
0
10
-25.84641020745039
20
-11.615672111511239
30
0
0
LINE
5
199
100
AcDbEntity
8
0
100
AcDbLine
10
-25.84641020745039
20
-11.615672111511238
30
0
11
-25.84641020745039
21
-8.9608299732208341
31
0
0
LINE
5
200
100
AcDbEntity
8
0
100
AcDbLine
10
-25.84641020745039
20
-8.9608299732208341
30
0
11
-24.986930303275585
21
-8.9608299732208341
31
0
0
LINE
5
201
100
AcDbEntity
8
0
100
AcDbLine
10
10.757951326668262
20
-8.9608299732208323
30
0
11
10.757951326668262
21
-15.960829854011543
31
0
0
LINE
5
202
100
AcDbEntity
8
0
100
AcDbLine
10
10.757951326668262
20
-15.960829854011543
30
0
11
8.3466287329792976
21
-15.960829854011539
31
0
0
SPLINE
5
203
100
AcDbEntity
8
0
100
AcDbSpline
70
0
71
3
72
9
73
5
74
0
42
0.000000001
43
0.0000000001
44
0.0000000001
40
0
40
0
40
0
40
0
40
0.072025067035321425
40
0.12520306921256033
40
0.12520306921256033
40
0.12520306921256033
40
0.12520306921256033
10
8.3466287329792976
20
-15.960829854011543
30
0
10
8.106038425183888
20
-15.959836400268765
30
0
10
7.6878139625255049
20
-15.958109453487094
30
0
10
7.2755019804708265
20
-15.889638782885651
30
0
10
7.1003790572285652
20
-15.860556960105903
30
0
0
SPLINE
5
204
100
AcDbEntity
8
0
100
AcDbSpline
70
0
71
3
72
9
73
5
74
0
42
0.000000001
43
0.0000000001
44
0.0000000001
40
0
40
0
40
0
40
0
40
0.059044977254145516
40
0.11509914826013304
40
0.11509914826013304
40
0.11509914826013304
40
0.11509914826013304
10
7.1003790572285652
20
-15.860556960105903
30
0
10
6.909144288351392
20
-15.806691033859742
30
0
10
6.5363613686333633
20
-15.701687653055817
30
0
10
6.2252758993274071
20
-15.471362575788969
30
0
10
6.0737748816609383
20
-15.359192490577705
30
0
0
SPLINE
5
205
100
AcDbEntity
8
0
100
AcDbSpline
70
0
71
3
72
9
73
5
74
0
42
0.000000001
43
0.0000000001
44
0.0000000001
40
0
40
0
40
0
40
0
40
0.072003846661434542
40
0.14680163063619964
40
0.14680163063619964
40
0.14680163063619964
40
0.14680163063619964
10
6.0737748816609383
20
-15.359192490577705
30
0
10
5.9000611341922582
20
-15.190031323379111
30
0
10
5.5458930921397975
20
-14.84514509387192
30
0
10
5.3483634149384063
20
-14.391720424892576
30
0
10
5.2477188780903816
20
-14.160693287849433
30
0
0
SPLINE
5
206
100
AcDbEntity
8
0
100
AcDbSpline
70
0
71
3
72
9
73
5
74
0
42
0.000000001
43
0.0000000001
44
0.0000000001
40
0
40
0
40
0
40
0
40
0.080554687905311589
40
0.16916124178000855
40
0.16916124178000855
40
0.16916124178000855
40
0.16916124178000855
10
5.2477188780903816
20
-14.160693287849433
30
0
10
5.166993560231492
20
-13.903223703361975
30
0
10
4.9974740031804332
20
-13.362549091306168
30
0
10
4.9799521674933223
20
-12.795860286163032
30
0
10
4.9707742407917976
20
-12.499029040336616
30
0
0
SPLINE
5
207
100
AcDbEntity
8
0
100
AcDbSpline
70
0
71
3
72
9
73
5
74
0
42
0.000000001
43
0.0000000001
44
0.0000000001
40
0
40
0
40
0
40
0
40
0.075348636762384735
40
0.14293966312310671
40
0.14293966312310671
40
0.14293966312310671
40
0.14293966312310671
10
4.9707742407917976
20
-12.499029040336616
30
0
10
4.976704354085939
20
-12.247044626655031
30
0
10
4.9879540386584731
20
-11.769019160613682
30
0
10
5.1027248506940159
20
-11.305052441859868
30
0
10
5.1569958403706551
20
-11.085659265518196
30
0
0
SPLINE
5
208
100
AcDbEntity
8
0
100
AcDbSpline
70
0
71
3
72
9
73
5
74
0
42
0.000000001
43
0.0000000001
44
0.0000000001
40
0
40
0
40
0
40
0
40
0.060217120926687254
40
0.11316528101431694
40
0.11316528101431694
40
0.11316528101431694
40
0.11316528101431694
10
5.1569958403706551
20
-11.085659265518196
30
0
10
5.2199390082665342
20
-10.894111904101019
30
0
10
5.3382273152007143
20
-10.53413934731412
30
0
10
5.54005461550235
20
-10.213740921381767
30
0
10
5.6344862654805183
20
-10.063831806182868
30
0
0
SPLINE
5
209
100
AcDbEntity
8
0
100
AcDbSpline
70
0
71
3
72
9
73
5
74
0
42
0.000000001
43
0.0000000001
44
0.0000000001
40
0
40
0
40
0
40
0
40
0.047169010948920349
40
0.090499952733563926
40
0.090499952733563926
40
0.090499952733563926
40
0.090499952733563926
10
5.6344862654805183
20
-10.063831806182868
30
0
10
5.7312899963621255
20
-9.9389244283238387
30
0
10
5.9170206888862076
20
-9.6992731919526403
30
0
10
6.158637897228485
20
-9.5163522220970265
30
0
10
6.2743230536580086
20
-9.4287705421447825
30
0
0
SPLINE
5
210
100
AcDbEntity
8
0
100
AcDbSpline
70
0
71
3
72
9
73
5
74
0
42
0.000000001
43
0.0000000001
44
0.0000000001
40
0
40
0
40
0
40
0
40
0.043093593931395453
40
0.090885874147305173
40
0.090885874147305173
40
0.090885874147305173
40
0.090885874147305173
10
6.2743230536580086
20
-9.4287705421447825
30
0
10
6.3989402556826258
20
-9.3560435624753797
30
0
10
6.6617622277332655
20
-9.2026598569559521
30
0
10
6.955479212382194
20
-9.1224047024325667
30
0
10
7.1099301055073738
20
-9.0802025794982981
30
0
0
SPLINE
5
211
100
AcDbEntity
8
0
100
AcDbSpline
70
0
71
3
72
9
73
5
74
0
42
0.000000001
43
0.0000000001
44
0.0000000001
40
0
40
0
40
0
40
0
40
0.053163683957956016
40
0.11304372683241351
40
0.11304372683241351
40
0.11304372683241351
40
0.11304372683241351
10
7.1099301055073738
20
-9.0802025794982981
30
0
10
7.2840680938778979
20
-9.0454185720105365
30
0
10
7.6543435474012433
20
-8.9714561685831775
30
0
10
8.0319890354199242
20
-8.9645096121447825
30
0
10
8.2320304587483406
20
-8.9608299732208323
30
0
0
LINE
5
212
100
AcDbEntity
8
0
100
AcDbLine
10
8.2320304587483424
20
-8.9608299732208323
30
0
11
10.757951326668262
21
-8.9608299732208323
31
0
0
LINE
5
213
100
AcDbEntity
8
0
100
AcDbLine
10
19.567637033760548
20
-8.9608299732208323
30
0
11
19.567637033760548
21
-14.031770825386054
31
0
0
LINE
5
214
100
AcDbEntity
8
0
100
AcDbLine
10
19.567637033760548
20
-14.031770825386054
30
0
11
18.794102258980274
21
-14.031770825386051
31
0
0
LINE
5
215
100
AcDbEntity
8
0
100
AcDbLine
10
18.794102258980274
20
-14.031770825386051
30
0
11
18.794102258980274
21
-13.26301217079163
31
0
0
SPLINE
5
216
100
AcDbEntity
8
0
100
AcDbSpline
70
0
71
3
72
9
73
5
74
0
42
0.000000001
43
0.0000000001
44
0.0000000001
40
0
40
0
40
0
40
0
40
0.053019106100325425
40
0.090075732781892959
40
0.090075732781892959
40
0.090075732781892959
40
0.090075732781892959
10
18.794102258980274
20
-13.26301217079163
30
0
10
18.708056028387361
20
-13.419113581407224
30
0
10
18.561869533671469
20
-13.684318900464852
30
0
10
18.340736756561519
20
-13.889898178470322
30
0
10
18.249764032661915
20
-13.97447228431702
30
0
0
SPLINE
5
217
100
AcDbEntity
8
0
100
AcDbSpline
70
0
71
3
72
9
73
5
74
0
42
0.000000001
43
0.0000000001
44
0.0000000001
40
0
40
0
40
0
40
0
40
0.02947025072551393
40
0.058676136276812216
40
0.058676136276812216
40
0.058676136276812216
40
0.058676136276812216
10
18.249764032661915
20
-13.97447228431702
30
0
10
18.163645615397659
20
-14.024608240038003
30
0
10
17.992181312823341
20
-14.124430402993188
30
0
10
17.794348086752105
20
-14.139077801316024
30
0
10
17.695877142250538
20
-14.14636850357056
30
0
0
SPLINE
5
218
100
AcDbEntity
8
0
100
AcDbSpline
70
0
71
3
72
9
73
5
74
0
42
0.000000001
43
0.0000000001
44
0.0000000001
40
0
40
0
40
0
40
0
40
0.044353377489471456
40
0.093485843715886974
40
0.093485843715886974
40
0.093485843715886974
40
0.093485843715886974
10
17.695877142250538
20
-14.14636850357056
30
0
10
17.546986800214913
20
-14.132641625991997
30
0
10
17.233163140457517
20
-14.103708795965208
30
0
10
16.957432663251932
20
-13.950136168374513
30
0
10
16.812519617378712
20
-13.869424462318424
30
0
0
LINE
5
219
100
AcDbEntity
8
0
100
AcDbLine
10
16.812519617378712
20
-13.869424462318424
30
0
11
17.108563967049122
21
-13.072016239166263
31
0
0
SPLINE
5
220
100
AcDbEntity
8
0
100
AcDbSpline
70
0
71
3
72
9
73
5
74
0
42
0.000000001
43
0.0000000001
44
0.0000000001
40
0
40
0
40
0
40
0
40
0.034470629117364801
40
0.066327054701513066
40
0.066327054701513066
40
0.066327054701513066
40
0.066327054701513066
10
17.108563967049122
20
-13.072016239166263
30
0
10
17.211371932491364
20
-13.126305776068033
30
0
10
17.409191053355727
20
-13.23076760853251
30
0
10
17.631890896771679
20
-13.249324900010402
30
0
10
17.738852091133595
20
-13.258237838745121
30
0
0
SPLINE
5
221
100
AcDbEntity
8
0
100
AcDbSpline
70
0
71
3
72
9
73
5
74
0
42
0.000000001
43
0.0000000001
44
0.0000000001
40
0
40
0
40
0
40
0
40
0.027082480540293288
40
0.05421553747192575
40
0.05421553747192575
40
0.05421553747192575
40
0.05421553747192575
10
17.738852091133595
20
-13.258237838745121
30
0
10
17.830405475830197
20
-13.251048956240044
30
0
10
18.013683220692442
20
-13.236657766029257
30
0
10
18.167840398842419
20
-13.136478153400422
30
0
10
18.244990892708302
20
-13.086341619491581
30
0
0
SPLINE
5
222
100
AcDbEntity
8
0
100
AcDbSpline
70
0
71
3
72
9
73
5
74
0
42
0.000000001
43
0.0000000001
44
0.0000000001
40
0
40
0
40
0
40
0
40
0.02777688734560178
40
0.057410329342270756
40
0.057410329342270756
40
0.057410329342270756
40
0.057410329342270756
10
18.244990892708302
20
-13.086341619491581
30
0
10
18.314897308686767
20
-13.023532439717373
30
0
10
18.45938255336257
20
-12.893716033303997
30
0
10
18.528982663620326
20
-12.712130107181729
30
0
10
18.564908094704151
20
-12.618401050567631
30
0
0
SPLINE
5
223
100
AcDbEntity
8
0
100
AcDbSpline
70
0
71
3
72
9
73
5
74
0
42
0.000000001
43
0.0000000001
44
0.0000000001
40
0
40
0
40
0
40
0
40
0.049175598717363489
40
0.10158330004831992
40
0.10158330004831992
40
0.10158330004831992
40
0.10158330004831992
10
18.564908094704151
20
-12.618401050567631
30
0
10
18.60667607216471
20
-12.459307726623782
30
0
10
18.692957258310983
20
-12.130664552297441
30
0
10
18.702982590162271
20
-11.790939301039728
30
0
10
18.708154745399952
20
-11.615672111511238
30
0
0
LINE
5
224
100
AcDbEntity
8
0
100
AcDbLine
10
18.708154745399952
20
-11.615672111511238
30
0
11
18.708154745399952
21
-8.9608299732208323
31
0
0
LINE
5
225
100
AcDbEntity
8
0
100
AcDbLine
10
18.708154745399952
20
-8.9608299732208323
30
0
11
19.567637033760548
21
-8.9608299732208323
31
0
0
LINE
5
226
100
AcDbEntity
8
0
100
AcDbLine
10
33.142669983208179
20
-8.9608299732208287
30
0
11
33.142669983208179
21
-14.031770825386051
31
0
0
LINE
5
227
100
AcDbEntity
8
0
100
AcDbLine
10
33.142669983208179
20
-14.031770825386051
30
0
11
32.373911328613758
21
-14.031770825386051
31
0
0
LINE
5
228
100
AcDbEntity
8
0
100
AcDbLine
10
32.373911328613758
20
-14.031770825386051
30
0
11
32.373911328613758
21
-13.320311307907108
31
0
0
SPLINE
5
229
100
AcDbEntity
8
0
100
AcDbSpline
70
0
71
3
72
9
73
5
74
0
42
0.000000001
43
0.0000000001
44
0.0000000001
40
0
40
0
40
0
40
0
40
0.043575037931000093
40
0.087817281648342294
40
0.087817281648342294
40
0.087817281648342294
40
0.087817281648342294
10
32.373911328613758
20
-13.320311307907108
30
0
10
32.287269406222883
20
-13.438570534792779
30
0
10
32.112658930537201
20
-13.67689973260963
30
0
10
31.864082552772022
20
-13.836677363669555
30
0
10
31.738850064575672
20
-13.917173147201542
30
0
0
SPLINE
5
230
100
AcDbEntity
8
0
100
AcDbSpline
70
0
71
3
72
9
73
5
74
0
42
0.000000001
43
0.0000000001
44
0.0000000001
40
0
40
0
40
0
40
0
40
0.045730843190398697
40
0.093940926899315935
40
0.093940926899315935
40
0.093940926899315935
40
0.093940926899315935
10
31.738850064575672
20
-13.917173147201542
30
0
10
31.600050797948018
20
-13.984008978246818
30
0
10
31.314927435895406
20
-14.121304061399744
30
0
10
30.998687568798925
20
-14.137867974098404
30
0
10
30.836394615471363
20
-14.14636850357056
30
0
0
SPLINE
5
231
100
AcDbEntity
8
0
100
AcDbSpline
70
0
71
3
72
9
73
5
74
0
42
0.000000001
43
0.0000000001
44
0.0000000001
40
0
40
0
40
0
40
0
40
0.051543725940507733
40
0.096090337026716793
40
0.096090337026716793
40
0.096090337026716793
40
0.096090337026716793
10
30.836394615471363
20
-14.14636850357056
30
0
10
30.662263906117676
20
-14.139793817384941
30
0
10
30.33764091382935
20
-14.127536965558779
30
0
10
30.048760981561973
20
-13.980543606722513
30
0
10
29.91483885794878
20
-13.912398815155033
30
0
0
SPLINE
5
232
100
AcDbEntity
8
0
100
AcDbSpline
70
0
71
3
72
9
73
5
74
0
42
0.000000001
43
0.0000000001
44
0.0000000001
40
0
40
0
40
0
40
0
40
0.041747246552157911
40
0.08420928441500955
40
0.08420928441500955
40
0.08420928441500955
40
0.08420928441500955
10
29.91483885794878
20
-13.912398815155033
30
0
10
29.802623415313008
20
-13.826063837746968
30
0
10
29.576271190792866
20
-13.651915665880443
30
0
10
29.461697595700294
20
-13.390204273617545
30
0
10
29.403924532234669
20
-13.258237838745121
30
0
0
SPLINE
5
233
100
AcDbEntity
8
0
100
AcDbSpline
70
0
71
3
72
9
73
5
74
0
42
0.000000001
43
0.0000000001
44
0.0000000001
40
0
40
0
40
0
40
0
40
0.096075377601935991
40
0.18623281009635703
40
0.18623281009635703
40
0.18623281009635703
40
0.18623281009635703
10
29.403924532234669
20
-13.258237838745121
30
0
10
29.193670841009627
20
-13.517198761324778
30
0
10
28.786114433454259
20
-14.019169417292122
30
0
10
28.147108786010019
20
-14.104876651589811
30
0
10
27.837758846580982
20
-14.14636850357056
30
0
0
SPLINE
5
234
100
AcDbEntity
8
0
100
AcDbSpline
70
0
71
3
72
9
73
5
74
0
42
0.000000001
43
0.0000000001
44
0.0000000001
40
0
40
0
40
0
40
0
40
0.067550980567177898
40
0.12606366016742593
40
0.12606366016742593
40
0.12606366016742593
40
0.12606366016742593
10
27.837758846580982
20
-14.14636850357056
30
0
10
27.606564516115224
20
-14.134463250531095
30
0
10
27.175109587352395
20
-14.112245663742966
30
0
10
26.835218807000139
20
-13.848565054883114
30
0
10
26.677457876503468
20
-13.726177215576175
30
0
0
SPLINE
5
235
100
AcDbEntity
8
0
100
AcDbSpline
70
0
71
3
72
9
73
5
74
0
42
0.000000001
43
0.0000000001
44
0.0000000001
40
0
40
0
40
0
40
0
40
0.061017095738437117
40
0.13725801541364208
40
0.13725801541364208
40
0.13725801541364208
40
0.13725801541364208
10
26.677457876503468
20
-13.726177215576175
30
0
10
26.559455202199182
20
-13.555529246317924
30
0
10
26.29400807312015
20
-13.171656475723221
30
0
10
26.279597573311413
20
-12.702388603799303
30
0
10
26.271593160927296
20
-12.441730499267582
30
0
0
LINE
5
236
100
AcDbEntity
8
0
100
AcDbLine
10
26.271593160927296
20
-12.441730499267582
30
0
11
26.271593160927296
21
-8.9608299732208287
31
0
0
LINE
5
237
100
AcDbEntity
8
0
100
AcDbLine
10
26.271593160927296
20
-8.9608299732208287
30
0
11
27.126299925148487
21
-8.9608299732208287
31
0
0
LINE
5
238
100
AcDbEntity
8
0
100
AcDbLine
10
27.126299925148487
20
-8.9608299732208287
30
0
11
27.126299925148487
21
-12.155236005783085
31
0
0
SPLINE
5
239
100
AcDbEntity
8
0
100
AcDbSpline
70
0
71
3
72
9
73
5
74
0
42
0.000000001
43
0.0000000001
44
0.0000000001
40
0
40
0
40
0
40
0
40
0.044339295294238849
40
0.074754005845133725
40
0.074754005845133725
40
0.074754005845133725
40
0.074754005845133725
10
27.126299925148487
20
-12.155236005783085
30
0
10
27.126296258863825
20
-12.303804283000677
30
0
10
27.126290077677066
20
-12.554283542759421
30
0
10
27.187388637122226
20
-12.796710782175932
30
0
10
27.212247438728809
20
-12.895345687866214
30
0
0
SPLINE
5
240
100
AcDbEntity
8
0
100
AcDbSpline
70
0
71
3
72
9
73
5
74
0
42
0.000000001
43
0.0000000001
44
0.0000000001
40
0
40
0
40
0
40
0
40
0.023675978438165646
40
0.048212757084543596
40
0.048212757084543596
40
0.048212757084543596
40
0.048212757084543596
10
27.212247438728809
20
-12.895345687866214
30
0
10
27.245708781620728
20
-12.968358747211347
30
0
10
27.313848039340705
20
-13.117039440742126
30
0
10
27.445873561986041
20
-13.2137788591334
30
0
10
27.513064928352833
20
-13.26301217079163
30
0
0
SPLINE
5
241
100
AcDbEntity
8
0
100
AcDbSpline
70
0
71
3
72
9
73
5
74
0
42
0.000000001
43
0.0000000001
44
0.0000000001
40
0
40
0
40
0
40
0
40
0.026035536785632162
40
0.053945528581048979
40
0.053945528581048979
40
0.053945528581048979
40
0.053945528581048979
10
27.513064928352833
20
-13.26301217079163
30
0
10
27.591070116443028
20
-13.30338632033444
30
0
10
27.752696555653287
20
-13.387041397471124
30
0
10
27.934628167183931
20
-13.396559878656902
30
0
10
28.028754778206348
20
-13.401484489440922
30
0
0
SPLINE
5
242
100
AcDbEntity
8
0
100
AcDbSpline
70
0
71
3
72
9
73
5
74
0
42
0.000000001
43
0.0000000001
44
0.0000000001
40
0
40
0
40
0
40
0
40
0.049754820808714302
40
0.097828127351275523
40
0.097828127351275523
40
0.097828127351275523
40
0.097828127351275523
10
28.028754778206348
20
-13.401484489440922
30
0
10
28.198405129030544
20
-13.387615591629542
30
0
10
28.531972326256007
20
-13.360346509372572
30
0
10
28.790059778874991
20
-13.147808885808436
30
0
10
28.916885443031788
20
-13.043366670608524
30
0
0
SPLINE
5
243
100
AcDbEntity
8
0
100
AcDbSpline
70
0
71
3
72
9
73
5
74
0
42
0.000000001
43
0.0000000001
44
0.0000000001
40
0
40
0
40
0
40
0
40
0.053154959664907644
40
0.1212946939755213
40
0.1212946939755213
40
0.1212946939755213
40
0.1212946939755213
10
28.916885443031788
20
-13.043366670608524
30
0
10
29.019543766445
20
-12.894615472887319
30
0
10
29.253800550777886
20
-12.555179019171074
30
0
10
29.26431886379854
20
-12.140113140126852
30
0
10
29.270227737724781
20
-11.906941533088688
30
0
0
LINE
5
244
100
AcDbEntity
8
0
100
AcDbLine
10
29.270227737724781
20
-11.906941533088691
30
0
11
29.270227737724781
21
-8.9608299732208287
31
0
0
LINE
5
245
100
AcDbEntity
8
0
100
AcDbLine
10
29.270227737724781
20
-8.9608299732208287
30
0
11
30.129710026085377
21
-8.9608299732208287
31
0
0
LINE
5
246
100
AcDbEntity
8
0
100
AcDbLine
10
30.129710026085377
20
-8.9608299732208287
30
0
11
30.129710026085377
21
-12.255508899688724
31
0
0
SPLINE
5
247
100
AcDbEntity
8
0
100
AcDbSpline
70
0
71
3
72
9
73
5
74
0
42
0.000000001
43
0.0000000001
44
0.0000000001
40
0
40
0
40
0
40
0
40
0.050410830825609779
40
0.089535824696084121
40
0.089535824696084121
40
0.089535824696084121
40
0.089535824696084121
10
30.129710026085377
20
-12.255508899688724
30
0
10
30.133095933759087
20
-12.426378835917596
30
0
10
30.139109721489731
20
-12.729864821081073
30
0
10
30.278775219273943
20
-12.997876123164932
30
0
10
30.339805670082569
20
-13.114990592002872
30
0
0
SPLINE
5
248
100
AcDbEntity
8
0
100
AcDbSpline
70
0
71
3
72
9
73
5
74
0
42
0.000000001
43
0.0000000001
44
0.0000000001
40
0
40
0
40
0
40
0
40
0.035052441389354441
40
0.076736466714318524
40
0.076736466714318524
40
0.076736466714318524
40
0.076736466714318524
10
30.339805670082569
20
-13.114990592002872
30
0
10
30.426915440612341
20
-13.198387260482969
30
0
10
30.617615310344668
20
-13.380958443009829
30
0
10
30.88314962179598
20
-13.394259318995157
30
0
10
31.027390547096729
20
-13.401484489440922
30
0
0
SPLINE
5
249
100
AcDbEntity
8
0
100
AcDbSpline
70
0
71
3
72
9
73
5
74
0
42
0.000000001
43
0.0000000001
44
0.0000000001
40
0
40
0
40
0
40
0
40
0.035300555827975824
40
0.070680139115217838
40
0.070680139115217838
40
0.070680139115217838
40
0.070680139115217838
10
31.027390547096729
20
-13.401484489440922
30
0
10
31.146223816032826
20
-13.393490644259208
30
0
10
31.38415638629743
20
-13.377485058050805
30
0
10
31.59507434356637
20
-13.266195535496781
30
0
10
31.700651235878468
20
-13.210488557815555
30
0
0
SPLINE
5
250
100
AcDbEntity
8
0
100
AcDbSpline
70
0
71
3
72
9
73
5
74
0
42
0.000000001
43
0.0000000001
44
0.0000000001
40
0
40
0
40
0
40
0
40
0.035341086857947152
40
0.072373852248434067
40
0.072373852248434067
40
0.072373852248434067
40
0.072373852248434067
10
31.700651235878468
20
-13.210488557815555
30
0
10
31.796059433313438
20
-13.138086979880899
30
0
10
31.991442750532926
20
-12.989818163897439
30
0
10
32.092835306846112
20
-12.766231801129809
30
0
10
32.144716568291187
20
-12.651825547218326
30
0
0
SPLINE
5
251
100
AcDbEntity
8
0
100
AcDbSpline
70
0
71
3
72
9
73
5
74
0
42
0.000000001
43
0.0000000001
44
0.0000000001
40
0
40
0
40
0
40
0
40
0.046069862220816812
40
0.10728654362647078
40
0.10728654362647078
40
0.10728654362647078
40
0.10728654362647078
10
32.144716568291187
20
-12.651825547218326
30
0
10
32.184902674779799
20
-12.503008048165132
30
0
10
32.278487249578461
20
-12.156444930002849
30
0
10
32.281480417656383
20
-11.796932462039171
30
0
10
32.283188290894032
20
-11.591798067092899
30
0
0
LINE
5
252
100
AcDbEntity
8
0
100
AcDbLine
10
32.283188290894039
20
-11.591798067092899
30
0
11
32.283188290894032
21
-8.9608299732208287
31
0
0
LINE
5
253
100
AcDbEntity
8
0
100
AcDbLine
10
32.283188290894032
20
-8.9608299732208287
30
0
11
33.142669983208179
21
-8.9608299732208287
31
0
0
CIRCLE
5
254
100
AcDbEntity
8
0
100
AcDbCircle
10
-54.999999999999993
20
-27.499999999999996
30
0
40
2.5
210
0
220
-0
230
1
0
CIRCLE
5
255
100
AcDbEntity
8
0
100
AcDbCircle
10
54.999999999999993
20
27.499999999999996
30
0
40
2.5
210
0
220
-0
230
1
0
CIRCLE
5
256
100
AcDbEntity
8
0
100
AcDbCircle
10
54.999999999999993
20
-27.499999999999996
30
0
40
2.5
210
0
220
-0
230
1
0
CIRCLE
5
257
100
AcDbEntity
8
0
100
AcDbCircle
10
-54.999999999999993
20
27.499999999999996
30
0
40
2.5
210
0
220
-0
230
1
0
LWPOLYLINE
5
258
100
AcDbEntity
8
0
100
AcDbPolyline
90
8
70
1
43
0.0
10
55
20
32.500000000000007
42
-0.41421356237309448
10
60
20
27.499999999999996
10
60
20
-27.499999999999996
42
-0.41421356237309448
10
55
20
-32.500000000000007
10
-55
20
-32.500000000000014
42
-0.41421356237309342
10
-60.000000000000007
20
-27.500000000000007
10
-60
20
27.499999999999993
42
-0.41421356237309526
10
-55
20
32.500000000000007
0
LINE
5
259
100
AcDbEntity
8
0
100
AcDbLine
10
-38.571515493094921
20
-8.9608299732208341
30
0
11
-38.571515493094921
21
-14.031770825386056
31
0
0
LINE
5
260
100
AcDbEntity
8
0
100
AcDbLine
10
-38.571515493094921
20
-14.031770825386056
30
0
11
-39.345050267875195
21
-14.031770825386056
31
0
0
LINE
5
261
100
AcDbEntity
8
0
100
AcDbLine
10
-39.345050267875195
20
-14.031770825386056
30
0
11
-39.345050267875195
21
-13.263012170791635
31
0
0
SPLINE
5
262
100
AcDbEntity
8
0
100
AcDbSpline
70
0
71
3
72
9
73
5
74
0
42
0.000000001
43
0.0000000001
44
0.0000000001
40
0
40
0
40
0
40
0
40
0.053019106100325425
40
0.090075397919769012
40
0.090075397919769012
40
0.090075397919769012
40
0.090075397919769012
10
-39.345050267875195
20
-13.263012170791635
30
0
10
-39.431096805510933
20
-13.419113272393163
30
0
10
-39.577283278411684
20
-13.684317080542352
30
0
10
-39.798412817782136
20
-13.889897966725083
30
0
10
-39.889383725821972
20
-13.974472284317025
30
0
0
SPLINE
5
263
100
AcDbEntity
8
0
100
AcDbSpline
70
0
71
3
72
9
73
5
74
0
42
0.000000001
43
0.0000000001
44
0.0000000001
40
0
40
0
40
0
40
0
40
0.02947025072551393
40
0.058676843747367792
40
0.058676843747367792
40
0.058676843747367792
40
0.058676843747367792
10
-39.889383725821972
20
-13.974472284317025
30
0
10
-39.975502156739978
20
-14.024608241611052
30
0
10
-40.146968553880917
20
-14.124431611275142
30
0
10
-40.34480434801155
20
-14.139078143646213
30
0
10
-40.443277768790722
20
-14.146368503570566
30
0
0
SPLINE
5
264
100
AcDbEntity
8
0
100
AcDbSpline
70
0
71
3
72
9
73
5
74
0
42
0.000000001
43
0.0000000001
44
0.0000000001
40
0
40
0
40
0
40
0
40
0.044353612985308363
40
0.093485214949859591
40
0.093485214949859591
40
0.093485214949859591
40
0.093485214949859591
10
-40.443277768790722
20
-14.146368503570566
30
0
10
-40.592169081391631
20
-14.132642078083419
30
0
10
-40.905991009884168
20
-14.103710549155121
30
0
10
-41.181718329276578
20
-13.950136197535464
30
0
10
-41.326628141105175
20
-13.869424462318429
30
0
0
LINE
5
265
100
AcDbEntity
8
0
100
AcDbLine
10
-41.326628141105175
20
-13.869424462318429
30
0
11
-41.030588559806347
21
-13.072016239166269
31
0
0
SPLINE
5
266
100
AcDbEntity
8
0
100
AcDbSpline
70
0
71
3
72
9
73
5
74
0
42
0.000000001
43
0.0000000001
44
0.0000000001
40
0
40
0
40
0
40
0
40
0.034470411145848909
40
0.06632660087116482
40
0.06632660087116482
40
0.06632660087116482
40
0.06632660087116482
10
-41.030588559806347
20
-13.072016239166269
30
0
10
-40.927781405220429
20
-13.126305775367065
30
0
10
-40.729963947225244
20
-13.230767552275822
30
0
10
-40.507265613366968
20
-13.249324885138304
30
0
10
-40.400305204093456
20
-13.258237838745126
30
0
0
SPLINE
5
267
100
AcDbEntity
8
0
100
AcDbSpline
70
0
71
3
72
9
73
5
74
0
42
0.000000001
43
0.0000000001
44
0.0000000001
40
0
40
0
40
0
40
0
40
0.027083186734331844
40
0.054216033880423661
40
0.054216033880423661
40
0.054216033880423661
40
0.054216033880423661
10
-40.400305204093456
20
-13.258237838745126
30
0
10
-40.308749271341533
20
-13.251049439176203
30
0
10
-40.125469526578748
20
-13.236659459208276
30
0
10
-39.971311333194478
20
-13.13647815384704
30
0
10
-39.894161634147167
20
-13.086341619491586
30
0
0
SPLINE
5
268
100
AcDbEntity
8
0
100
AcDbSpline
70
0
71
3
72
9
73
5
74
0
42
0.000000001
43
0.0000000001
44
0.0000000001
40
0
40
0
40
0
40
0
40
0.027776557422503755
40
0.057410307720372013
40
0.057410307720372013
40
0.057410307720372013
40
0.057410307720372013
10
-39.894161634147167
20
-13.086341619491586
30
0
10
-39.824257584846414
20
-13.023531942929264
30
0
10
-39.67977557002321
20
-12.893713016688295
30
0
10
-39.610170451487967
20
-12.712129746630097
30
0
10
-39.574242047965527
20
-12.618401050567636
30
0
0
SPLINE
5
269
100
AcDbEntity
8
0
100
AcDbSpline
70
0
71
3
72
9
73
5
74
0
42
0.000000001
43
0.0000000001
44
0.0000000001
40
0
40
0
40
0
40
0
40
0.049175650805155596
40
0.10158333584429452
40
0.10158333584429452
40
0.10158333584429452
40
0.10158333584429452
10
-39.574242047965527
20
-12.618401050567636
30
0
10
-39.532472902422157
20
-12.459307781467977
30
0
10
-39.446189364325726
20
-12.130664952732433
30
0
10
-39.43616635227346
20
-11.790939360635861
30
0
10
-39.430995397269726
20
-11.615672111511239
30
0
0
LINE
5
270
100
AcDbEntity
8
0
100
AcDbLine
10
-39.430995397269726
20
-11.615672111511239
30
0
11
-39.430995397269726
21
-8.9608299732208341
31
0
0
LINE
5
271
100
AcDbEntity
8
0
100
AcDbLine
10
-39.430995397269726
20
-8.9608299732208341
30
0
11
-38.571515493094921
21
-8.9608299732208341
31
0
0
LINE
5
272
100
AcDbEntity
8
0
100
AcDbLine
10
-13.25023215264082
20
-10.59384465217591
30
0
11
-14.13836520165205
21
-10.484021902084358
31
0
0
SPLINE
5
273
100
AcDbEntity
8
0
100
AcDbSpline
70
0
71
3
72
9
73
5
74
0
42
0.000000001
43
0.0000000001
44
0.0000000001
40
0
40
0
40
0
40
0
40
0.075331756970933958
40
0.14578059626470566
40
0.14578059626470566
40
0.14578059626470566
40
0.14578059626470566
10
-14.13836520165205
20
-10.484021902084358
30
0
10
-14.05676874962694
20
-10.24170811505936
30
0
10
-13.898864833568076
20
-9.772787041450357
30
0
10
-13.535603998059376
20
-9.4378378710425643
30
0
10
-13.360057286918163
20
-9.2759728431701731
30
0
0
SPLINE
5
274
100
AcDbEntity
8
0
100
AcDbSpline
70
0
71
3
72
9
73
5
74
0
42
0.000000001
43
0.0000000001
44
0.0000000001
40
0
40
0
40
0
40
0
40
0.072283547829873673
40
0.15345440937985783
40
0.15345440937985783
40
0.15345440937985783
40
0.15345440937985783
10
-13.360057286918163
20
-9.2759728431701731
30
0
10
-13.149844463871956
20
-9.1507455656659094
30
0
10
-12.703573001373307
20
-8.8848942276423166
30
0
10
-12.18355572472678
20
-8.8596081510655296
30
0
10
-11.908488683402538
20
-8.8462328910827708
30
0
0
SPLINE
5
275
100
AcDbEntity
8
0
100
AcDbSpline
70
0
71
3
72
9
73
5
74
0
42
0.000000001
43
0.0000000001
44
0.0000000001
40
0
40
0
40
0
40
0
40
0.10124524815315329
40
0.19361624488389129
40
0.19361624488389129
40
0.19361624488389129
40
0.19361624488389129
10
-11.908488683402538
20
-8.8462328910827708
30
0
10
-11.562297158141259
20
-8.8690917480594962
30
0
10
-10.900258155280369
20
-8.9128058593971105
30
0
10
-10.386756489787219
20
-9.3300041024578597
30
0
10
-10.141773633658886
20
-9.5290422439575266
30
0
0
SPLINE
5
276
100
AcDbEntity
8
0
100
AcDbSpline
70
0
71
3
72
9
73
5
74
0
42
0.000000001
43
0.0000000001
44
0.0000000001
40
0
40
0
40
0
40
0
40
0.095791955191171632
40
0.20692618178031935
40
0.20692618178031935
40
0.20692618178031935
40
0.20692618178031935
10
-10.141773633658886
20
-9.5290422439575266
30
0
10
-9.9526453599972697
20
-9.7945238322074619
30
0
10
-9.5440975705988773
20
-10.368007182452283
30
0
10
-9.5104560792659054
20
-11.074102841143098
30
0
10
-9.4923881813883781
20
-11.453326940536506
30
0
0
SPLINE
5
277
100
AcDbEntity
8
0
100
AcDbSpline
70
0
71
3
72
9
73
5
74
0
42
0.000000001
43
0.0000000001
44
0.0000000001
40
0
40
0
40
0
40
0
40
0.11483032644476324
40
0.2131471754077725
40
0.2131471754077725
40
0.2131471754077725
40
0.2131471754077725
10
-9.4923881813883781
20
-11.453326940536506
30
0
10
-9.5102629502964575
20
-11.845041731937707
30
0
10
-9.5434419598994324
20
-12.572139737644186
30
0
10
-9.9594401973953861
20
-13.165834599015769
30
0
10
-10.151324681937695
20
-13.439683914184577
30
0
0
SPLINE
5
278
100
AcDbEntity
8
0
100
AcDbSpline
70
0
71
3
72
9
73
5
74
0
42
0.000000001
43
0.0000000001
44
0.0000000001
40
0
40
0
40
0
40
0
40
0.092395521102964076
40
0.18927916341364742
40
0.18927916341364742
40
0.18927916341364742
40
0.18927916341364742
10
-10.151324681937695
20
-13.439683914184577
30
0
10
-10.391261400641394
20
-13.6457679090132
30
0
10
-10.882789786934488
20
-14.067946448280658
30
0
10
-11.529642752269869
20
-14.11981783310609
30
0
10
-11.860738210380077
20
-14.146368503570566
30
0
0
SPLINE
5
279
100
AcDbEntity
8
0
100
AcDbSpline
70
0
71
3
72
9
73
5
74
0
42
0.000000001
43
0.0000000001
44
0.0000000001
40
0
40
0
40
0
40
0
40
0.094001692017453856
40
0.18421649899969322
40
0.18421649899969322
40
0.18421649899969322
40
0.18421649899969322
10
-11.860738210380077
20
-14.146368503570566
30
0
10
-12.18192345149717
20
-14.119966888577382
30
0
10
-12.811354894475624
20
-14.068227255198451
30
0
10
-13.288656391413562
20
-13.65592301120008
30
0
10
-13.522401265799999
20
-13.454008698463449
30
0
0
SPLINE
5
280
100
AcDbEntity
8
0
100
AcDbSpline
70
0
71
3
72
9
73
5
74
0
42
0.000000001
43
0.0000000001
44
0.0000000001
40
0
40
0
40
0
40
0
40
0.096332204478243422
40
0.2089846457308453
40
0.2089846457308453
40
0.2089846457308453
40
0.2089846457308453
10
-13.522401265799999
20
-13.454008698463449
30
0
10
-13.710109889271171
20
-13.185502750701236
30
0
10
-14.117328019378519
20
-12.603001595727834
30
0
10
-14.149611357684631
20
-11.89012447070157
30
0
10
-14.167013578116894
20
-11.50585055351258
30
0
0
SPLINE
5
281
100
AcDbEntity
8
0
100
AcDbSpline
70
0
71
3
72
9
73
5
74
0
42
0.000000001
43
0.0000000001
44
0.0000000001
40
0
40
0
40
0
40
0
40
0.0095506001919427892
40
0.022925074671432254
40
0.022925074671432254
40
0.022925074671432254
40
0.022925074671432254
10
-14.167013578116894
20
-11.50585055351258
30
0
10
-14.166710997596699
20
-11.474015838685375
30
0
10
-14.165984689209781
20
-11.397600409299777
30
0
10
-14.163619997723584
20
-11.321217146017208
30
0
10
-14.16224043816328
20
-11.276655197143562
30
0
0
LINE
5
282
100
AcDbEntity
8
0
100
AcDbLine
10
-14.16224043816328
20
-11.276655197143564
30
0
11
-10.380521230399609
21
-11.276655197143562
31
0
0
SPLINE
5
283
100
AcDbEntity
8
0
100
AcDbSpline
70
0
71
3
72
9
73
5
74
0
42
0.000000001
43
0.0000000001
44
0.0000000001
40
0
40
0
40
0
40
0
40
0.075127433648443959
40
0.13861325817164344
40
0.13861325817164344
40
0.13861325817164344
40
0.13861325817164344
10
-10.380521230399609
20
-11.276655197143562
30
0
10
-10.405358602285872
20
-11.022040574211031
30
0
10
-10.451184592531781
20
-10.552265942643359
30
0
10
-10.726937171556026
20
-10.171415110478716
30
0
10
-10.853233747184277
20
-9.9969828128814768
30
0
0
SPLINE
5
284
100
AcDbEntity
8
0
100
AcDbSpline
70
0
71
3
72
9
73
5
74
0
42
0.000000001
43
0.0000000001
44
0.0000000001
40
0
40
0
40
0
40
0
40
0.058216745058912868
40
0.11751890985495722
40
0.11751890985495722
40
0.11751890985495722
40
0.11751890985495722
10
-10.853233747184277
20
-9.9969828128814768
30
0
10
-11.00460445821219
20
-9.8674667373911973
30
0
10
-11.310168105337564
20
-9.6060198292051187
30
0
10
-11.710996549694697
20
-9.5707269199942004
30
0
10
-11.913261823356152
20
-9.5529174804687571
30
0
0
SPLINE
5
285
100
AcDbEntity
8
0
100
AcDbSpline
70
0
71
3
72
9
73
5
74
0
42
0.000000001
43
0.0000000001
44
0.0000000001
40
0
40
0
40
0
40
0
40
0.044247459622087669
40
0.085567407552224625
40
0.085567407552224625
40
0.085567407552224625
40
0.085567407552224625
10
-11.913261823356152
20
-9.5529174804687571
30
0
10
-12.063010033299211
20
-9.561772016066163
30
0
10
-12.352598773982901
20
-9.5788952512218124
30
0
10
-12.600505539942546
20
-9.7288157280590504
30
0
10
-12.720218114554882
20
-9.8012113571167063
30
0
0
SPLINE
5
286
100
AcDbEntity
8
0
100
AcDbSpline
70
0
71
3
72
9
73
5
74
0
42
0.000000001
43
0.0000000001
44
0.0000000001
40
0
40
0
40
0
40
0
40
0.044006435513723872
40
0.09637880835027679
40
0.09637880835027679
40
0.09637880835027679
40
0.09637880835027679
10
-12.720218114554882
20
-9.8012113571167063
30
0
10
-12.828162785426596
20
-9.9030997418121718
30
0
10
-13.064573179154886
20
-10.126246219981736
30
0
10
-13.184865270157751
20
-10.429212417102075
30
0
10
-13.25023215264082
20
-10.59384465217591
30
0
0
LINE
5
287
100
AcDbEntity
8
0
100
AcDbLine
10
-28.214760236442089
20
-7.0078969001770108
30
0
11
-28.119264058768749
21
-7.8148543834686368
31
0
0
SPLINE
5
288
100
AcDbEntity
8
0
100
AcDbSpline
70
0
71
3
72
9
73
5
74
0
42
0.000000001
43
0.0000000001
44
0.0000000001
40
0
40
0
40
0
40
0
40
0.026996549735475682
40
0.049876378487812137
40
0.049876378487812137
40
0.049876378487812137
40
0.049876378487812137
10
-28.119264058768749
20
-7.8148543834686368
30
0
10
-28.206732520489126
20
-7.7926191655218453
30
0
10
-28.36833132275304
20
-7.7515393921085955
30
0
10
-28.534741298379302
20
-7.7425708651950647
30
0
10
-28.611078672111034
20
-7.7384567260742276
30
0
0
SPLINE
5
289
100
AcDbEntity
8
0
100
AcDbSpline
70
0
71
3
72
9
73
5
74
0
42
0.000000001
43
0.0000000001
44
0.0000000001
40
0
40
0
40
0
40
0
40
0.02589478235231453
40
0.047189748300065351
40
0.047189748300065351
40
0.047189748300065351
40
0.047189748300065351
10
-28.611078672111034
20
-7.7384567260742276
30
0
10
-28.698305828510549
20
-7.7406328527089929
30
0
10
-28.857265556359177
20
-7.7445985499976011
30
0
10
-29.003484064468683
20
-7.8061694532838644
30
0
10
-29.06946700066328
20
-7.833954095840463
30
0
0
SPLINE
5
290
100
AcDbEntity
8
0
100
AcDbSpline
70
0
71
3
72
9
73
5
74
0
42
0.000000001
43
0.0000000001
44
0.0000000001
40
0
40
0
40
0
40
0
40
0.019387386793345295
40
0.039150292179712692
40
0.039150292179712692
40
0.039150292179712692
40
0.039150292179712692
10
-29.06946700066328
20
-7.833954095840463
30
0
10
-29.124351451053112
20
-7.8692404889803091
30
0
10
-29.235183420920379
20
-7.9404967452317887
30
0
10
-29.31227277523827
20
-8.0473897372062417
30
0
10
-29.351187162101269
20
-8.1013488769531339
30
0
0
SPLINE
5
291
100
AcDbEntity
8
0
100
AcDbSpline
70
0
71
3
72
9
73
5
74
0
42
0.000000001
43
0.0000000001
44
0.0000000001
40
0
40
0
40
0
40
0
40
0.02482952253065452
40
0.069217083795018203
40
0.069217083795018203
40
0.069217083795018203
40
0.069217083795018203
10
-29.351187162101269
20
-8.1013488769531339
30
0
10
-29.387722112775563
20
-8.1756793458961763
30
0
10
-29.489570335557424
20
-8.3828898667993439
30
0
10
-29.565264220129485
20
-8.6011917484727753
30
0
10
-29.61380522698164
20
-8.7411844730377286
30
0
0
SPLINE
5
292
100
AcDbEntity
8
0
100
AcDbSpline
70
0
71
3
72
9
73
5
74
0
42
0.000000001
43
0.0000000001
44
0.0000000001
40
0
40
0
40
0
40
0
40
0.0093629251928245734
40
0.022356483094073849
40
0.022356483094073849
40
0.022356483094073849
40
0.022356483094073849
10
-29.61380522698164
20
-8.7411844730377286
30
0
10
-29.624035877620063
20
-8.7706712310594028
30
0
10
-29.648464286832894
20
-8.8410787365808332
30
0
10
-29.674861848902829
20
-8.9107735722782362
30
0
10
-29.690204076468945
20
-8.951280117034921
30
0
0
LINE
5
293
100
AcDbEntity
8
0
100
AcDbLine
10
-29.690204076468948
20
-8.951280117034921
30
0
11
-27.765922956168652
21
-14.031770825386056
31
0
0
LINE
5
294
100
AcDbEntity
8
0
100
AcDbLine
10
-27.765922956168652
20
-14.031770825386056
30
0
11
-28.692250661551952
21
-14.031770825386056
31
0
0
LINE
5
295
100
AcDbEntity
8
0
100
AcDbLine
10
-28.692250661551952
20
-14.031770825386056
30
0
11
-29.747505597770214
21
-11.09520912170411
31
0
0
SPLINE
5
296
100
AcDbEntity
8
0
100
AcDbSpline
70
0
71
3
72
9
73
5
74
0
42
0.000000001
43
0.0000000001
44
0.0000000001
40
0
40
0
40
0
40
0
40
0.060512451414535436
40
0.12311649826527446
40
0.12311649826527446
40
0.12311649826527446
40
0.12311649826527446
10
-29.747505597770214
20
-11.09520912170411
30
0
10
-29.814599198561815
20
-10.904913497097597
30
0
10
-29.951105471111923
20
-10.517744734486051
30
0
10
-30.059866511390378
20
-10.121879306715002
30
0
10
-30.115170888602734
20
-9.9205839633941739
30
0
0
SPLINE
5
297
100
AcDbEntity
8
0
100
AcDbSpline
70
0
71
3
72
9
73
5
74
0
42
0.000000001
43
0.0000000001
44
0.0000000001
40
0
40
0
40
0
40
0
40
0.060703777037517226
40
0.12087540467376562
40
0.12087540467376562
40
0.12087540467376562
40
0.12087540467376562
10
-30.115170888602734
20
-9.9205839633941739
30
0
10
-30.166748283001308
20
-10.116335761501524
30
0
10
-30.269450927288055
20
-10.506123332664014
30
0
10
-30.402353335841692
20
-10.886672501554633
30
0
10
-30.468511991202831
20
-11.076109409332284
30
0
0
LINE
5
298
100
AcDbEntity
8
0
100
AcDbLine
10
-30.468511991202831
20
-11.076109409332284
30
0
11
-31.552415303885937
21
-14.031770825386056
31
0
0
LINE
5
299
100
AcDbEntity
8
0
100
AcDbLine
10
-31.552415303885937
20
-14.031770825386056
30
0
11
-32.411899976432323
21
-14.031770825386056
31
0
0
LINE
5
300
100
AcDbEntity
8
0
100
AcDbLine
10
-32.411899976432323
20
-14.031770825386056
30
0
11
-30.482840947806835
21
-8.8748812675476163
31
0
0
SPLINE
5
301
100
AcDbEntity
8
0
100
AcDbSpline
70
0
71
3
72
9
73
5
74
0
42
0.000000001
43
0.0000000001
44
0.0000000001
40
0
40
0
40
0
40
0
40
0.075746691772014804
40
0.1248287651022202
40
0.1248287651022202
40
0.1248287651022202
40
0.1248287651022202
10
-30.482840947806835
20
-8.8748812675476163
30
0
10
-30.395269182733138
20
-8.6378628159611495
30
0
10
-30.250952975170247
20
-8.2472619867258601
30
0
10
-30.071236336885701
20
-7.8717721524585222
30
0
10
-30.000572614371777
20
-7.7241313457489102
30
0
0
SPLINE
5
302
100
AcDbEntity
8
0
100
AcDbSpline
70
0
71
3
72
9
73
5
74
0
42
0.000000001
43
0.0000000001
44
0.0000000001
40
0
40
0
40
0
40
0
40
0.044232100737956283
40
0.08192428095783709
40
0.08192428095783709
40
0.08192428095783709
40
0.08192428095783709
10
-30.000572614371777
20
-7.7241313457489102
30
0
10
-29.92597347953172
20
-7.5952149987112216
30
0
10
-29.787805036706594
20
-7.3564431823477605
30
0
10
-29.573798024625439
20
-7.1831329846505643
30
0
10
-29.475336484611034
20
-7.1033954620361417
30
0
0
SPLINE
5
303
100
AcDbEntity
8
0
100
AcDbSpline
70
0
71
3
72
9
73
5
74
0
42
0.000000001
43
0.0000000001
44
0.0000000001
40
0
40
0
40
0
40
0
40
0.035783817141421322
40
0.074310863246113329
40
0.074310863246113329
40
0.074310863246113329
40
0.074310863246113329
10
-29.475336484611034
20
-7.1033954620361417
30
0
10
-29.369521513834265
20
-7.0449251953875063
30
0
10
-29.149779673781051
20
-6.9235022635711818
30
0
10
-28.89878148030671
20
-6.9099012339932493
30
0
10
-28.768649511039257
20
-6.9028496742248624
30
0
0
SPLINE
5
304
100
AcDbEntity
8
0
100
AcDbSpline
70
0
71
3
72
9
73
5
74
0
42
0.000000001
43
0.0000000001
44
0.0000000001
40
0
40
0
40
0
40
0
40
0.026392788879071857
40
0.056566628530336366
40
0.056566628530336366
40
0.056566628530336366
40
0.056566628530336366
10
-28.768649511039257
20
-6.9028496742248624
30
0
10
-28.680500047457215
20
-6.9082869267655571
30
0
10
-28.491572761885351
20
-6.9199403767326784
30
0
10
-28.311053200168075
20
-6.9773000393307498
30
0
10
-28.214760236442089
20
-7.0078969001770108
30
0
0
LINE
5
305
100
AcDbEntity
8
0
100
AcDbLine
10
-18.044228963553905
20
-8.9608299732208323
30
0
11
-18.044228963553905
21
-15.960829854011543
31
0
0
LINE
5
306
100
AcDbEntity
8
0
100
AcDbLine
10
-18.044228963553905
20
-15.960829854011543
30
0
11
-20.45555155724287
21
-15.960829854011545
31
0
0
SPLINE
5
307
100
AcDbEntity
8
0
100
AcDbSpline
70
0
71
3
72
9
73
5
74
0
42
0.000000001
43
0.0000000001
44
0.0000000001
40
0
40
0
40
0
40
0
40
0.072025543583585816
40
0.12520283769384991
40
0.12520283769384991
40
0.12520283769384991
40
0.12520283769384991
10
-20.45555155724287
20
-15.960829854011545
30
0
10
-20.696143483462883
20
-15.959836657251177
30
0
10
-21.114367218963288
20
-15.958110171804492
30
0
10
-21.526678311369167
20
-15.88963876298064
30
0
10
-21.701798848807812
20
-15.860556960105905
30
0
0
SPLINE
5
308
100
AcDbEntity
8
0
100
AcDbSpline
70
0
71
3
72
9
73
5
74
0
42
0.000000001
43
0.0000000001
44
0.0000000001
40
0
40
0
40
0
40
0
40
0.059045652557002705
40
0.11509942448251856
40
0.11509942448251856
40
0.11509942448251856
40
0.11509942448251856
10
-21.701798848807812
20
-15.860556960105905
30
0
10
-21.89303630773205
20
-15.806691645925293
30
0
10
-22.265821102352259
20
-15.701690407167316
30
0
10
-22.576906074977376
20
-15.47136275969561
30
0
10
-22.72840540856123
20
-15.359192490577707
30
0
0
SPLINE
5
309
100
AcDbEntity
8
0
100
AcDbSpline
70
0
71
3
72
9
73
5
74
0
42
0.000000001
43
0.0000000001
44
0.0000000001
40
0
40
0
40
0
40
0
40
0.07200368657939904
40
0.14680147055416415
40
0.14680147055416415
40
0.14680147055416415
40
0.14680147055416415
10
-22.72840540856123
20
-15.359192490577707
30
0
10
-22.902118212111109
20
-15.190031197191106
30
0
10
-23.256284730891892
20
-14.84514431973083
30
0
10
-23.45381439037584
20
-14.391720330484571
30
0
10
-23.554459027945995
20
-14.160693287849435
30
0
0
SPLINE
5
310
100
AcDbEntity
8
0
100
AcDbSpline
70
0
71
3
72
9
73
5
74
0
42
0.000000001
43
0.0000000001
44
0.0000000001
40
0
40
0
40
0
40
0
40
0.080554749381166912
40
0.16916130325586387
40
0.16916130325586387
40
0.16916130325586387
40
0.16916130325586387
10
-23.554459027945995
20
-14.160693287849435
30
0
10
-23.635185330538899
20
-13.903223752790259
30
0
10
-23.804706887722659
20
-13.362549460661263
30
0
10
-23.822228331399124
20
-12.795860342334995
30
0
10
-23.83140604943037
20
-12.499029040336618
30
0
0
SPLINE
5
311
100
AcDbEntity
8
0
100
AcDbSpline
70
0
71
3
72
9
73
5
74
0
42
0.000000001
43
0.0000000001
44
0.0000000001
40
0
40
0
40
0
40
0
40
0.075348651494034843
40
0.14293967785475681
40
0.14293967785475681
40
0.14293967785475681
40
0.14293967785475681
10
-23.83140604943037
20
-12.499029040336618
30
0
10
-23.825474935503451
20
-12.247044639197963
30
0
10
-23.814223353726955
20
-11.769019241145092
30
0
10
-23.699452886636827
20
-11.305052452362741
30
0
10
-23.645182065665722
20
-11.085659265518197
30
0
0
SPLINE
5
312
100
AcDbEntity
8
0
100
AcDbSpline
70
0
71
3
72
9
73
5
74
0
42
0.000000001
43
0.0000000001
44
0.0000000001
40
0
40
0
40
0
40
0
40
0.060216952670572324
40
0.11316511275820201
40
0.11316511275820201
40
0.11316511275820201
40
0.11316511275820201
10
-23.645182065665722
20
-11.085659265518197
30
0
10
-23.582240825122014
20
-10.894111779799488
30
0
10
-23.463955985597885
20
-10.534138518806145
30
0
10
-23.262128354215747
20
-10.213740809139999
30
0
10
-23.167696408927441
20
-10.06383180618287
30
0
0
SPLINE
5
313
100
AcDbEntity
8
0
100
AcDbSpline
70
0
71
3
72
9
73
5
74
0
42
0.000000001
43
0.0000000001
44
0.0000000001
40
0
40
0
40
0
40
0
40
0.047169165413081422
40
0.090500107197724999
40
0.090500107197724999
40
0.090500107197724999
40
0.090500107197724999
10
-23.167696408927441
20
-10.06383180618287
30
0
10
-23.07089178764576
20
-9.9389245056587505
30
0
10
-22.88515967798249
20
-9.699273793414509
30
0
10
-22.643542284289133
20
-9.5163523157500229
30
0
10
-22.527857236564159
20
-9.4287705421447843
30
0
0
SPLINE
5
314
100
AcDbEntity
8
0
100
AcDbSpline
70
0
71
3
72
9
73
5
74
0
42
0.000000001
43
0.0000000001
44
0.0000000001
40
0
40
0
40
0
40
0
40
0.043093593931395453
40
0.090885647259098673
40
0.090885647259098673
40
0.090885647259098673
40
0.090885647259098673
10
-22.527857236564159
20
-9.4287705421447843
30
0
10
-22.40324002428455
20
-9.3560435984634633
30
0
10
-22.140418686716608
20
-9.2026603517522361
30
0
10
-21.846702627646167
20
-9.122404810694718
30
0
10
-21.692252568900585
20
-9.0802025794982999
30
0
0
SPLINE
5
315
100
AcDbEntity
8
0
100
AcDbSpline
70
0
71
3
72
9
73
5
74
0
42
0.000000001
43
0.0000000001
44
0.0000000001
40
0
40
0
40
0
40
0
40
0.053163683957956016
40
0.11304396495471775
40
0.11304396495471775
40
0.11304396495471775
40
0.11304396495471775
10
-21.692252568900585
20
-9.0802025794982999
30
0
10
-21.518114579797604
20
-9.0454185741594415
30
0
10
-21.147838344745669
20
-8.9714560195023889
30
0
10
-20.770192054083971
20
-8.9645095650196733
30
0
10
-20.570149831473827
20
-8.9608299732208323
30
0
0
LINE
5
316
100
AcDbEntity
8
0
100
AcDbLine
10
-20.570149831473827
20
-8.9608299732208323
30
0
11
-18.044228963553905
21
-8.9608299732208323
31
0
0
LINE
5
317
100
AcDbEntity
8
0
100
AcDbLine
10
14.425069876015186
20
-9.7295880317688059
30
0
11
14.300922937691212
21
-8.9703798294067454
31
0
0
SPLINE
5
318
100
AcDbEntity
8
0
100
AcDbSpline
70
0
71
3
72
9
73
5
74
0
42
0.000000001
43
0.0000000001
44
0.0000000001
40
0
40
0
40
0
40
0
40
0.034853469251829555
40
0.065472399519508895
40
0.065472399519508895
40
0.065472399519508895
40
0.065472399519508895
10
14.300922937691212
20
-8.9703798294067454
30
0
10
14.415159891089893
20
-8.9481253050558003
30
0
10
14.629754524375
20
-8.906320080477041
30
0
10
14.848165808740585
20
-8.897912760865502
30
0
10
14.95030838996172
20
-8.8939809799194407
30
0
0
SPLINE
5
319
100
AcDbEntity
8
0
100
AcDbSpline
70
0
71
3
72
9
73
5
74
0
42
0.000000001
43
0.0000000001
44
0.0000000001
40
0
40
0
40
0
40
0
40
0.041706069463653656
40
0.074668692849708687
40
0.074668692849708687
40
0.074668692849708687
40
0.074668692849708687
10
14.95030838996172
20
-8.8939809799194407
30
0
10
15.090895434268923
20
-8.8966847311829937
30
0
10
15.342596229021872
20
-8.9015254072581165
30
0
10
15.573957749168006
20
-8.9989811492009224
30
0
10
15.676092691719532
20
-9.0420031547546458
30
0
0
SPLINE
5
320
100
AcDbEntity
8
0
100
AcDbSpline
70
0
71
3
72
9
73
5
74
0
42
0.000000001
43
0.0000000001
44
0.0000000001
40
0
40
0
40
0
40
0
40
0.027817914644598034
40
0.053741543024855704
40
0.053741543024855704
40
0.053741543024855704
40
0.053741543024855704
10
15.676092691719532
20
-9.0420031547546458
30
0
10
15.754995818394981
20
-9.0936287037662815
30
0
10
15.907429091384691
20
-9.1933643129532623
30
0
10
15.996175640715116
20
-9.3521676365547624
30
0
10
16.038984842598438
20
-9.4287705421447825
30
0
0
SPLINE
5
321
100
AcDbEntity
8
0
100
AcDbSpline
70
0
71
3
72
9
73
5
74
0
42
0.000000001
43
0.0000000001
44
0.0000000001
40
0
40
0
40
0
40
0
40
0.038418856728943351
40
0.10257563635378783
40
0.10257563635378783
40
0.10257563635378783
40
0.10257563635378783
10
16.038984842598438
20
-9.4287705421447825
30
0
10
16.069183971482602
20
-9.5536219398987967
30
0
10
16.149813514534294
20
-9.8869663614840935
30
0
10
16.14625817145377
20
-10.230781591758403
30
0
10
16.144034452736378
20
-10.445823669433601
30
0
0
LINE
5
322
100
AcDbEntity
8
0
100
AcDbLine
10
16.144034452736374
20
-10.445823669433601
30
0
11
16.144034452736378
21
-13.363285064697273
31
0
0
LINE
5
323
100
AcDbEntity
8
0
100
AcDbLine
10
16.144034452736378
20
-13.363285064697273
30
0
11
16.774320192635059
21
-13.363285064697269
31
0
0
LINE
5
324
100
AcDbEntity
8
0
100
AcDbLine
10
16.774320192635059
20
-13.363285064697269
30
0
11
16.774320192635059
21
-14.031771421432499
31
0
0
LINE
5
325
100
AcDbEntity
8
0
100
AcDbLine
10
16.774320192635059
20
-14.031771421432499
30
0
11
16.144034452736378
21
-14.031771421432499
31
0
0
LINE
5
326
100
AcDbEntity
8
0
100
AcDbLine
10
16.144034452736378
20
-14.031771421432499
30
0
11
16.144034452736378
21
-15.287569165229801
31
0
0
LINE
5
327
100
AcDbEntity
8
0
100
AcDbLine
10
16.144034452736378
20
-15.287569165229801
30
0
11
15.289327688515186
21
-15.803258419036869
31
0
0
LINE
5
328
100
AcDbEntity
8
0
100
AcDbLine
10
15.289327688515186
20
-15.803258419036869
30
0
11
15.289327688515186
21
-14.031771421432499
31
0
0
LINE
5
329
100
AcDbEntity
8
0
100
AcDbLine
10
15.289327688515186
20
-14.031771421432499
30
0
11
14.425069876015186
21
-14.031771421432499
31
0
0
LINE
5
330
100
AcDbEntity
8
0
100
AcDbLine
10
14.425069876015186
20
-14.031771421432499
30
0
11
14.425069876015186
21
-13.363285064697269
31
0
0
LINE
5
331
100
AcDbEntity
8
0
100
AcDbLine
10
14.425069876015186
20
-13.363285064697269
30
0
11
15.289327688515186
21
-13.363285064697269
31
0
0
LINE
5
332
100
AcDbEntity
8
0
100
AcDbLine
10
15.289327688515186
20
-13.363285064697269
30
0
11
15.289327688515186
21
-10.398074388504032
31
0
0
SPLINE
5
333
100
AcDbEntity
8
0
100
AcDbSpline
70
0
71
3
72
9
73
5
74
0
42
0.000000001
43
0.0000000001
44
0.0000000001
40
0
40
0
40
0
40
0
40
0.030220298330014543
40
0.047592224301218997
40
0.047592224301218997
40
0.047592224301218997
40
0.047592224301218997
10
15.289327688515186
20
-10.398074388504035
30
0
10
15.290543679468991
20
-10.296868631985838
30
0
10
15.292458674271163
20
-10.137485458061162
30
0
10
15.258681830061605
20
-9.9820836444897125
30
0
10
15.24635273963213
20
-9.9253594875335764
30
0
0
SPLINE
5
334
100
AcDbEntity
8
0
100
AcDbSpline
70
0
71
3
72
9
73
5
74
0
42
0.000000001
43
0.0000000001
44
0.0000000001
40
0
40
0
40
0
40
0
40
0.011224819477743968
40
0.02258094508777838
40
0.02258094508777838
40
0.02258094508777838
40
0.02258094508777838
10
15.24635273963213
20
-9.9253594875335764
30
0
10
15.228151625666193
20
-9.8920749253199105
30
0
10
15.191536484031523
20
-9.8251164434389597
30
0
10
15.129519412409955
20
-9.7806168018139399
30
0
10
15.098330564796925
20
-9.7582376003265452
30
0
0
SPLINE
5
335
100
AcDbEntity
8
0
100
AcDbSpline
70
0
71
3
72
9
73
5
74
0
42
0.000000001
43
0.0000000001
44
0.0000000001
40
0
40
0
40
0
40
0
40
0.013482834215669922
40
0.030504331728033067
40
0.030504331728033067
40
0.030504331728033067
40
0.030504331728033067
10
15.098330564796925
20
-9.7582376003265452
30
0
10
15.05672144196418
20
-9.7401953526642195
30
0
10
14.962582593596
20
-9.6993755443800556
30
0
10
14.859698304067699
20
-9.6973143070359171
30
0
10
14.802288599312305
20
-9.6961641311645579
30
0
0
SPLINE
5
336
100
AcDbEntity
8
0
100
AcDbSpline
70
0
71
3
72
9
73
5
74
0
42
0.000000001
43
0.0000000001
44
0.0000000001
40
0
40
0
40
0
40
0
40
0.01661400882461651
40
0.037891081582744221
40
0.037891081582744221
40
0.037891081582744221
40
0.037891081582744221
10
14.802288599312305
20
-9.6961641311645579
30
0
10
14.746909480985941
20
-9.6981299380237029
30
0
10
14.620607953604088
20
-9.7026132959454507
30
0
10
14.495386044403249
20
-9.7198878235547994
30
0
10
14.425069876015186
20
-9.7295880317688059
30
0
0
SPLINE
5
337
100
AcDbEntity
8
0
100
AcDbSpline
70
0
71
3
72
9
73
5
74
0
42
0.000000001
43
0.0000000001
44
0.0000000001
40
0
40
0
40
0
40
0
40
0.058303380919268163
40
0.10891229170004807
40
0.10891229170004807
40
0.10891229170004807
40
0.10891229170004807
10
21.687690801918507
20
-9.5863413810730016
30
0
10
21.839423363149407
20
-9.4633741016780846
30
0
10
22.122863889386785
20
-9.2336678995357868
30
0
10
22.454939189816947
20
-9.0832494198171165
30
0
10
22.60924655944109
20
-9.013353586196903
30
0
0
SPLINE
5
338
100
AcDbEntity
8
0
100
AcDbSpline
70
0
71
3
72
9
73
5
74
0
42
0.000000001
43
0.0000000001
44
0.0000000001
40
0
40
0
40
0
40
0
40
0.047291528057171579
40
0.096412221310684665
40
0.096412221310684665
40
0.096412221310684665
40
0.096412221310684665
10
22.60924655944109
20
-9.013353586196903
30
0
10
22.760005027673866
20
-8.9646151168667121
30
0
10
23.067353075005876
20
-8.8652530474972124
30
0
10
23.390193586216967
20
-8.8526526296804988
30
0
10
23.554676361382008
20
-8.8462328910827672
30
0
0
SPLINE
5
339
100
AcDbEntity
8
0
100
AcDbSpline
70
0
71
3
72
9
73
5
74
0
42
0.000000001
43
0.0000000001
44
0.0000000001
40
0
40
0
40
0
40
0
40
0.074584922446983615
40
0.13705612584157559
40
0.13705612584157559
40
0.13705612584157559
40
0.13705612584157559
10
23.554676361382008
20
-8.8462328910827672
30
0
10
23.808926539691075
20
-8.8562955629463289
30
0
10
24.276132823351691
20
-8.8747865766256044
30
0
10
24.662853914769485
20
-9.1339638612375182
30
0
10
24.839124269783497
20
-9.2520987987518346
30
0
0
SPLINE
5
340
100
AcDbEntity
8
0
100
AcDbSpline
70
0
71
3
72
9
73
5
74
0
42
0.000000001
43
0.0000000001
44
0.0000000001
40
0
40
0
40
0
40
0
40
0.057547537133669231
40
0.11652055476291553
40
0.11652055476291553
40
0.11652055476291553
40
0.11652055476291553
10
24.839124269783497
20
-9.2520987987518346
30
0
10
24.970030603932052
20
-9.3995962815243956
30
0
10
25.235085885820837
20
-9.6982448314853151
30
0
10
25.270194747375779
20
-10.096325935228682
30
0
10
25.287963934242725
20
-10.297801494598392
30
0
0
SPLINE
5
341
100
AcDbEntity
8
0
100
AcDbSpline
70
0
71
3
72
9
73
5
74
0
42
0.000000001
43
0.0000000001
44
0.0000000001
40
0
40
0
40
0
40
0
40
0.035817507101609095
40
0.070399433056809152
40
0.070399433056809152
40
0.070399433056809152
40
0.070399433056809152
10
25.287963934242725
20
-10.297801494598392
30
0
10
25.281502980261173
20
-10.418236010055661
30
0
10
25.268803953050337
20
-10.654950463258972
30
0
10
25.169583001132768
20
-10.870133390599982
30
0
10
25.12084323912859
20
-10.975836515426639
30
0
0
SPLINE
5
342
100
AcDbEntity
8
0
100
AcDbSpline
70
0
71
3
72
9
73
5
74
0
42
0.000000001
43
0.0000000001
44
0.0000000001
40
0
40
0
40
0
40
0
40
0.034179023224600355
40
0.067081943505905239
40
0.067081943505905239
40
0.067081943505905239
40
0.067081943505905239
10
25.12084323912859
20
-10.975836515426639
30
0
10
25.060260213897738
20
-11.07350257679775
30
0
10
24.941356082283242
20
-11.265188253953841
30
0
10
24.763845031569822
20
-11.40422804534264
30
0
10
24.67677790671587
20
-11.472425460815433
30
0
0
SPLINE
5
343
100
AcDbEntity
8
0
100
AcDbSpline
70
0
71
3
72
9
73
5
74
0
42
0.000000001
43
0.0000000001
44
0.0000000001
40
0
40
0
40
0
40
0
40
0.033612363455649212
40
0.068390054231031269
40
0.068390054231031269
40
0.068390054231031269
40
0.068390054231031269
10
24.67677790671587
20
-11.472425460815433
30
0
10
24.580733079003139
20
-11.530979161708572
30
0
10
24.38531358746544
20
-11.650116597098776
30
0
10
24.167038179039931
20
-11.719077595242966
30
0
10
24.056040830910206
20
-11.754145622253422
30
0
0
SPLINE
5
344
100
AcDbEntity
8
0
100
AcDbSpline
70
0
71
3
72
9
73
5
74
0
42
0.000000001
43
0.0000000001
44
0.0000000001
40
0
40
0
40
0
40
0
40
0.032424715537766449
40
0.077516072553679843
40
0.077516072553679843
40
0.077516072553679843
40
0.077516072553679843
10
24.056040830910206
20
-11.754145622253422
30
0
10
23.950441923721279
20
-11.777435942414094
30
0
10
23.69799213609825
20
-11.833114893406599
30
0
10
23.441347905981154
20
-11.864696036646638
30
0
10
23.292057104408741
20
-11.883066892623905
30
0
0
SPLINE
5
345
100
AcDbEntity
8
0
100
AcDbSpline
70
0
71
3
72
9
73
5
74
0
42
0.000000001
43
0.0000000001
44
0.0000000001
40
0
40
0
40
0
40
0
40
0.091384002829927397
40
0.15629490876925184
40
0.15629490876925184
40
0.15629490876925184
40
0.15629490876925184
10
23.292057104408741
20
-11.883066892623905
30
0
10
22.989086945585697
20
-11.91974519849143
30
0
10
22.470914269114299
20
-11.982476445666538
30
0
10
21.968127789117034
20
-12.12141048607722
30
0
10
21.759315319359303
20
-12.179111242294315
30
0
0
SPLINE
5
346
100
AcDbEntity
8
0
100
AcDbSpline
70
0
71
3
72
9
73
5
74
0
42
0.000000001
43
0.0000000001
44
0.0000000001
40
0
40
0
40
0
40
0
40
0.014448432066660169
40
0.022447313630299087
40
0.022447313630299087
40
0.022447313630299087
40
0.022447313630299087
10
21.759315319359303
20
-12.179111242294315
30
0
10
21.757968933528812
20
-12.227254854343439
30
0
10
21.755877167109794
20
-12.302051534978132
30
0
10
21.754891152073711
20
-12.376870179368103
30
0
10
21.754539795219898
20
-12.403531074523929
30
0
0
SPLINE
5
347
100
AcDbEntity
8
0
100
AcDbSpline
70
0
71
3
72
9
73
5
74
0
42
0.000000001
43
0.0000000001
44
0.0000000001
40
0
40
0
40
0
40
0
40
0.045176712223234945
40
0.079657432366078834
40
0.079657432366078834
40
0.079657432366078834
40
0.079657432366078834
10
21.754539795219898
20
-12.403531074523929
30
0
10
21.757968294916878
20
-12.558839587220659
30
0
10
21.764013566236756
20
-12.832685928337376
30
0
10
21.927354964096018
20
-13.049702019607405
30
0
10
21.998059339821339
20
-13.143640160560611
30
0
0
SPLINE
5
348
100
AcDbEntity
8
0
100
AcDbSpline
70
0
71
3
72
9
73
5
74
0
42
0.000000001
43
0.0000000001
44
0.0000000001
40
0
40
0
40
0
40
0
40
0.046407854382947103
40
0.1038122435884819
40
0.1038122435884819
40
0.1038122435884819
40
0.1038122435884819
10
21.998059339821339
20
-13.143640160560611
30
0
10
22.130751070583333
20
-13.228347304084364
30
0
10
22.427576391624324
20
-13.417833302394246
30
0
10
22.781311567483193
20
-13.428828849222821
30
0
10
22.9769142344594
20
-13.434908986091617
30
0
0
SPLINE
5
349
100
AcDbEntity
8
0
100
AcDbSpline
70
0
71
3
72
9
73
5
74
0
42
0.000000001
43
0.0000000001
44
0.0000000001
40
0
40
0
40
0
40
0
40
0.053035370867523343
40
0.093397538650400735
40
0.093397538650400735
40
0.093397538650400735
40
0.093397538650400735
10
22.9769142344594
20
-13.434908986091617
30
0
10
23.156705876579665
20
-13.431959786959503
30
0
10
23.473326587800699
20
-13.426766122138755
30
0
10
23.753511556790841
20
-13.282418772509278
30
0
10
23.874594755470753
20
-13.220038414001468
30
0
0
SPLINE
5
350
100
AcDbEntity
8
0
100
AcDbSpline
70
0
71
3
72
9
73
5
74
0
42
0.000000001
43
0.0000000001
44
0.0000000001
40
0
40
0
40
0
40
0
40
0.038441895102977248
40
0.087413426349480655
40
0.087413426349480655
40
0.087413426349480655
40
0.087413426349480655
10
23.874594755470753
20
-13.220038414001468
30
0
10
23.965947093235741
20
-13.127420032720254
30
0
10
24.173674127183506
20
-12.916814129211955
30
0
10
24.254358599214818
20
-12.630680440916784
30
0
10
24.299560375511646
20
-12.470380067825321
30
0
0
LINE
5
351
100
AcDbEntity
8
0
100
AcDbLine
10
24.299560375511646
20
-12.470380067825319
30
0
11
25.139942951500416
21
-12.584977149963382
31
0
0
SPLINE
5
352
100
AcDbEntity
8
0
100
AcDbSpline
70
0
71
3
72
9
73
5
74
0
42
0.000000001
43
0.0000000001
44
0.0000000001
40
0
40
0
40
0
40
0
40
0.05100893959848582
40
0.095373294677265741
40
0.095373294677265741
40
0.095373294677265741
40
0.095373294677265741
10
25.139942951500416
20
-12.584977149963382
30
0
10
25.099017920396758
20
-12.751587746463606
30
0
10
25.022498881148948
20
-13.063105720400126
30
0
10
24.845199127829098
20
-13.329903573248949
30
0
10
24.762725420296192
20
-13.454008698463443
30
0
0
SPLINE
5
353
100
AcDbEntity
8
0
100
AcDbSpline
70
0
71
3
72
9
73
5
74
0
42
0.000000001
43
0.0000000001
44
0.0000000001
40
0
40
0
40
0
40
0
40
0.043594627857748799
40
0.092442570910654165
40
0.092442570910654165
40
0.092442570910654165
40
0.092442570910654165
10
24.762725420296192
20
-13.454008698463443
30
0
10
24.661179820217715
20
-13.560310716095749
30
0
10
24.445851996648482
20
-13.785724540821702
30
0
10
24.156444286247648
20
-13.902968883275658
30
0
10
24.003517217934132
20
-13.964922428131107
30
0
0
SPLINE
5
354
100
AcDbEntity
8
0
100
AcDbSpline
70
0
71
3
72
9
73
5
74
0
42
0.000000001
43
0.0000000001
44
0.0000000001
40
0
40
0
40
0
40
0
40
0.055298996096758035
40
0.11694282980192475
40
0.11694282980192475
40
0.11694282980192475
40
0.11694282980192475
10
24.003517217934132
20
-13.964922428131107
30
0
10
23.826077983931562
20
-14.017801980533665
30
0
10
23.450840681145099
20
-14.129628323380727
30
0
10
23.059207106131883
20
-14.140590194801296
30
0
10
22.85276610404253
20
-14.14636850357056
30
0
0
SPLINE
5
355
100
AcDbEntity
8
0
100
AcDbSpline
70
0
71
3
72
9
73
5
74
0
42
0.000000001
43
0.0000000001
44
0.0000000001
40
0
40
0
40
0
40
0
40
0.058974371266557656
40
0.10703532405525792
40
0.10703532405525792
40
0.10703532405525792
40
0.10703532405525792
10
22.85276610404253
20
-14.14636850357056
30
0
10
22.655149377618415
20
-14.143040574110781
30
0
10
22.296485607284346
20
-14.137000560448726
30
0
10
21.952134106928636
20
-14.038017379722445
30
0
10
21.797513552010059
20
-13.993571996688846
30
0
0
SPLINE
5
356
100
AcDbEntity
8
0
100
AcDbSpline
70
0
71
3
72
9
73
5
74
0
42
0.000000001
43
0.0000000001
44
0.0000000001
40
0
40
0
40
0
40
0
40
0.039238764242442811
40
0.071726136470941379
40
0.071726136470941379
40
0.071726136470941379
40
0.071726136470941379
10
21.797513552010059
20
-13.993571996688846
30
0
10
21.674972287445144
20
-13.943624954788131
30
0
10
21.450974115351897
20
-13.852324721132572
30
0
10
21.278686865481006
20
-13.683343112937836
30
0
10
21.200651712715626
20
-13.606805205345157
30
0
0
SPLINE
5
357
100
AcDbEntity
8
0
100
AcDbSpline
70
0
71
3
72
9
73
5
74
0
42
0.000000001
43
0.0000000001
44
0.0000000001
40
0
40
0
40
0
40
0
40
0.030671937099086135
40
0.064571169208287579
40
0.064571169208287579
40
0.064571169208287579
40
0.064571169208287579
10
21.200651712715626
20
-13.606805205345157
30
0
10
21.141208239392107
20
-13.522546445828638
30
0
10
21.016066662520014
20
-13.345163237182724
30
0
10
20.96176563296428
20
-13.134738879466397
30
0
10
20.93325812369585
20
-13.024268150329593
30
0
0
SPLINE
5
358
100
AcDbEntity
8
0
100
AcDbSpline
70
0
71
3
72
9
73
5
74
0
42
0.000000001
43
0.0000000001
44
0.0000000001
40
0
40
0
40
0
40
0
40
0.03096627967821608
40
0.079443437131440531
40
0.079443437131440531
40
0.079443437131440531
40
0.079443437131440531
10
20.93325812369585
20
-13.024268150329593
30
0
10
20.920866070362255
20
-12.92171222368026
30
0
10
20.889074478987155
20
-12.658606826587476
30
0
10
20.889825123956768
20
-12.393441384929321
30
0
10
20.890283174812794
20
-12.231634855270389
30
0
0
LINE
5
359
100
AcDbEntity
8
0
100
AcDbLine
10
20.890283174812794
20
-12.231634855270389
30
0
11
20.890283174812794
21
-11.085659265518192
31
0
0
SPLINE
5
360
100
AcDbEntity
8
0
100
AcDbSpline
70
0
71
3
72
9
73
5
74
0
42
0.000000001
43
0.0000000001
44
0.0000000001
40
0
40
0
40
0
40
0
40
0.097894177130531321
40
0.15199417542829827
40
0.15199417542829827
40
0.15199417542829827
40
0.15199417542829827
10
20.890283174812794
20
-11.085659265518192
30
0
10
20.892148313452196
20
-10.759105206059946
30
0
10
20.895044197741388
20
-10.252085110942978
30
0
10
20.85279685594795
20
-9.7470139950589498
30
0
10
20.83775956183672
20
-9.5672416687011754
30
0
0
SPLINE
5
361
100
AcDbEntity
8
0
100
AcDbSpline
70
0
71
3
72
9
73
5
74
0
42
0.000000001
43
0.0000000001
44
0.0000000001
40
0
40
0
40
0
40
0
40
0.032026712472682399
40
0.064717570215640119
40
0.064717570215640119
40
0.064717570215640119
40
0.064717570215640119
10
20.83775956183672
20
-9.5672416687011754
30
0
10
20.814009938278318
20
-9.4627010966035812
30
0
10
20.766018189779409
20
-9.2514520706262751
30
0
10
20.667751581871183
20
-9.0583645073709906
30
0
10
20.618114061653614
20
-8.9608299732208287
30
0
0
LINE
5
362
100
AcDbEntity
8
0
100
AcDbLine
10
20.618114061653614
20
-8.9608299732208287
30
0
11
21.515795774757862
21
-8.9608299732208287
31
0
0
SPLINE
5
363
100
AcDbEntity
8
0
100
AcDbSpline
70
0
71
3
72
9
73
5
74
0
42
0.000000001
43
0.0000000001
44
0.0000000001
40
0
40
0
40
0
40
0
40
0.031016907592272106
40
0.065129982601462605
40
0.065129982601462605
40
0.065129982601462605
40
0.065129982601462605
10
21.515795774757862
20
-8.9608299732208287
30
0
10
21.556640564305741
20
-9.0563379473798467
30
0
10
21.642407348911853
20
-9.2568876855112983
30
0
10
21.672125402521488
20
-9.4730974031129271
30
0
10
21.687690801918507
20
-9.5863413810730016
30
0
0
LWPOLYLINE
5
364
100
AcDbEntity
8
0
100
AcDbPolyline
90
4
70
1
43
0.0
10
15
20
20
10
15
20
0
10
-15
20
0
10
-15
20
20
0
CIRCLE
5
365
100
AcDbEntity
8
0
100
AcDbCircle
10
-54.999999999999993
20
27.499999999999996
30
0
40
2.5
210
0
220
-0
230
1
0
CIRCLE
5
366
100
AcDbEntity
8
0
100
AcDbCircle
10
54.999999999999993
20
-27.499999999999996
30
0
40
2.5
210
0
220
-0
230
1
0
CIRCLE
5
367
100
AcDbEntity
8
0
100
AcDbCircle
10
54.999999999999993
20
27.499999999999996
30
0
40
2.5
210
0
220
-0
230
1
0
CIRCLE
5
368
100
AcDbEntity
8
0
100
AcDbCircle
10
-54.999999999999993
20
-27.499999999999996
30
0
40
2.5
210
0
220
-0
230
1
0
LWPOLYLINE
5
369
100
AcDbEntity
8
0
100
AcDbPolyline
90
8
70
1
43
0.0
10
60
20
-27.499999999999996
10
60
20
27.499999999999996
42
0.41421356237309448
10
55
20
32.500000000000007
10
-55
20
32.500000000000007
42
0.41421356237309476
10
-60
20
27.499999999999993
10
-60.000000000000007
20
-27.500000000000018
42
0.4142135623730932
10
-55
20
-32.500000000000007
10
55
20
-32.500000000000007
42
0.41421356237309448
0
ENDSEC
0
SECTION
2
OBJECTS
0
DICTIONARY
5
C
100
AcDbDictionary
3
ACAD_GROUP
350
D
3
ACAD_MLINESTYLE
350
17
0
DICTIONARY
5
D
100
AcDbDictionary
0
DICTIONARY
5
1A
330
C
100
AcDbDictionary
0
DICTIONARY
5
17
100
AcDbDictionary
0
ENDSEC
0
EOF
