0
SECTION
2
HEADER
9
$INSUNITS
70
1
9
$ACADVER
1
AC1014
9
$HANDSEED
5
FFFF
0
ENDSEC
0
SECTION
2
TABLES
0
TABLE
2
VPORT
5
8
100
AcDbSymbolTable
0
ENDTAB
0
TABLE
2
LTYPE
5
5
100
AcDbSymbolTable
70
2
0
LTYPE
5
14
100
AcDbSymbolTableRecord
100
AcDbLinetypeTableRecord
2
BYBLOCK
70
0
0
LTYPE
5
15
100
AcDbSymbolTableRecord
100
AcDbLinetypeTableRecord
2
BYLAYER
70
0
0
ENDTAB
0
TABLE
2
LAYER
5
2
100
AcDbSymbolTable
70
3
0
LAYER
5
50
100
AcDbSymbolTableRecord
100
AcDbLayerTableRecord
2
0
70
0
6
CONTINUOUS
0
LAYER
5
51
100
AcDbSymbolTableRecord
100
AcDbLayerTableRecord
2
CUTOUTS
70
0
62
1
6
CONTINUOUS
0
LAYER
5
52
100
AcDbSymbolTableRecord
100
AcDbLayerTableRecord
2
PERIMETER
70
0
62
5
6
CONTINUOUS
0
ENDTAB
0
TABLE
2
STYLE
5
3
100
AcDbSymbolTable
70
1
0
STYLE
5
11
100
AcDbSymbolTableRecord
100
AcDbTextStyleTableRecord
2
STANDARD
70
0
0
ENDTAB
0
TABLE
2
VIEW
5
6
100
AcDbSymbolTable
0
ENDTAB
0
TABLE
2
UCS
5
7
100
AcDbSymbolTable
0
ENDTAB
0
TABLE
2
APPID
5
9
100
AcDbSymbolTable
70
1
0
APPID
5
12
100
AcDbSymbolTableRecord
100
AcDbRegAppTableRecord
2
ACAD
70
0
0
ENDTAB
0
TABLE
2
DIMSTYLE
5
A
100
AcDbSymbolTable
0
ENDTAB
0
TABLE
2
BLOCK_RECORD
5
1
100
AcDbSymbolTable
70
2
0
BLOCK_RECORD
5
1F
100
AcDbSymbolTableRecord
100
AcDbBlockTableRecord
2
*MODEL_SPACE
0
BLOCK_RECORD
5
1B
100
AcDbSymbolTableRecord
100
AcDbBlockTableRecord
2
*PAPER_SPACE
0
ENDTAB
0
ENDSEC
0
SECTION
2
BLOCKS
0
BLOCK
5
20
100
AcDbEntity
100
AcDbBlockBegin
2
*MODEL_SPACE
0
ENDBLK
5
21
100
AcDbEntity
100
AcDbBlockEnd
0
BLOCK
5
1C
100
AcDbEntity
100
AcDbBlockBegin
2
*PAPER_SPACE
0
ENDBLK
5
1D
100
AcDbEntity
100
AcDbBlockEnd
0
ENDSEC
0
SECTION
2
ENTITIES
0
ARC
5
100
100
AcDbEntity
8
PERIMETER
100
AcDbCircle
10
-1.3987061727561026e-15
20
2.7974123455122052e-15
30
0
40
8.5306868635223339
210
0
220
0
230
1
100
AcDbArc
50
91.497253081164786
51
178.12824085314654
0
LINE
5
101
100
AcDbEntity
8
PERIMETER
100
AcDbLine
10
-0.23244256334659996
20
6.6461019364669518
30
0
11
-0.22289850412334522
21
8.527774306366938
31
0
0
ARC
5
102
100
AcDbEntity
8
PERIMETER
100
AcDbCircle
10
-0.23275956647541804
20
6.5836027403999919
30
0
40
0.062499999999999889
210
0
220
-0
230
1
100
AcDbArc
50
89.70939169199481
51
269.70939169199477
0
LINE
5
103
100
AcDbEntity
8
PERIMETER
100
AcDbLine
10
0.26691554455489652
20
6.5182953814667295
30
0
11
-0.23307656960423614
21
6.5211035443330321
31
0
0
ARC
5
104
100
AcDbEntity
8
PERIMETER
100
AcDbCircle
10
0.26728030963946636
20
6.5807943170291292
30
0
40
0.062499999999999556
210
0
220
0
230
1
100
AcDbArc
50
-90.334393896109859
51
89.665606957663812
0
LINE
5
105
100
AcDbEntity
8
PERIMETER
100
AcDbLine
10
0.27863398191744937
20
8.5261352011092004
30
0
11
0.26764507379272939
21
6.6432932525969646
31
0
0
ARC
5
106
100
AcDbEntity
8
PERIMETER
100
AcDbCircle
10
-1.3987061727561026e-15
20
2.7974123455122052e-15
30
0
40
8.5306868635223356
210
0
220
-0
230
1
100
AcDbArc
50
1.4972530811648099
51
88.128240853146337
0
LINE
5
107
100
AcDbEntity
8
PERIMETER
100
AcDbLine
10
6.6461019364669456
20
0.23244256334660346
30
0
11
8.527774306366938
21
0.22289850412334661
31
0
0
ARC
5
108
100
AcDbEntity
8
PERIMETER
100
AcDbCircle
10
6.5836027403999857
20
0.2327595664754212
30
0
40
0.062499999999999889
210
-0
220
0
230
1
100
AcDbArc
50
-0.29060830800384091
51
179.70939083822253
0
LINE
5
109
100
AcDbEntity
8
PERIMETER
100
AcDbLine
10
6.518295381466725
20
-0.26691554455489375
30
0
11
6.5211035443377492
21
0.23307657053554928
31
0
0
ARC
5
10A
100
AcDbEntity
8
PERIMETER
100
AcDbCircle
10
6.5807943170291265
20
-0.26728030963946392
30
0
40
0.062500000000000958
210
0
220
0
230
1
100
AcDbArc
50
179.66560610388998
51
359.66560610388996
0
LINE
5
10B
100
AcDbEntity
8
PERIMETER
100
AcDbLine
10
8.5261352011091969
20
-0.27863398191744798
30
0
11
6.643293252591528
21
-0.26764507472403409
31
0
0
ARC
5
10C
100
AcDbEntity
8
PERIMETER
100
AcDbCircle
10
-1.3987061727561026e-15
20
2.7974123455122052e-15
30
0
40
8.5306868635223374
210
-0
220
0
230
1
100
AcDbArc
50
271.49725308116479
51
358.12824085314628
0
LINE
5
10D
100
AcDbEntity
8
PERIMETER
100
AcDbLine
10
0.23244256334659996
20
-6.6461019364669456
30
0
11
0.22289850412334383
21
-8.527774306366938
31
0
0
ARC
5
10E
100
AcDbEntity
8
PERIMETER
100
AcDbCircle
10
0.23275956647541804
20
-6.5836027403999875
30
0
40
0.062499999999998487
210
0
220
0
230
1
100
AcDbArc
50
-90.290608308005204
51
89.709391691994782
0
LINE
5
10F
100
AcDbEntity
8
PERIMETER
100
AcDbLine
10
-0.26691554455489652
20
-6.5182953814667268
30
0
11
0.23307656960423614
21
-6.5211035443330285
31
0
0
ARC
5
110
100
AcDbEntity
8
PERIMETER
100
AcDbCircle
10
-0.2672803096394657
20
-6.5807943170291283
30
0
40
0.062500000000000958
210
0
220
-0
230
1
100
AcDbArc
50
89.665606103890781
51
269.66560731130909
0
LINE
5
111
100
AcDbEntity
8
PERIMETER
100
AcDbLine
10
-0.27863398191745042
20
-8.5261352011091915
30
0
11
-0.26764507379272939
21
-6.6432932525969646
31
0
0
ARC
5
112
100
AcDbEntity
8
PERIMETER
100
AcDbCircle
10
-1.3987061727561026e-15
20
2.7974123455122052e-15
30
0
40
8.5306868635223339
210
0
220
0
230
1
100
AcDbArc
50
181.49725308116479
51
268.12824085314628
0
LINE
5
113
100
AcDbEntity
8
PERIMETER
100
AcDbLine
10
-6.6461019364669491
20
-0.23244256334659785
30
0
11
-8.527774306366938
21
-0.22289850412334242
31
0
0
ARC
5
114
100
AcDbEntity
8
PERIMETER
100
AcDbCircle
10
-6.5836027403999875
20
-0.2327595664754156
30
0
40
0.062499999999999889
210
0
220
0
230
1
100
AcDbArc
50
179.70939169199613
51
359.70939169199613
0
LINE
5
115
100
AcDbEntity
8
PERIMETER
100
AcDbLine
10
-6.5182953814667268
20
0.26691554455489935
30
0
11
-6.521103544337751
21
-0.23307657053554368
31
0
0
ARC
5
116
100
AcDbEntity
8
PERIMETER
100
AcDbCircle
10
-6.5807943170291283
20
0.26728030963946953
30
0
40
0.062499999999999556
210
-0
220
0
230
1
100
AcDbArc
50
-0.33439389611005682
51
179.66560610388998
0
LINE
5
117
100
AcDbEntity
8
PERIMETER
100
AcDbLine
10
-8.5261352011091951
20
0.27863398191745076
30
0
11
-6.643293252591528
21
0.2676450747240397
31
0
0
ENDSEC
0
SECTION
2
OBJECTS
0
DICTIONARY
5
C
100
AcDbDictionary
3
ACAD_GROUP
350
D
3
ACAD_MLINESTYLE
350
17
0
DICTIONARY
5
D
100
AcDbDictionary
0
DICTIONARY
5
1A
330
C
100
AcDbDictionary
0
DICTIONARY
5
17
100
AcDbDictionary
0
ENDSEC
0
EOF
