0
SECTION
2
HEADER
9
$INSUNITS
70
1
9
$ACADVER
1
AC1014
9
$HANDSEED
5
FFFF
0
ENDSEC
0
SECTION
2
TABLES
0
TABLE
2
VPORT
5
8
100
AcDbSymbolTable
0
ENDTAB
0
TABLE
2
LTYPE
5
5
100
AcDbSymbolTable
70
2
0
LTYPE
5
14
100
AcDbSymbolTableRecord
100
AcDbLinetypeTableRecord
2
BYBLOCK
70
0
0
LTYPE
5
15
100
AcDbSymbolTableRecord
100
AcDbLinetypeTableRecord
2
BYLAYER
70
0
0
ENDTAB
0
TABLE
2
LAYER
5
2
100
AcDbSymbolTable
70
3
0
LAYER
5
50
100
AcDbSymbolTableRecord
100
AcDbLayerTableRecord
2
0
70
0
6
CONTINUOUS
0
LAYER
5
51
100
AcDbSymbolTableRecord
100
AcDbLayerTableRecord
2
CUTOUTS
70
0
62
1
6
CONTINUOUS
0
LAYER
5
52
100
AcDbSymbolTableRecord
100
AcDbLayerTableRecord
2
PERIMETER
70
0
62
5
6
CONTINUOUS
0
ENDTAB
0
TABLE
2
STYLE
5
3
100
AcDbSymbolTable
70
1
0
STYLE
5
11
100
AcDbSymbolTableRecord
100
AcDbTextStyleTableRecord
2
STANDARD
70
0
0
ENDTAB
0
TABLE
2
VIEW
5
6
100
AcDbSymbolTable
0
ENDTAB
0
TABLE
2
UCS
5
7
100
AcDbSymbolTable
0
ENDTAB
0
TABLE
2
APPID
5
9
100
AcDbSymbolTable
70
1
0
APPID
5
12
100
AcDbSymbolTableRecord
100
AcDbRegAppTableRecord
2
ACAD
70
0
0
ENDTAB
0
TABLE
2
DIMSTYLE
5
A
100
AcDbSymbolTable
0
ENDTAB
0
TABLE
2
BLOCK_RECORD
5
1
100
AcDbSymbolTable
70
2
0
BLOCK_RECORD
5
1F
100
AcDbSymbolTableRecord
100
AcDbBlockTableRecord
2
*MODEL_SPACE
0
BLOCK_RECORD
5
1B
100
AcDbSymbolTableRecord
100
AcDbBlockTableRecord
2
*PAPER_SPACE
0
ENDTAB
0
ENDSEC
0
SECTION
2
BLOCKS
0
BLOCK
5
20
100
AcDbEntity
100
AcDbBlockBegin
2
*MODEL_SPACE
0
ENDBLK
5
21
100
AcDbEntity
100
AcDbBlockEnd
0
BLOCK
5
1C
100
AcDbEntity
100
AcDbBlockBegin
2
*PAPER_SPACE
0
ENDBLK
5
1D
100
AcDbEntity
100
AcDbBlockEnd
0
ENDSEC
0
SECTION
2
ENTITIES
0
ARC
5
100
100
AcDbEntity
8
CUTOUTS
100
AcDbCircle
10
-4.7921657453375976
20
-8.018541929132283
30
0
40
0.31496062992127677
210
0
220
0
230
1
100
AcDbArc
50
157.4070680407653
51
269.99999999992053
0
LINE
5
101
100
AcDbEntity
8
CUTOUTS
100
AcDbLine
10
-5.0829555459622702
20
-7.8975399033101068
30
0
11
-3.219370496729185
21
-3.4190072404771974
31
0
0
ARC
5
102
100
AcDbEntity
8
CUTOUTS
100
AcDbCircle
10
-2.9285806961045124
20
-3.5400092662993572
30
0
40
0.31496062992125312
210
-0
220
0
230
1
100
AcDbArc
50
0
51
157.40706804076797
0
LINE
5
103
100
AcDbEntity
8
CUTOUTS
100
AcDbLine
10
-2.6136200661832594
20
-3.5400092662993603
30
0
11
-2.6136200661832705
21
-8.0185419291362283
31
0
0
ARC
5
104
100
AcDbEntity
8
CUTOUTS
100
AcDbCircle
10
-2.9285806961045351
20
-8.0185419291362248
30
0
40
0.31496062992126711
210
0
220
0
230
1
100
AcDbArc
50
269.99999999987784
51
360
0
LINE
5
105
100
AcDbEntity
8
CUTOUTS
100
AcDbLine
10
-2.9285806961052065
20
-8.3335025590574929
30
0
11
-4.7921657453380346
21
-8.333502559053553
31
0
0
ARC
5
106
100
AcDbEntity
8
CUTOUTS
100
AcDbCircle
10
2.9026273619393019
20
-8.0224362626391361
30
0
40
0.31496062992125567
210
0
220
0
230
1
100
AcDbArc
50
179.9234708011607
51
269.92347080123722
0
LINE
5
107
100
AcDbEntity
8
CUTOUTS
100
AcDbLine
10
2.5876670129720849
20
-8.0220155741048007
30
0
11
2.593648926782659
21
-3.5434869062478254
31
0
0
ARC
5
108
100
AcDbEntity
8
CUTOUTS
100
AcDbCircle
10
2.908609275749876
20
-3.543907594782159
30
0
40
0.31496062992125295
210
0
220
-0
230
1
100
AcDbArc
50
22.516402760394723
51
179.9234708011607
0
LINE
5
109
100
AcDbEntity
8
CUTOUTS
100
AcDbLine
10
3.1995604377051117
20
-3.423294080791019
30
0
11
5.0571619107569781
21
-7.9043119132820641
31
0
0
ARC
5
10A
100
AcDbEntity
8
CUTOUTS
100
AcDbCircle
10
4.7662107488003436
20
-8.0249254272736827
30
0
40
0.31496062992272378
210
0
220
0
230
1
100
AcDbArc
50
-90.076529198764561
51
22.516402760377581
0
LINE
5
10B
100
AcDbEntity
8
CUTOUTS
100
AcDbLine
10
4.7657900602664212
20
-8.3398857762423688
30
0
11
2.9022066734053911
21
-8.3373966116063531
31
0
0
LINE
5
10C
100
AcDbEntity
8
PERIMETER
100
AcDbLine
10
-0.29986222166919879
20
-10.261084685285127
30
0
11
0.27091589921702403
21
-10.261465875655277
31
0
0
LINE
5
10D
100
AcDbEntity
8
PERIMETER
100
AcDbLine
10
0.27091589921702403
20
-10.261465875655277
30
0
11
5.5022700523718688
21
-10.238359140589269
31
0
0
ARC
5
10E
100
AcDbEntity
8
PERIMETER
100
AcDbCircle
10
5.5018493758429186
20
-10.553319489572527
30
0
40
0.31496062992125567
210
-0
220
0
230
1
100
AcDbArc
50
-0.076529198839307477
51
89.923472985110749
0
LINE
5
10F
100
AcDbEntity
8
PERIMETER
100
AcDbLine
10
5.8168097248101356
20
-10.553740178106858
30
0
11
5.8156528171192736
21
-11.419891785043955
31
0
0
LINE
5
110
100
AcDbEntity
8
PERIMETER
100
AcDbLine
10
5.8156528171192736
20
-11.419891785043955
30
0
11
7.8235250417853104
21
-11.422573674450357
31
0
0
LINE
5
111
100
AcDbEntity
8
PERIMETER
100
AcDbLine
10
7.8235250417853104
20
-11.422573674450357
30
0
11
7.8261801820603045
21
-9.4347279422507615
31
0
0
LINE
5
112
100
AcDbEntity
8
PERIMETER
100
AcDbLine
10
7.8261801820603045
20
-9.4347279422507615
30
0
11
3.6432436525242724
21
0.65560276267757933
31
0
0
ELLIPSE
5
113
100
AcDbEntity
8
PERIMETER
100
AcDbEllipse
10
0.017673637391053525
20
11.414380200603299
30
0
11
-2.1768135596821954
21
-12.767632484847661
31
0.0
40
0.65354010065040313
41
0.68911293537581408
42
1.6809951728098003
0
LINE
5
114
100
AcDbEntity
8
PERIMETER
100
AcDbLine
10
8.5506169872702102
20
11.404507017429767
30
0
11
6.542764637280726
21
11.413834597917152
31
0
0
ELLIPSE
5
115
100
AcDbEntity
8
PERIMETER
100
AcDbEllipse
10
0.017681572412638211
20
11.414325386033411
30
0
11
0.00064836457022581168
21
7.7540634041074945
31
0.0
40
0.84150499169136517
41
4.6639969847457747
42
4.7123960494403763
0
ARC
5
116
100
AcDbEntity
8
PERIMETER
100
AcDbCircle
10
6.5323323466903869
20
10.97625332597093
30
0
40
0.062500000000001818
210
0
220
0
230
1
100
AcDbArc
50
-92.922234232921738
51
87.466937972247791
0
LINE
5
117
100
AcDbEntity
8
PERIMETER
100
AcDbLine
10
6.5291460654490292
20
10.913834597917155
30
0
11
5.5291568558464101
21
10.918480098787347
31
0
0
LINE
5
118
100
AcDbEntity
8
PERIMETER
100
AcDbLine
10
5.5291568558464101
20
10.918480098787347
30
0
11
5.5245113549762159
21
9.9184908891847332
31
0
0
LINE
5
119
100
AcDbEntity
8
PERIMETER
100
AcDbLine
10
5.5245113549762159
20
9.9184908891847332
30
0
11
6.3991591696504457
21
9.9144276681567778
31
0
0
ARC
5
11A
100
AcDbEntity
8
PERIMETER
100
AcDbCircle
10
6.4090304619276939
20
9.8527121304958474
30
0
40
0.062499999999991833
210
0
220
0
230
1
100
AcDbArc
50
-100.01535230962445
51
99.087385879343245
0
ELLIPSE
5
11B
100
AcDbEntity
8
PERIMETER
100
AcDbEllipse
10
0.017681572412638211
20
11.414325386033411
30
0
11
0.00064836277314109269
21
7.7540419120187929
31
0.0
40
0.84150733343545647
41
3.179609482012915
42
4.5015686607736729
0
LINE
5
11C
100
AcDbEntity
8
PERIMETER
100
AcDbLine
10
0.26503689496123128
20
3.6658654400276989
30
0
11
0.24062066468464907
21
-3.1766572825578039
31
0
0
ARC
5
11D
100
AcDbEntity
8
PERIMETER
100
AcDbCircle
10
0.24039764683888776
20
-3.2391568846608587
30
0
40
0.062499999999997807
210
0
220
0
230
1
100
AcDbArc
50
-90.204448134954674
51
89.795551865045397
0
LINE
5
11E
100
AcDbEntity
8
PERIMETER
100
AcDbLine
10
0.24017462899312642
20
-3.301656486763914
30
0
11
-0.0098249200586736137
21
-3.3011982340518524
31
0
0
LINE
5
11F
100
AcDbEntity
8
PERIMETER
100
AcDbLine
10
-0.0098249200586736137
20
-3.3011982340518524
30
0
11
-0.25982437098954597
21
-3.301322585406786
31
0
0
ARC
5
120
100
AcDbEntity
8
PERIMETER
100
AcDbCircle
10
-0.25985545638212132
20
-3.238822593137201
30
0
40
0.062499999999998598
210
0
220
0
230
1
100
AcDbArc
50
90.028496989960033
51
270.0284969899601
0
LINE
5
121
100
AcDbEntity
8
PERIMETER
100
AcDbLine
10
-0.25988654177469661
20
-3.176322600867616
30
0
11
-0.26328955130873144
21
3.6657357402199557
31
0
0
ELLIPSE
5
122
100
AcDbEntity
8
PERIMETER
100
AcDbEllipse
10
-0.017668855429132071
20
11.414403125003389
30
0
11
-0.0097085996570227279
21
-7.7540325690983289
31
0.0
40
0.84150901608348938
41
4.9069992925377246
42
6.2470218312910859
0
LINE
5
123
100
AcDbEntity
8
PERIMETER
100
AcDbLine
10
-6.4214612465964969
20
9.9229112532900992
30
0
11
-5.5266365157183319
21
9.9257409481577366
31
0
0
LINE
5
124
100
AcDbEntity
8
PERIMETER
100
AcDbLine
10
-5.5266365157183319
20
9.9257409481577366
30
0
11
-5.5297987894257163
21
10.925735948157737
31
0
0
LINE
5
125
100
AcDbEntity
8
PERIMETER
100
AcDbLine
10
-5.5297987894257163
20
10.925735948157737
30
0
11
-6.529793789425562
21
10.922573674447213
31
0
0
ARC
5
126
100
AcDbEntity
8
PERIMETER
100
AcDbCircle
10
-6.532898686067778
20
10.984996503744034
30
0
40
0.062500000004632031
210
0
220
0
230
1
100
AcDbArc
50
92.458149012310344
51
272.84753164990553
0
ELLIPSE
5
127
100
AcDbEntity
8
PERIMETER
100
AcDbEllipse
10
-0.017668855429132071
20
11.414403125003389
30
0
11
-0.0097059714045676666
21
-7.7519334450375688
31
0.0
40
0.8417364724898998
41
4.7123888927530295
42
4.7607989665303858
0
LINE
5
128
100
AcDbEntity
8
PERIMETER
100
AcDbLine
10
-6.5427539675809605
20
11.422573674450357
30
0
11
-8.5506169872702102
21
11.415927962750704
31
0
0
ELLIPSE
5
129
100
AcDbEntity
8
PERIMETER
100
AcDbEllipse
10
-0.017668855429132071
20
11.414403125003389
30
0
11
-2.1597580227973676
21
12.770528363901439
31
0.0
40
0.65354004813397315
41
1.4605974367573089
42
2.4524797307812198
0
LINE
5
12A
100
AcDbEntity
8
PERIMETER
100
AcDbLine
10
-3.6576053838627365
20
0.66047812003172457
30
0
11
-7.8540155026339766
21
-9.4242560278967265
31
0
0
LINE
5
12B
100
AcDbEntity
8
PERIMETER
100
AcDbLine
10
-7.8540155026339766
20
-9.4242560278967265
30
0
11
-7.8540155026339766
21
-11.412103533312289
31
0
0
LINE
5
12C
100
AcDbEntity
8
PERIMETER
100
AcDbLine
10
-7.8540155026339766
20
-11.412103533312289
30
0
11
-5.8461414868859478
21
-11.41210353331409
31
0
0
LINE
5
12D
100
AcDbEntity
8
PERIMETER
100
AcDbLine
10
-5.8461414868859478
20
-11.41210353331409
30
0
11
-5.8461414868859247
21
-10.545951153743905
31
0
0
ARC
5
12E
100
AcDbEntity
8
PERIMETER
100
AcDbCircle
10
-5.5311808569646717
20
-10.5459511537439
30
0
40
0.31496062992124774
210
0
220
-0
230
1
100
AcDbArc
50
89.999997816053096
51
180
0
LINE
5
12F
100
AcDbEntity
8
PERIMETER
100
AcDbLine
10
-5.5311808449592972
20
-10.230990523822653
30
0
11
-0.29986222166919879
21
-10.261084685285127
31
0
0
ENDSEC
0
SECTION
2
OBJECTS
0
DICTIONARY
5
C
100
AcDbDictionary
3
ACAD_GROUP
350
D
3
ACAD_MLINESTYLE
350
17
0
DICTIONARY
5
D
100
AcDbDictionary
0
DICTIONARY
5
1A
330
C
100
AcDbDictionary
0
DICTIONARY
5
17
100
AcDbDictionary
0
ENDSEC
0
EOF
