0
SECTION
2
HEADER
9
$ANGDIR
70
1
9
$AUNITS
70
0
9
$PROJECTNAME
1
Schematic_Node v4
9
$TDCREATE
40
2460246.31039240
9
$INSUNITS
70
4
0
ENDSEC
0
SECTION
2
ENTITIES
0
POLYLINE
66
1
8
outline
10
0.0
20
0.0
30
0.0
70
1
0
VERTEX
8
0
10
0
20
0
30
0
0
VERTEX
8
0
10
160
20
0
30
0
0
VERTEX
8
0
10
160
20
100
30
0
0
VERTEX
8
0
10
0
20
100
30
0
0
VERTEX
8
0
10
0
20
0
30
0
0
SEQEND
0
POLYLINE
66
1
8
1_copper
10
0.0
20
0.0
30
0.0
70
1
0
VERTEX
8
0
10
69.56895
20
40.980112500000004
30
0
0
VERTEX
8
0
10
69.58605
20
40.989984375
30
0
0
VERTEX
8
0
10
69.600015625
20
41.00395
30
0
0
VERTEX
8
0
10
69.6098875
20
41.02105
30
0
0
VERTEX
8
0
10
69.61500000000001
20
41.040125
30
0
0
VERTEX
8
0
10
69.61500000000001
20
41.509875
30
0
0
VERTEX
8
0
10
69.6098875
20
41.52895
30
0
0
VERTEX
8
0
10
69.600015625
20
41.54605
30
0
0
VERTEX
8
0
10
69.58605
20
41.560015625000005
30
0
0
VERTEX
8
0
10
69.56895
20
41.5698875
30
0
0
VERTEX
8
0
10
69.549875
20
41.575
30
0
0
VERTEX
8
0
10
67.780125
20
41.575
30
0
0
VERTEX
8
0
10
67.76105
20
41.5698875
30
0
0
VERTEX
8
0
10
67.74395
20
41.560015625000005
30
0
0
VERTEX
8
0
10
67.729984375
20
41.54605
30
0
0
VERTEX
8
0
10
67.7201125
20
41.52895
30
0
0
VERTEX
8
0
10
67.715
20
41.509875
30
0
0
VERTEX
8
0
10
67.715
20
41.040125
30
0
0
VERTEX
8
0
10
67.7201125
20
41.02105
30
0
0
VERTEX
8
0
10
67.729984375
20
41.00395
30
0
0
VERTEX
8
0
10
67.74395
20
40.989984375
30
0
0
VERTEX
8
0
10
67.76105
20
40.980112500000004
30
0
0
VERTEX
8
0
10
67.780125
20
40.975
30
0
0
VERTEX
8
0
10
69.549875
20
40.975
30
0
0
SEQEND
0
POLYLINE
66
1
8
1_copper
10
0.0
20
0.0
30
0.0
70
1
0
VERTEX
8
0
10
69.56895
20
39.7101125
30
0
0
VERTEX
8
0
10
69.58605
20
39.719984375
30
0
0
VERTEX
8
0
10
69.600015625
20
39.73395
30
0
0
VERTEX
8
0
10
69.6098875
20
39.75105
30
0
0
VERTEX
8
0
10
69.61500000000001
20
39.770125
30
0
0
VERTEX
8
0
10
69.61500000000001
20
40.239875000000005
30
0
0
VERTEX
8
0
10
69.6098875
20
40.25895
30
0
0
VERTEX
8
0
10
69.600015625
20
40.276050000000005
30
0
0
VERTEX
8
0
10
69.58605
20
40.290015625
30
0
0
VERTEX
8
0
10
69.56895
20
40.299887500000004
30
0
0
VERTEX
8
0
10
69.549875
20
40.305
30
0
0
VERTEX
8
0
10
67.780125
20
40.305
30
0
0
VERTEX
8
0
10
67.76105
20
40.299887500000004
30
0
0
VERTEX
8
0
10
67.74395
20
40.290015625
30
0
0
VERTEX
8
0
10
67.729984375
20
40.276050000000005
30
0
0
VERTEX
8
0
10
67.7201125
20
40.25895
30
0
0
VERTEX
8
0
10
67.715
20
40.239875000000005
30
0
0
VERTEX
8
0
10
67.715
20
39.770125
30
0
0
VERTEX
8
0
10
67.7201125
20
39.75105
30
0
0
VERTEX
8
0
10
67.729984375
20
39.73395
30
0
0
VERTEX
8
0
10
67.74395
20
39.719984375
30
0
0
VERTEX
8
0
10
67.76105
20
39.7101125
30
0
0
VERTEX
8
0
10
67.780125
20
39.705000000000005
30
0
0
VERTEX
8
0
10
69.549875
20
39.705000000000005
30
0
0
SEQEND
0
POLYLINE
66
1
8
1_copper
10
0.0
20
0.0
30
0.0
70
1
0
VERTEX
8
0
10
85.167534375
20
37.76608125
30
0
0
VERTEX
8
0
10
85.19873750000001
20
37.786928125
30
0
0
VERTEX
8
0
10
86.761971875
20
39.3501625
30
0
0
VERTEX
8
0
10
86.78281875
20
39.381365625
30
0
0
VERTEX
8
0
10
86.797178125
20
39.416034375
30
0
0
VERTEX
8
0
10
86.8045
20
39.4528375
30
0
0
VERTEX
8
0
10
86.8045
20
50.894962500000005
30
0
0
VERTEX
8
0
10
86.797178125
20
50.931765625000004
30
0
0
VERTEX
8
0
10
86.78281875
20
50.966434375000006
30
0
0
VERTEX
8
0
10
86.761971875
20
50.9976375
30
0
0
VERTEX
8
0
10
86.4306375
20
51.328971875
30
0
0
VERTEX
8
0
10
86.399434375
20
51.349818750000004
30
0
0
VERTEX
8
0
10
86.364765625
20
51.364178125
30
0
0
VERTEX
8
0
10
86.3279625
20
51.371500000000005
30
0
0
VERTEX
8
0
10
84.77250000000001
20
51.371500000000005
30
0
0
VERTEX
8
0
10
84.77250000000001
20
51.816
30
0
0
VERTEX
8
0
10
82.8675
20
51.816
30
0
0
VERTEX
8
0
10
82.8675
20
51.1302
30
0
0
VERTEX
8
0
10
82.08800625
20
51.1302
30
0
0
VERTEX
8
0
10
82.051203125
20
51.122878125
30
0
0
VERTEX
8
0
10
82.016534375
20
51.10851875
30
0
0
VERTEX
8
0
10
81.98533125
20
51.087671875000005
30
0
0
VERTEX
8
0
10
78.96715937500001
20
48.069500000000005
30
0
0
VERTEX
8
0
10
78.4225
20
48.069500000000005
30
0
0
VERTEX
8
0
10
78.4225
20
48.514
30
0
0
VERTEX
8
0
10
76.5175
20
48.514
30
0
0
VERTEX
8
0
10
76.5175
20
47.244
30
0
0
VERTEX
8
0
10
76.57829062500001
20
47.244
30
0
0
VERTEX
8
0
10
73.74255000000001
20
44.408259375
30
0
0
VERTEX
8
0
10
71.3938375
20
46.756971875000005
30
0
0
VERTEX
8
0
10
71.362634375
20
46.77781875
30
0
0
VERTEX
8
0
10
71.327965625
20
46.792178125
30
0
0
VERTEX
8
0
10
71.2911625
20
46.7995
30
0
0
VERTEX
8
0
10
53.980306250000005
20
46.7995
30
0
0
VERTEX
8
0
10
53.943503125
20
46.792178125
30
0
0
VERTEX
8
0
10
53.908834375000005
20
46.77781875
30
0
0
VERTEX
8
0
10
53.87763125
20
46.756971875000005
30
0
0
VERTEX
8
0
10
52.214128125
20
45.09346875
30
0
0
VERTEX
8
0
10
52.193281250000005
20
45.062265625
30
0
0
VERTEX
8
0
10
52.178921875
20
45.027596875
30
0
0
VERTEX
8
0
10
52.171600000000005
20
44.99079375
30
0
0
VERTEX
8
0
10
52.171600000000005
20
41.165006250000005
30
0
0
VERTEX
8
0
10
52.178921875
20
41.128203125
30
0
0
VERTEX
8
0
10
52.193281250000005
20
41.093534375000004
30
0
0
VERTEX
8
0
10
52.214128125
20
41.06233125
30
0
0
VERTEX
8
0
10
52.441531250000004
20
40.834928125000005
30
0
0
VERTEX
8
0
10
52.472734375
20
40.81408125
30
0
0
VERTEX
8
0
10
52.507403125
20
40.799721875
30
0
0
VERTEX
8
0
10
52.54420625
20
40.7924
30
0
0
VERTEX
8
0
10
54.188190625000004
20
40.7924
30
0
0
VERTEX
8
0
10
56.515
20
38.465590625000004
30
0
0
VERTEX
8
0
10
56.515
20
36.83
30
0
0
VERTEX
8
0
10
57.785000000000004
20
36.83
30
0
0
VERTEX
8
0
10
57.785000000000004
20
39.370000000000005
30
0
0
VERTEX
8
0
10
56.515
20
39.370000000000005
30
0
0
VERTEX
8
0
10
56.515
20
39.004409375
30
0
0
VERTEX
8
0
10
54.388537500000005
20
41.130871875000004
30
0
0
VERTEX
8
0
10
54.357334375
20
41.15171875
30
0
0
VERTEX
8
0
10
54.322665625
20
41.166078125
30
0
0
VERTEX
8
0
10
54.2858625
20
41.1734
30
0
0
VERTEX
8
0
10
52.641878125000005
20
41.1734
30
0
0
VERTEX
8
0
10
52.552600000000005
20
41.262678125
30
0
0
VERTEX
8
0
10
52.552600000000005
20
44.893121875000006
30
0
0
VERTEX
8
0
10
54.077978125
20
46.4185
30
0
0
VERTEX
8
0
10
71.19349062500001
20
46.4185
30
0
0
VERTEX
8
0
10
73.473140625
20
44.138850000000005
30
0
0
VERTEX
8
0
10
73.461228125
20
44.126937500000004
30
0
0
VERTEX
8
0
10
73.44038125
20
44.095734375
30
0
0
VERTEX
8
0
10
73.426021875
20
44.061065625000005
30
0
0
VERTEX
8
0
10
73.4187
20
44.0242625
30
0
0
VERTEX
8
0
10
73.4187
20
42.845
30
0
0
VERTEX
8
0
10
72.69012500000001
20
42.845
30
0
0
VERTEX
8
0
10
72.67105000000001
20
42.8398875
30
0
0
VERTEX
8
0
10
72.65395000000001
20
42.830015625
30
0
0
VERTEX
8
0
10
72.639984375
20
42.816050000000004
30
0
0
VERTEX
8
0
10
72.63011250000001
20
42.798950000000005
30
0
0
VERTEX
8
0
10
72.625
20
42.779875000000004
30
0
0
VERTEX
8
0
10
72.625
20
42.310125
30
0
0
VERTEX
8
0
10
72.63011250000001
20
42.29105
30
0
0
VERTEX
8
0
10
72.639984375
20
42.27395
30
0
0
VERTEX
8
0
10
72.65395000000001
20
42.259984375
30
0
0
VERTEX
8
0
10
72.67105000000001
20
42.2501125
30
0
0
VERTEX
8
0
10
72.69012500000001
20
42.245000000000005
30
0
0
VERTEX
8
0
10
74.459875
20
42.245000000000005
30
0
0
VERTEX
8
0
10
74.47895
20
42.2501125
30
0
0
VERTEX
8
0
10
74.49605
20
42.259984375
30
0
0
VERTEX
8
0
10
74.51001562500001
20
42.27395
30
0
0
VERTEX
8
0
10
74.51988750000001
20
42.29105
30
0
0
VERTEX
8
0
10
74.525
20
42.310125
30
0
0
VERTEX
8
0
10
74.525
20
42.779875000000004
30
0
0
VERTEX
8
0
10
74.51988750000001
20
42.798950000000005
30
0
0
VERTEX
8
0
10
74.51001562500001
20
42.816050000000004
30
0
0
VERTEX
8
0
10
74.49605
20
42.830015625
30
0
0
VERTEX
8
0
10
74.47895
20
42.8398875
30
0
0
VERTEX
8
0
10
74.459875
20
42.845
30
0
0
VERTEX
8
0
10
73.7997
20
42.845
30
0
0
VERTEX
8
0
10
73.7997
20
43.926590625
30
0
0
VERTEX
8
0
10
77.117109375
20
47.244
30
0
0
VERTEX
8
0
10
78.4225
20
47.244
30
0
0
VERTEX
8
0
10
78.4225
20
47.688500000000005
30
0
0
VERTEX
8
0
10
79.06483125
20
47.688500000000005
30
0
0
VERTEX
8
0
10
79.101634375
20
47.695821875
30
0
0
VERTEX
8
0
10
79.136303125
20
47.710181250000005
30
0
0
VERTEX
8
0
10
79.16750625
20
47.731028125
30
0
0
VERTEX
8
0
10
82.18567812500001
20
50.7492
30
0
0
VERTEX
8
0
10
82.8675
20
50.7492
30
0
0
VERTEX
8
0
10
82.8675
20
50.546
30
0
0
VERTEX
8
0
10
84.77250000000001
20
50.546
30
0
0
VERTEX
8
0
10
84.77250000000001
20
50.990500000000004
30
0
0
VERTEX
8
0
10
86.23029062500001
20
50.990500000000004
30
0
0
VERTEX
8
0
10
86.4235
20
50.797290625
30
0
0
VERTEX
8
0
10
86.4235
20
39.550509375000004
30
0
0
VERTEX
8
0
10
84.998390625
20
38.1254
30
0
0
VERTEX
8
0
10
79.3181375
20
38.1254
30
0
0
VERTEX
8
0
10
79.281334375
20
38.118078125000004
30
0
0
VERTEX
8
0
10
79.246665625
20
38.10371875
30
0
0
VERTEX
8
0
10
79.2154625
20
38.082871875
30
0
0
VERTEX
8
0
10
71.060928125
20
29.9283375
30
0
0
VERTEX
8
0
10
71.04008125
20
29.897134375
30
0
0
VERTEX
8
0
10
71.025721875
20
29.862465625000002
30
0
0
VERTEX
8
0
10
71.0184
20
29.8256625
30
0
0
VERTEX
8
0
10
71.0184
20
29.630000000000003
30
0
0
VERTEX
8
0
10
70.36
20
29.630000000000003
30
0
0
VERTEX
8
0
10
70.36
20
26.330000000000002
30
0
0
VERTEX
8
0
10
71.88000000000001
20
26.330000000000002
30
0
0
VERTEX
8
0
10
71.88000000000001
20
29.630000000000003
30
0
0
VERTEX
8
0
10
71.3994
20
29.630000000000003
30
0
0
VERTEX
8
0
10
71.3994
20
29.727990625
30
0
0
VERTEX
8
0
10
79.41580937500001
20
37.7444
30
0
0
VERTEX
8
0
10
85.0960625
20
37.7444
30
0
0
VERTEX
8
0
10
85.13286562500001
20
37.751721875
30
0
0
SEQEND
0
POLYLINE
66
1
8
1_copper
10
0.0
20
0.0
30
0.0
70
1
0
VERTEX
8
0
10
68.098734375
20
34.832381250000005
30
0
0
VERTEX
8
0
10
68.1299375
20
34.853228125
30
0
0
VERTEX
8
0
10
70.29007187500001
20
37.0133625
30
0
0
VERTEX
8
0
10
70.31091875
20
37.044565625000004
30
0
0
VERTEX
8
0
10
70.325278125
20
37.079234375
30
0
0
VERTEX
8
0
10
70.3326
20
37.116037500000004
30
0
0
VERTEX
8
0
10
70.3326
20
42.424062500000005
30
0
0
VERTEX
8
0
10
70.325278125
20
42.460865625000004
30
0
0
VERTEX
8
0
10
70.31091875
20
42.495534375000005
30
0
0
VERTEX
8
0
10
70.29007187500001
20
42.5267375
30
0
0
VERTEX
8
0
10
70.2635375
20
42.553271875
30
0
0
VERTEX
8
0
10
70.23233437500001
20
42.574118750000004
30
0
0
VERTEX
8
0
10
70.197665625
20
42.588478125
30
0
0
VERTEX
8
0
10
70.16086250000001
20
42.595800000000004
30
0
0
VERTEX
8
0
10
69.61500000000001
20
42.595800000000004
30
0
0
VERTEX
8
0
10
69.61500000000001
20
42.779875000000004
30
0
0
VERTEX
8
0
10
69.6098875
20
42.798950000000005
30
0
0
VERTEX
8
0
10
69.600015625
20
42.816050000000004
30
0
0
VERTEX
8
0
10
69.58605
20
42.830015625
30
0
0
VERTEX
8
0
10
69.56895
20
42.8398875
30
0
0
VERTEX
8
0
10
69.549875
20
42.845
30
0
0
VERTEX
8
0
10
67.780125
20
42.845
30
0
0
VERTEX
8
0
10
67.76105
20
42.8398875
30
0
0
VERTEX
8
0
10
67.74395
20
42.830015625
30
0
0
VERTEX
8
0
10
67.729984375
20
42.816050000000004
30
0
0
VERTEX
8
0
10
67.7201125
20
42.798950000000005
30
0
0
VERTEX
8
0
10
67.715
20
42.779875000000004
30
0
0
VERTEX
8
0
10
67.715
20
42.310125
30
0
0
VERTEX
8
0
10
67.7201125
20
42.29105
30
0
0
VERTEX
8
0
10
67.729984375
20
42.27395
30
0
0
VERTEX
8
0
10
67.74395
20
42.259984375
30
0
0
VERTEX
8
0
10
67.76105
20
42.2501125
30
0
0
VERTEX
8
0
10
67.780125
20
42.245000000000005
30
0
0
VERTEX
8
0
10
68.70561562500001
20
42.245000000000005
30
0
0
VERTEX
8
0
10
68.718365625
20
42.236481250000004
30
0
0
VERTEX
8
0
10
68.71959062500001
20
42.235975
30
0
0
VERTEX
8
0
10
68.720696875
20
42.23525625
30
0
0
VERTEX
8
0
10
68.736984375
20
42.22876875
30
0
0
VERTEX
8
0
10
68.753034375
20
42.222121875
30
0
0
VERTEX
8
0
10
68.754315625
20
42.221865625
30
0
0
VERTEX
8
0
10
68.755559375
20
42.221371875
30
0
0
VERTEX
8
0
10
68.772828125
20
42.218184375
30
0
0
VERTEX
8
0
10
68.7898375
20
42.214800000000004
30
0
0
VERTEX
8
0
10
68.791159375
20
42.214800000000004
30
0
0
VERTEX
8
0
10
68.7924625
20
42.214559375
30
0
0
VERTEX
8
0
10
68.809971875
20
42.214800000000004
30
0
0
VERTEX
8
0
10
69.9516
20
42.214800000000004
30
0
0
VERTEX
8
0
10
69.9516
20
37.213709375
30
0
0
VERTEX
8
0
10
67.929590625
20
35.191700000000004
30
0
0
VERTEX
8
0
10
54.8005
20
35.191700000000004
30
0
0
VERTEX
8
0
10
54.8005
20
36.83
30
0
0
VERTEX
8
0
10
55.245000000000005
20
36.83
30
0
0
VERTEX
8
0
10
55.245000000000005
20
39.370000000000005
30
0
0
VERTEX
8
0
10
53.975
20
39.370000000000005
30
0
0
VERTEX
8
0
10
53.975
20
38.2905
30
0
0
VERTEX
8
0
10
51.983809375
20
38.2905
30
0
0
VERTEX
8
0
10
50.723800000000004
20
39.550509375000004
30
0
0
VERTEX
8
0
10
50.723800000000004
20
46.530090625
30
0
0
VERTEX
8
0
10
54.942909375
20
50.7492
30
0
0
VERTEX
8
0
10
76.5175
20
50.7492
30
0
0
VERTEX
8
0
10
76.5175
20
50.546
30
0
0
VERTEX
8
0
10
78.4225
20
50.546
30
0
0
VERTEX
8
0
10
78.4225
20
51.816
30
0
0
VERTEX
8
0
10
76.5175
20
51.816
30
0
0
VERTEX
8
0
10
76.5175
20
51.1302
30
0
0
VERTEX
8
0
10
54.8452375
20
51.1302
30
0
0
VERTEX
8
0
10
54.808434375000004
20
51.122878125
30
0
0
VERTEX
8
0
10
54.773765625
20
51.10851875
30
0
0
VERTEX
8
0
10
54.742562500000005
20
51.087671875000005
30
0
0
VERTEX
8
0
10
50.385328125
20
46.7304375
30
0
0
VERTEX
8
0
10
50.364481250000004
20
46.699234375
30
0
0
VERTEX
8
0
10
50.350121875
20
46.664565625
30
0
0
VERTEX
8
0
10
50.342800000000004
20
46.6277625
30
0
0
VERTEX
8
0
10
50.342800000000004
20
39.4528375
30
0
0
VERTEX
8
0
10
50.350121875
20
39.416034375
30
0
0
VERTEX
8
0
10
50.364481250000004
20
39.381365625
30
0
0
VERTEX
8
0
10
50.385328125
20
39.3501625
30
0
0
VERTEX
8
0
10
51.783462500000006
20
37.952028125000005
30
0
0
VERTEX
8
0
10
51.814665625
20
37.93118125
30
0
0
VERTEX
8
0
10
51.849334375000005
20
37.916821875000004
30
0
0
VERTEX
8
0
10
51.886137500000004
20
37.9095
30
0
0
VERTEX
8
0
10
53.975
20
37.9095
30
0
0
VERTEX
8
0
10
53.975
20
36.83
30
0
0
VERTEX
8
0
10
54.4195
20
36.83
30
0
0
VERTEX
8
0
10
54.4195
20
34.9824375
30
0
0
VERTEX
8
0
10
54.426821875
20
34.945634375000004
30
0
0
VERTEX
8
0
10
54.44118125
20
34.910965625
30
0
0
VERTEX
8
0
10
54.462028125
20
34.8797625
30
0
0
VERTEX
8
0
10
54.4885625
20
34.853228125
30
0
0
VERTEX
8
0
10
54.519765625000005
20
34.832381250000005
30
0
0
VERTEX
8
0
10
54.554434375
20
34.818021875
30
0
0
VERTEX
8
0
10
54.591237500000005
20
34.810700000000004
30
0
0
VERTEX
8
0
10
66.0146
20
34.810700000000004
30
0
0
VERTEX
8
0
10
66.0146
20
24.8478375
30
0
0
VERTEX
8
0
10
66.021921875
20
24.811034375000002
30
0
0
VERTEX
8
0
10
66.03628125
20
24.776365625
30
0
0
VERTEX
8
0
10
66.057128125
20
24.745162500000003
30
0
0
VERTEX
8
0
10
66.3503625
20
24.451928125000002
30
0
0
VERTEX
8
0
10
66.38156562500001
20
24.431081250000002
30
0
0
VERTEX
8
0
10
66.416234375
20
24.416721875
30
0
0
VERTEX
8
0
10
66.45303750000001
20
24.4094
30
0
0
VERTEX
8
0
10
73.6787625
20
24.4094
30
0
0
VERTEX
8
0
10
73.715565625
20
24.416721875
30
0
0
VERTEX
8
0
10
73.750234375
20
24.431081250000002
30
0
0
VERTEX
8
0
10
73.78143750000001
20
24.451928125000002
30
0
0
VERTEX
8
0
10
73.807971875
20
24.478462500000003
30
0
0
VERTEX
8
0
10
73.82881875000001
20
24.509665625
30
0
0
VERTEX
8
0
10
73.84317812500001
20
24.544334375000002
30
0
0
VERTEX
8
0
10
73.8505
20
24.5811375
30
0
0
VERTEX
8
0
10
73.8505
20
26.330000000000002
30
0
0
VERTEX
8
0
10
74.42
20
26.330000000000002
30
0
0
VERTEX
8
0
10
74.42
20
29.630000000000003
30
0
0
VERTEX
8
0
10
72.9
20
29.630000000000003
30
0
0
VERTEX
8
0
10
72.9
20
26.330000000000002
30
0
0
VERTEX
8
0
10
73.4695
20
26.330000000000002
30
0
0
VERTEX
8
0
10
73.4695
20
24.7904
30
0
0
VERTEX
8
0
10
66.550709375
20
24.7904
30
0
0
VERTEX
8
0
10
66.3956
20
24.945509375
30
0
0
VERTEX
8
0
10
66.3956
20
34.810700000000004
30
0
0
VERTEX
8
0
10
68.0272625
20
34.810700000000004
30
0
0
VERTEX
8
0
10
68.064065625
20
34.818021875
30
0
0
SEQEND
0
POLYLINE
66
1
8
1_copper
10
0.0
20
0.0
30
0.0
70
1
0
VERTEX
8
0
10
54.879409375
20
42.29
30
0
0
VERTEX
8
0
10
55.245000000000005
20
42.29
30
0
0
VERTEX
8
0
10
55.245000000000005
20
44.830000000000005
30
0
0
VERTEX
8
0
10
53.975
20
44.830000000000005
30
0
0
VERTEX
8
0
10
53.975
20
42.29
30
0
0
VERTEX
8
0
10
54.4195
20
42.29
30
0
0
VERTEX
8
0
10
54.4195
20
42.271237500000005
30
0
0
VERTEX
8
0
10
54.426821875
20
42.234434375
30
0
0
VERTEX
8
0
10
54.44118125
20
42.199765625000005
30
0
0
VERTEX
8
0
10
54.462028125
20
42.1685625
30
0
0
VERTEX
8
0
10
56.101462500000004
20
40.529128125
30
0
0
VERTEX
8
0
10
56.132665625
20
40.50828125
30
0
0
VERTEX
8
0
10
56.167334375
20
40.493921875000005
30
0
0
VERTEX
8
0
10
56.2041375
20
40.4866
30
0
0
VERTEX
8
0
10
63.739590625000005
20
40.4866
30
0
0
VERTEX
8
0
10
65.4359625
20
38.790228125
30
0
0
VERTEX
8
0
10
65.467165625
20
38.76938125
30
0
0
VERTEX
8
0
10
65.501834375
20
38.755021875000004
30
0
0
VERTEX
8
0
10
65.53863750000001
20
38.7477
30
0
0
VERTEX
8
0
10
67.715
20
38.7477
30
0
0
VERTEX
8
0
10
67.715
20
38.500125000000004
30
0
0
VERTEX
8
0
10
67.7201125
20
38.48105
30
0
0
VERTEX
8
0
10
67.729984375
20
38.463950000000004
30
0
0
VERTEX
8
0
10
67.74395
20
38.449984375
30
0
0
VERTEX
8
0
10
67.76105
20
38.440112500000005
30
0
0
VERTEX
8
0
10
67.780125
20
38.435
30
0
0
VERTEX
8
0
10
69.549875
20
38.435
30
0
0
VERTEX
8
0
10
69.56895
20
38.440112500000005
30
0
0
VERTEX
8
0
10
69.58605
20
38.449984375
30
0
0
VERTEX
8
0
10
69.600015625
20
38.463950000000004
30
0
0
VERTEX
8
0
10
69.6098875
20
38.48105
30
0
0
VERTEX
8
0
10
69.61500000000001
20
38.500125000000004
30
0
0
VERTEX
8
0
10
69.61500000000001
20
38.969875
30
0
0
VERTEX
8
0
10
69.6098875
20
38.98895
30
0
0
VERTEX
8
0
10
69.600015625
20
39.00605
30
0
0
VERTEX
8
0
10
69.58605
20
39.020015625
30
0
0
VERTEX
8
0
10
69.56895
20
39.0298875
30
0
0
VERTEX
8
0
10
69.549875
20
39.035000000000004
30
0
0
VERTEX
8
0
10
68.70633125
20
39.035000000000004
30
0
0
VERTEX
8
0
10
68.702646875
20
39.040515625000005
30
0
0
VERTEX
8
0
10
68.69511250000001
20
39.052953125
30
0
0
VERTEX
8
0
10
68.692240625
20
39.056090625
30
0
0
VERTEX
8
0
10
68.68987187500001
20
39.0596375
30
0
0
VERTEX
8
0
10
68.67957187500001
20
39.0699375
30
0
0
VERTEX
8
0
10
68.66978125
20
39.0806375
30
0
0
VERTEX
8
0
10
68.66635625
20
39.083153125
30
0
0
VERTEX
8
0
10
68.6633375
20
39.086171875000005
30
0
0
VERTEX
8
0
10
68.65123125000001
20
39.094259375
30
0
0
VERTEX
8
0
10
68.639534375
20
39.102850000000004
30
0
0
VERTEX
8
0
10
68.635675
20
39.104653125
30
0
0
VERTEX
8
0
10
68.632134375
20
39.10701875
30
0
0
VERTEX
8
0
10
68.618725
20
39.112571875
30
0
0
VERTEX
8
0
10
68.6055375
20
39.118734375
30
0
0
VERTEX
8
0
10
68.60139062500001
20
39.119753125
30
0
0
VERTEX
8
0
10
68.597465625
20
39.121378125
30
0
0
VERTEX
8
0
10
68.583240625
20
39.124209375
30
0
0
VERTEX
8
0
10
68.56909375000001
20
39.12768125
30
0
0
VERTEX
8
0
10
68.564834375
20
39.127868750000005
30
0
0
VERTEX
8
0
10
68.5606625
20
39.1287
30
0
0
VERTEX
8
0
10
68.546121875
20
39.1287
30
0
0
VERTEX
8
0
10
68.53160625000001
20
39.129343750000004
30
0
0
VERTEX
8
0
10
68.527403125
20
39.1287
30
0
0
VERTEX
8
0
10
65.636309375
20
39.1287
30
0
0
VERTEX
8
0
10
63.939937500000006
20
40.825071875
30
0
0
VERTEX
8
0
10
63.908734375
20
40.84591875
30
0
0
VERTEX
8
0
10
63.874065625
20
40.860278125
30
0
0
VERTEX
8
0
10
63.8372625
20
40.8676
30
0
0
VERTEX
8
0
10
56.301809375000005
20
40.8676
30
0
0
SEQEND
0
POLYLINE
66
1
8
1_copper
10
0.0
20
0.0
30
0.0
70
1
0
VERTEX
8
0
10
72.12867812500001
20
42.460865625000004
30
0
0
VERTEX
8
0
10
72.11431875000001
20
42.495534375000005
30
0
0
VERTEX
8
0
10
72.093471875
20
42.5267375
30
0
0
VERTEX
8
0
10
71.00013750000001
20
43.620071875
30
0
0
VERTEX
8
0
10
70.968934375
20
43.640918750000004
30
0
0
VERTEX
8
0
10
70.93426562500001
20
43.655278125
30
0
0
VERTEX
8
0
10
70.8974625
20
43.662600000000005
30
0
0
VERTEX
8
0
10
57.785000000000004
20
43.662600000000005
30
0
0
VERTEX
8
0
10
57.785000000000004
20
44.830000000000005
30
0
0
VERTEX
8
0
10
56.515
20
44.830000000000005
30
0
0
VERTEX
8
0
10
56.515
20
42.29
30
0
0
VERTEX
8
0
10
57.785000000000004
20
42.29
30
0
0
VERTEX
8
0
10
57.785000000000004
20
43.281600000000005
30
0
0
VERTEX
8
0
10
70.799790625
20
43.281600000000005
30
0
0
VERTEX
8
0
10
71.75500000000001
20
42.326390625
30
0
0
VERTEX
8
0
10
71.75500000000001
20
38.9194375
30
0
0
VERTEX
8
0
10
71.762321875
20
38.882634375
30
0
0
VERTEX
8
0
10
71.77668125000001
20
38.847965625
30
0
0
VERTEX
8
0
10
71.797528125
20
38.8167625
30
0
0
VERTEX
8
0
10
71.8240625
20
38.790228125
30
0
0
VERTEX
8
0
10
71.855265625
20
38.76938125
30
0
0
VERTEX
8
0
10
71.88993437500001
20
38.755021875000004
30
0
0
VERTEX
8
0
10
71.9267375
20
38.7477
30
0
0
VERTEX
8
0
10
72.625
20
38.7477
30
0
0
VERTEX
8
0
10
72.625
20
38.500125000000004
30
0
0
VERTEX
8
0
10
72.63011250000001
20
38.48105
30
0
0
VERTEX
8
0
10
72.639984375
20
38.463950000000004
30
0
0
VERTEX
8
0
10
72.65395000000001
20
38.449984375
30
0
0
VERTEX
8
0
10
72.67105000000001
20
38.440112500000005
30
0
0
VERTEX
8
0
10
72.69012500000001
20
38.435
30
0
0
VERTEX
8
0
10
74.459875
20
38.435
30
0
0
VERTEX
8
0
10
74.47895
20
38.440112500000005
30
0
0
VERTEX
8
0
10
74.49605
20
38.449984375
30
0
0
VERTEX
8
0
10
74.51001562500001
20
38.463950000000004
30
0
0
VERTEX
8
0
10
74.51988750000001
20
38.48105
30
0
0
VERTEX
8
0
10
74.525
20
38.500125000000004
30
0
0
VERTEX
8
0
10
74.525
20
38.969875
30
0
0
VERTEX
8
0
10
74.51988750000001
20
38.98895
30
0
0
VERTEX
8
0
10
74.51001562500001
20
39.00605
30
0
0
VERTEX
8
0
10
74.49605
20
39.020015625
30
0
0
VERTEX
8
0
10
74.47895
20
39.0298875
30
0
0
VERTEX
8
0
10
74.459875
20
39.035000000000004
30
0
0
VERTEX
8
0
10
73.521225
20
39.035000000000004
30
0
0
VERTEX
8
0
10
73.47270312500001
20
39.07740625
30
0
0
VERTEX
8
0
10
73.4639375
20
39.086171875000005
30
0
0
VERTEX
8
0
10
73.458571875
20
39.08975625
30
0
0
VERTEX
8
0
10
73.45373437500001
20
39.093984375000005
30
0
0
VERTEX
8
0
10
73.44301875000001
20
39.100146875
30
0
0
VERTEX
8
0
10
73.43273437500001
20
39.10701875
30
0
0
VERTEX
8
0
10
73.42679687500001
20
39.109478125
30
0
0
VERTEX
8
0
10
73.42120625
20
39.112693750000005
30
0
0
VERTEX
8
0
10
73.40946875
20
39.11665625
30
0
0
VERTEX
8
0
10
73.398065625
20
39.121378125
30
0
0
VERTEX
8
0
10
73.39175312500001
20
39.122634375000004
30
0
0
VERTEX
8
0
10
73.38565
20
39.12469375
30
0
0
VERTEX
8
0
10
73.3734
20
39.126284375000004
30
0
0
VERTEX
8
0
10
73.36126250000001
20
39.1287
30
0
0
VERTEX
8
0
10
73.35481250000001
20
39.1287
30
0
0
VERTEX
8
0
10
73.3484375
20
39.129528125
30
0
0
VERTEX
8
0
10
73.3361125
20
39.1287
30
0
0
VERTEX
8
0
10
72.13600000000001
20
39.1287
30
0
0
VERTEX
8
0
10
72.13600000000001
20
42.424062500000005
30
0
0
SEQEND
0
POLYLINE
66
1
8
1_copper
10
0.0
20
0.0
30
0.0
70
1
0
VERTEX
8
0
10
76.38151875
20
38.657465625
30
0
0
VERTEX
8
0
10
76.39587812500001
20
38.692134375
30
0
0
VERTEX
8
0
10
76.4032
20
38.7289375
30
0
0
VERTEX
8
0
10
76.4032
20
40.023762500000004
30
0
0
VERTEX
8
0
10
76.39587812500001
20
40.060565625
30
0
0
VERTEX
8
0
10
76.38151875
20
40.095234375000004
30
0
0
VERTEX
8
0
10
76.36067187500001
20
40.1264375
30
0
0
VERTEX
8
0
10
76.3341375
20
40.152971875
30
0
0
VERTEX
8
0
10
76.302934375
20
40.17381875
30
0
0
VERTEX
8
0
10
76.268265625
20
40.188178125
30
0
0
VERTEX
8
0
10
76.2314625
20
40.1955
30
0
0
VERTEX
8
0
10
74.525
20
40.1955
30
0
0
VERTEX
8
0
10
74.525
20
40.239875000000005
30
0
0
VERTEX
8
0
10
74.51988750000001
20
40.25895
30
0
0
VERTEX
8
0
10
74.51001562500001
20
40.276050000000005
30
0
0
VERTEX
8
0
10
74.49605
20
40.290015625
30
0
0
VERTEX
8
0
10
74.47895
20
40.299887500000004
30
0
0
VERTEX
8
0
10
74.459875
20
40.305
30
0
0
VERTEX
8
0
10
72.69012500000001
20
40.305
30
0
0
VERTEX
8
0
10
72.67105000000001
20
40.299887500000004
30
0
0
VERTEX
8
0
10
72.65395000000001
20
40.290015625
30
0
0
VERTEX
8
0
10
72.639984375
20
40.276050000000005
30
0
0
VERTEX
8
0
10
72.63011250000001
20
40.25895
30
0
0
VERTEX
8
0
10
72.625
20
40.239875000000005
30
0
0
VERTEX
8
0
10
72.625
20
39.770125
30
0
0
VERTEX
8
0
10
72.63011250000001
20
39.75105
30
0
0
VERTEX
8
0
10
72.639984375
20
39.73395
30
0
0
VERTEX
8
0
10
72.65395000000001
20
39.719984375
30
0
0
VERTEX
8
0
10
72.67105000000001
20
39.7101125
30
0
0
VERTEX
8
0
10
72.69012500000001
20
39.705000000000005
30
0
0
VERTEX
8
0
10
74.459875
20
39.705000000000005
30
0
0
VERTEX
8
0
10
74.47895
20
39.7101125
30
0
0
VERTEX
8
0
10
74.49605
20
39.719984375
30
0
0
VERTEX
8
0
10
74.51001562500001
20
39.73395
30
0
0
VERTEX
8
0
10
74.51988750000001
20
39.75105
30
0
0
VERTEX
8
0
10
74.525
20
39.770125
30
0
0
VERTEX
8
0
10
74.525
20
39.8145
30
0
0
VERTEX
8
0
10
76.0222
20
39.8145
30
0
0
VERTEX
8
0
10
76.0222
20
38.826609375000004
30
0
0
VERTEX
8
0
10
68.660628125
20
31.4650375
30
0
0
VERTEX
8
0
10
68.63978125
20
31.433834375
30
0
0
VERTEX
8
0
10
68.625421875
20
31.399165625000002
30
0
0
VERTEX
8
0
10
68.6181
20
31.362362500000003
30
0
0
VERTEX
8
0
10
68.6181
20
29.630000000000003
30
0
0
VERTEX
8
0
10
67.82000000000001
20
29.630000000000003
30
0
0
VERTEX
8
0
10
67.82000000000001
20
26.330000000000002
30
0
0
VERTEX
8
0
10
69.34
20
26.330000000000002
30
0
0
VERTEX
8
0
10
69.34
20
29.630000000000003
30
0
0
VERTEX
8
0
10
68.9991
20
29.630000000000003
30
0
0
VERTEX
8
0
10
68.9991
20
31.264690625
30
0
0
VERTEX
8
0
10
76.36067187500001
20
38.6262625
30
0
0
SEQEND
0
POLYLINE
66
1
8
1_copper
10
0.0
20
0.0
30
0.0
70
1
0
VERTEX
8
0
10
83.033934375
20
41.24061875
30
0
0
VERTEX
8
0
10
82.999265625
20
41.254978125
30
0
0
VERTEX
8
0
10
82.9624625
20
41.2623
30
0
0
VERTEX
8
0
10
74.525
20
41.2623
30
0
0
VERTEX
8
0
10
74.525
20
41.509875
30
0
0
VERTEX
8
0
10
74.51988750000001
20
41.52895
30
0
0
VERTEX
8
0
10
74.51001562500001
20
41.54605
30
0
0
VERTEX
8
0
10
74.49605
20
41.560015625000005
30
0
0
VERTEX
8
0
10
74.47895
20
41.5698875
30
0
0
VERTEX
8
0
10
74.459875
20
41.575
30
0
0
VERTEX
8
0
10
72.69012500000001
20
41.575
30
0
0
VERTEX
8
0
10
72.67105000000001
20
41.5698875
30
0
0
VERTEX
8
0
10
72.65395000000001
20
41.560015625000005
30
0
0
VERTEX
8
0
10
72.639984375
20
41.54605
30
0
0
VERTEX
8
0
10
72.63011250000001
20
41.52895
30
0
0
VERTEX
8
0
10
72.625
20
41.509875
30
0
0
VERTEX
8
0
10
72.625
20
41.040125
30
0
0
VERTEX
8
0
10
72.63011250000001
20
41.02105
30
0
0
VERTEX
8
0
10
72.639984375
20
41.00395
30
0
0
VERTEX
8
0
10
72.65395000000001
20
40.989984375
30
0
0
VERTEX
8
0
10
72.67105000000001
20
40.980112500000004
30
0
0
VERTEX
8
0
10
72.69012500000001
20
40.975
30
0
0
VERTEX
8
0
10
73.44476875000001
20
40.975
30
0
0
VERTEX
8
0
10
73.449246875
20
40.968296875
30
0
0
VERTEX
8
0
10
73.4577
20
40.954796875
30
0
0
VERTEX
8
0
10
73.45964375
20
40.952734375
30
0
0
VERTEX
8
0
10
73.461228125
20
40.950362500000004
30
0
0
VERTEX
8
0
10
73.4725375
20
40.939053125
30
0
0
VERTEX
8
0
10
73.48343750000001
20
40.927487500000005
30
0
0
VERTEX
8
0
10
73.485746875
20
40.92584375
30
0
0
VERTEX
8
0
10
73.4877625
20
40.923828125
30
0
0
VERTEX
8
0
10
73.50100625
20
40.914981250000004
30
0
0
VERTEX
8
0
10
73.51400625000001
20
40.905725000000004
30
0
0
VERTEX
8
0
10
73.516609375
20
40.90455625
30
0
0
VERTEX
8
0
10
73.518965625
20
40.90298125
30
0
0
VERTEX
8
0
10
73.53365625
20
40.896896875
30
0
0
VERTEX
8
0
10
73.548234375
20
40.890346875
30
0
0
VERTEX
8
0
10
73.5510125
20
40.889709375
30
0
0
VERTEX
8
0
10
73.553634375
20
40.888621875000005
30
0
0
VERTEX
8
0
10
73.56922812500001
20
40.88551875
30
0
0
VERTEX
8
0
10
73.58480625
20
40.8819375
30
0
0
VERTEX
8
0
10
73.58765625000001
20
40.881853125
30
0
0
VERTEX
8
0
10
73.59043750000001
20
40.8813
30
0
0
VERTEX
8
0
10
73.606359375
20
40.8813
30
0
0
VERTEX
8
0
10
73.622315625
20
40.880828125
30
0
0
VERTEX
8
0
10
73.62511875
20
40.8813
30
0
0
VERTEX
8
0
10
82.864790625
20
40.8813
30
0
0
VERTEX
8
0
10
82.8675
20
40.878590625
30
0
0
VERTEX
8
0
10
82.8675
20
39.624
30
0
0
VERTEX
8
0
10
84.77250000000001
20
39.624
30
0
0
VERTEX
8
0
10
84.77250000000001
20
40.894000000000005
30
0
0
VERTEX
8
0
10
83.390909375
20
40.894000000000005
30
0
0
VERTEX
8
0
10
83.0651375
20
41.219771875
30
0
0
SEQEND
0
POLYLINE
66
1
8
1_copper
10
0.0
20
0.0
30
0.0
70
1
0
VERTEX
8
0
10
84.77250000000001
20
44.196000000000005
30
0
0
VERTEX
8
0
10
83.93430000000001
20
44.196000000000005
30
0
0
VERTEX
8
0
10
83.93430000000001
20
47.244
30
0
0
VERTEX
8
0
10
84.77250000000001
20
47.244
30
0
0
VERTEX
8
0
10
84.77250000000001
20
48.514
30
0
0
VERTEX
8
0
10
82.8675
20
48.514
30
0
0
VERTEX
8
0
10
82.8675
20
47.244
30
0
0
VERTEX
8
0
10
83.55330000000001
20
47.244
30
0
0
VERTEX
8
0
10
83.55330000000001
20
44.196000000000005
30
0
0
VERTEX
8
0
10
82.8675
20
44.196000000000005
30
0
0
VERTEX
8
0
10
82.8675
20
42.926
30
0
0
VERTEX
8
0
10
84.77250000000001
20
42.926
30
0
0
SEQEND
0
ENDSEC
0
EOF