0
SECTION
2
HEADER
9
$ANGDIR
70
1
9
$AUNITS
70
0
9
$PROJECTNAME
1
Schematic_Network_Bridge v6
9
$TDCREATE
40
2460246.19773924
9
$INSUNITS
70
4
0
ENDSEC
0
SECTION
2
ENTITIES
0
POLYLINE
66
1
8
outline
10
0.0
20
0.0
30
0.0
70
1
0
VERTEX
8
0
10
0
20
0
30
0
0
VERTEX
8
0
10
160
20
0
30
0
0
VERTEX
8
0
10
160
20
100
30
0
0
VERTEX
8
0
10
0
20
100
30
0
0
VERTEX
8
0
10
0
20
0
30
0
0
SEQEND
0
POLYLINE
66
1
8
1_copper
10
0.0
20
0.0
30
0.0
70
1
0
VERTEX
8
0
10
77.18895
20
42.2501125
30
0
0
VERTEX
8
0
10
77.20605
20
42.259984375
30
0
0
VERTEX
8
0
10
77.220015625
20
42.27395
30
0
0
VERTEX
8
0
10
77.2298875
20
42.29105
30
0
0
VERTEX
8
0
10
77.235
20
42.310125
30
0
0
VERTEX
8
0
10
77.235
20
42.779875000000004
30
0
0
VERTEX
8
0
10
77.2298875
20
42.798950000000005
30
0
0
VERTEX
8
0
10
77.220015625
20
42.816050000000004
30
0
0
VERTEX
8
0
10
77.20605
20
42.830015625
30
0
0
VERTEX
8
0
10
77.18895
20
42.8398875
30
0
0
VERTEX
8
0
10
77.169875
20
42.845
30
0
0
VERTEX
8
0
10
75.400125
20
42.845
30
0
0
VERTEX
8
0
10
75.38105
20
42.8398875
30
0
0
VERTEX
8
0
10
75.36395
20
42.830015625
30
0
0
VERTEX
8
0
10
75.349984375
20
42.816050000000004
30
0
0
VERTEX
8
0
10
75.3401125
20
42.798950000000005
30
0
0
VERTEX
8
0
10
75.33500000000001
20
42.779875000000004
30
0
0
VERTEX
8
0
10
75.33500000000001
20
42.310125
30
0
0
VERTEX
8
0
10
75.3401125
20
42.29105
30
0
0
VERTEX
8
0
10
75.349984375
20
42.27395
30
0
0
VERTEX
8
0
10
75.36395
20
42.259984375
30
0
0
VERTEX
8
0
10
75.38105
20
42.2501125
30
0
0
VERTEX
8
0
10
75.400125
20
42.245000000000005
30
0
0
VERTEX
8
0
10
77.169875
20
42.245000000000005
30
0
0
SEQEND
0
POLYLINE
66
1
8
1_copper
10
0.0
20
0.0
30
0.0
70
1
0
VERTEX
8
0
10
82.09895
20
42.2501125
30
0
0
VERTEX
8
0
10
82.11605
20
42.259984375
30
0
0
VERTEX
8
0
10
82.130015625
20
42.27395
30
0
0
VERTEX
8
0
10
82.1398875
20
42.29105
30
0
0
VERTEX
8
0
10
82.14500000000001
20
42.310125
30
0
0
VERTEX
8
0
10
82.14500000000001
20
42.779875000000004
30
0
0
VERTEX
8
0
10
82.1398875
20
42.798950000000005
30
0
0
VERTEX
8
0
10
82.130015625
20
42.816050000000004
30
0
0
VERTEX
8
0
10
82.11605
20
42.830015625
30
0
0
VERTEX
8
0
10
82.09895
20
42.8398875
30
0
0
VERTEX
8
0
10
82.079875
20
42.845
30
0
0
VERTEX
8
0
10
80.310125
20
42.845
30
0
0
VERTEX
8
0
10
80.29105
20
42.8398875
30
0
0
VERTEX
8
0
10
80.27395
20
42.830015625
30
0
0
VERTEX
8
0
10
80.259984375
20
42.816050000000004
30
0
0
VERTEX
8
0
10
80.2501125
20
42.798950000000005
30
0
0
VERTEX
8
0
10
80.245
20
42.779875000000004
30
0
0
VERTEX
8
0
10
80.245
20
42.310125
30
0
0
VERTEX
8
0
10
80.2501125
20
42.29105
30
0
0
VERTEX
8
0
10
80.259984375
20
42.27395
30
0
0
VERTEX
8
0
10
80.27395
20
42.259984375
30
0
0
VERTEX
8
0
10
80.29105
20
42.2501125
30
0
0
VERTEX
8
0
10
80.310125
20
42.245000000000005
30
0
0
VERTEX
8
0
10
82.079875
20
42.245000000000005
30
0
0
SEQEND
0
POLYLINE
66
1
8
1_copper
10
0.0
20
0.0
30
0.0
70
1
0
VERTEX
8
0
10
91.44
20
42.545
30
0
0
VERTEX
8
0
10
88.9
20
42.545
30
0
0
VERTEX
8
0
10
88.9
20
41.275
30
0
0
VERTEX
8
0
10
91.44
20
41.275
30
0
0
SEQEND
0
POLYLINE
66
1
8
1_copper
10
0.0
20
0.0
30
0.0
70
1
0
VERTEX
8
0
10
74.295
20
33.02
30
0
0
VERTEX
8
0
10
73.025
20
33.02
30
0
0
VERTEX
8
0
10
73.025
20
30.48
30
0
0
VERTEX
8
0
10
74.295
20
30.48
30
0
0
SEQEND
0
POLYLINE
66
1
8
1_copper
10
0.0
20
0.0
30
0.0
70
1
0
VERTEX
8
0
10
84.455
20
33.02
30
0
0
VERTEX
8
0
10
83.185
20
33.02
30
0
0
VERTEX
8
0
10
83.185
20
30.48
30
0
0
VERTEX
8
0
10
84.455
20
30.48
30
0
0
SEQEND
0
POLYLINE
66
1
8
1_copper
10
0.0
20
0.0
30
0.0
70
1
0
VERTEX
8
0
10
91.44
20
32.385
30
0
0
VERTEX
8
0
10
88.9
20
32.385
30
0
0
VERTEX
8
0
10
88.9
20
31.115000000000002
30
0
0
VERTEX
8
0
10
91.44
20
31.115000000000002
30
0
0
SEQEND
0
POLYLINE
66
1
8
1_copper
10
0.0
20
0.0
30
0.0
70
1
0
VERTEX
8
0
10
91.530234375
20
39.201181250000005
30
0
0
VERTEX
8
0
10
91.56143750000001
20
39.222028125
30
0
0
VERTEX
8
0
10
92.222971875
20
39.883562500000004
30
0
0
VERTEX
8
0
10
92.24381875
20
39.914765625
30
0
0
VERTEX
8
0
10
92.258178125
20
39.949434375
30
0
0
VERTEX
8
0
10
92.2655
20
39.9862375
30
0
0
VERTEX
8
0
10
92.2655
20
46.373762500000005
30
0
0
VERTEX
8
0
10
92.258178125
20
46.410565625000004
30
0
0
VERTEX
8
0
10
92.24381875
20
46.445234375000005
30
0
0
VERTEX
8
0
10
92.222971875
20
46.4764375
30
0
0
VERTEX
8
0
10
92.1964375
20
46.502971875
30
0
0
VERTEX
8
0
10
92.16523437500001
20
46.523818750000004
30
0
0
VERTEX
8
0
10
92.130565625
20
46.538178125
30
0
0
VERTEX
8
0
10
92.09376250000001
20
46.545500000000004
30
0
0
VERTEX
8
0
10
87.3125
20
46.545500000000004
30
0
0
VERTEX
8
0
10
87.3125
20
47.244
30
0
0
VERTEX
8
0
10
85.4075
20
47.244
30
0
0
VERTEX
8
0
10
85.4075
20
45.974000000000004
30
0
0
VERTEX
8
0
10
87.3125
20
45.974000000000004
30
0
0
VERTEX
8
0
10
87.3125
20
46.164500000000004
30
0
0
VERTEX
8
0
10
91.8845
20
46.164500000000004
30
0
0
VERTEX
8
0
10
91.8845
20
40.083909375000005
30
0
0
VERTEX
8
0
10
91.44
20
39.639409375
30
0
0
VERTEX
8
0
10
91.44
20
40.005
30
0
0
VERTEX
8
0
10
88.9
20
40.005
30
0
0
VERTEX
8
0
10
88.9
20
39.560500000000005
30
0
0
VERTEX
8
0
10
88.8812375
20
39.560500000000005
30
0
0
VERTEX
8
0
10
88.844434375
20
39.553178125
30
0
0
VERTEX
8
0
10
88.809765625
20
39.538818750000004
30
0
0
VERTEX
8
0
10
88.7785625
20
39.517971875
30
0
0
VERTEX
8
0
10
82.402028125
20
33.1414375
30
0
0
VERTEX
8
0
10
82.38118125
20
33.110234375000005
30
0
0
VERTEX
8
0
10
82.366821875
20
33.075565625
30
0
0
VERTEX
8
0
10
82.3595
20
33.038762500000004
30
0
0
VERTEX
8
0
10
82.3595
20
30.035500000000003
30
0
0
VERTEX
8
0
10
76.3905
20
30.035500000000003
30
0
0
VERTEX
8
0
10
76.3905
20
30.48
30
0
0
VERTEX
8
0
10
76.83500000000001
20
30.48
30
0
0
VERTEX
8
0
10
76.83500000000001
20
33.02
30
0
0
VERTEX
8
0
10
76.3905
20
33.02
30
0
0
VERTEX
8
0
10
76.3905
20
38.338590625
30
0
0
VERTEX
8
0
10
79.840471875
20
41.788562500000005
30
0
0
VERTEX
8
0
10
79.86131875000001
20
41.819765625
30
0
0
VERTEX
8
0
10
79.87567812500001
20
41.854434375000004
30
0
0
VERTEX
8
0
10
79.88300000000001
20
41.8912375
30
0
0
VERTEX
8
0
10
79.88300000000001
20
44.7862625
30
0
0
VERTEX
8
0
10
79.87567812500001
20
44.823065625000005
30
0
0
VERTEX
8
0
10
79.86131875000001
20
44.857734375
30
0
0
VERTEX
8
0
10
79.840471875
20
44.888937500000004
30
0
0
VERTEX
8
0
10
78.2264375
20
46.502971875
30
0
0
VERTEX
8
0
10
78.195234375
20
46.523818750000004
30
0
0
VERTEX
8
0
10
78.160565625
20
46.538178125
30
0
0
VERTEX
8
0
10
78.1237625
20
46.545500000000004
30
0
0
VERTEX
8
0
10
77.235
20
46.545500000000004
30
0
0
VERTEX
8
0
10
77.235
20
46.589875
30
0
0
VERTEX
8
0
10
77.2298875
20
46.60895
30
0
0
VERTEX
8
0
10
77.220015625
20
46.62605
30
0
0
VERTEX
8
0
10
77.20605
20
46.640015625000004
30
0
0
VERTEX
8
0
10
77.18895
20
46.649887500000006
30
0
0
VERTEX
8
0
10
77.169875
20
46.655
30
0
0
VERTEX
8
0
10
75.400125
20
46.655
30
0
0
VERTEX
8
0
10
75.38105
20
46.649887500000006
30
0
0
VERTEX
8
0
10
75.36395
20
46.640015625000004
30
0
0
VERTEX
8
0
10
75.349984375
20
46.62605
30
0
0
VERTEX
8
0
10
75.3401125
20
46.60895
30
0
0
VERTEX
8
0
10
75.33500000000001
20
46.589875
30
0
0
VERTEX
8
0
10
75.33500000000001
20
46.545500000000004
30
0
0
VERTEX
8
0
10
74.691409375
20
46.545500000000004
30
0
0
VERTEX
8
0
10
74.0989375
20
47.137971875000005
30
0
0
VERTEX
8
0
10
74.067734375
20
47.15881875
30
0
0
VERTEX
8
0
10
74.033065625
20
47.173178125
30
0
0
VERTEX
8
0
10
73.9962625
20
47.1805
30
0
0
VERTEX
8
0
10
67.29123750000001
20
47.1805
30
0
0
VERTEX
8
0
10
67.254434375
20
47.173178125
30
0
0
VERTEX
8
0
10
67.21976562500001
20
47.15881875
30
0
0
VERTEX
8
0
10
67.1885625
20
47.137971875000005
30
0
0
VERTEX
8
0
10
66.405590625
20
46.355000000000004
30
0
0
VERTEX
8
0
10
64.77
20
46.355000000000004
30
0
0
VERTEX
8
0
10
64.77
20
45.085
30
0
0
VERTEX
8
0
10
67.31
20
45.085
30
0
0
VERTEX
8
0
10
67.31
20
46.355000000000004
30
0
0
VERTEX
8
0
10
66.944409375
20
46.355000000000004
30
0
0
VERTEX
8
0
10
67.388909375
20
46.7995
30
0
0
VERTEX
8
0
10
73.898590625
20
46.7995
30
0
0
VERTEX
8
0
10
74.4910625
20
46.207028125
30
0
0
VERTEX
8
0
10
74.522265625
20
46.186181250000004
30
0
0
VERTEX
8
0
10
74.556934375
20
46.171821875
30
0
0
VERTEX
8
0
10
74.5937375
20
46.164500000000004
30
0
0
VERTEX
8
0
10
75.33500000000001
20
46.164500000000004
30
0
0
VERTEX
8
0
10
75.33500000000001
20
46.120125
30
0
0
VERTEX
8
0
10
75.3401125
20
46.10105
30
0
0
VERTEX
8
0
10
75.349984375
20
46.08395
30
0
0
VERTEX
8
0
10
75.36395
20
46.069984375000004
30
0
0
VERTEX
8
0
10
75.38105
20
46.0601125
30
0
0
VERTEX
8
0
10
75.400125
20
46.055
30
0
0
VERTEX
8
0
10
77.169875
20
46.055
30
0
0
VERTEX
8
0
10
77.18895
20
46.0601125
30
0
0
VERTEX
8
0
10
77.20605
20
46.069984375000004
30
0
0
VERTEX
8
0
10
77.220015625
20
46.08395
30
0
0
VERTEX
8
0
10
77.2298875
20
46.10105
30
0
0
VERTEX
8
0
10
77.235
20
46.120125
30
0
0
VERTEX
8
0
10
77.235
20
46.164500000000004
30
0
0
VERTEX
8
0
10
78.02609062500001
20
46.164500000000004
30
0
0
VERTEX
8
0
10
79.50200000000001
20
44.688590625
30
0
0
VERTEX
8
0
10
79.50200000000001
20
41.988909375
30
0
0
VERTEX
8
0
10
76.052028125
20
38.5389375
30
0
0
VERTEX
8
0
10
76.03118125
20
38.507734375
30
0
0
VERTEX
8
0
10
76.016821875
20
38.473065625000004
30
0
0
VERTEX
8
0
10
76.0095
20
38.436262500000005
30
0
0
VERTEX
8
0
10
76.0095
20
33.02
30
0
0
VERTEX
8
0
10
75.565
20
33.02
30
0
0
VERTEX
8
0
10
75.565
20
30.48
30
0
0
VERTEX
8
0
10
76.0095
20
30.48
30
0
0
VERTEX
8
0
10
76.0095
20
29.8262375
30
0
0
VERTEX
8
0
10
76.016821875
20
29.789434375000003
30
0
0
VERTEX
8
0
10
76.03118125
20
29.754765625
30
0
0
VERTEX
8
0
10
76.052028125
20
29.7235625
30
0
0
VERTEX
8
0
10
76.0785625
20
29.697028125000003
30
0
0
VERTEX
8
0
10
76.10976562500001
20
29.676181250000003
30
0
0
VERTEX
8
0
10
76.144434375
20
29.661821875
30
0
0
VERTEX
8
0
10
76.18123750000001
20
29.654500000000002
30
0
0
VERTEX
8
0
10
82.5687625
20
29.654500000000002
30
0
0
VERTEX
8
0
10
82.605565625
20
29.661821875
30
0
0
VERTEX
8
0
10
82.640234375
20
29.676181250000003
30
0
0
VERTEX
8
0
10
82.67143750000001
20
29.697028125000003
30
0
0
VERTEX
8
0
10
82.69797187500001
20
29.7235625
30
0
0
VERTEX
8
0
10
82.71881875
20
29.754765625
30
0
0
VERTEX
8
0
10
82.73317812500001
20
29.789434375000003
30
0
0
VERTEX
8
0
10
82.7405
20
29.8262375
30
0
0
VERTEX
8
0
10
82.7405
20
32.941090625
30
0
0
VERTEX
8
0
10
88.9
20
39.100590625
30
0
0
VERTEX
8
0
10
88.9
20
38.735
30
0
0
VERTEX
8
0
10
91.44
20
38.735
30
0
0
VERTEX
8
0
10
91.44
20
39.179500000000004
30
0
0
VERTEX
8
0
10
91.4587625
20
39.179500000000004
30
0
0
VERTEX
8
0
10
91.495565625
20
39.186821875
30
0
0
SEQEND
0
POLYLINE
66
1
8
1_copper
10
0.0
20
0.0
30
0.0
70
1
0
VERTEX
8
0
10
71.303178125
20
38.155565625
30
0
0
VERTEX
8
0
10
71.28881875
20
38.190234375
30
0
0
VERTEX
8
0
10
71.267971875
20
38.2214375
30
0
0
VERTEX
8
0
10
66.944409375
20
42.545
30
0
0
VERTEX
8
0
10
67.31
20
42.545
30
0
0
VERTEX
8
0
10
67.31
20
43.815000000000005
30
0
0
VERTEX
8
0
10
64.77
20
43.815000000000005
30
0
0
VERTEX
8
0
10
64.77
20
43.3705
30
0
0
VERTEX
8
0
10
64.3255
20
43.3705
30
0
0
VERTEX
8
0
10
64.3255
20
46.276090625
30
0
0
VERTEX
8
0
10
72.151409375
20
54.102000000000004
30
0
0
VERTEX
8
0
10
79.93109062500001
20
54.102000000000004
30
0
0
VERTEX
8
0
10
82.296
20
51.737090625
30
0
0
VERTEX
8
0
10
82.296
20
50.497909375
30
0
0
VERTEX
8
0
10
82.153590625
20
50.3555
30
0
0
VERTEX
8
0
10
81.26123750000001
20
50.3555
30
0
0
VERTEX
8
0
10
81.224434375
20
50.348178125000004
30
0
0
VERTEX
8
0
10
81.189765625
20
50.33381875
30
0
0
VERTEX
8
0
10
81.1585625
20
50.312971875
30
0
0
VERTEX
8
0
10
81.132028125
20
50.286437500000005
30
0
0
VERTEX
8
0
10
81.11118125
20
50.255234375
30
0
0
VERTEX
8
0
10
81.096821875
20
50.220565625
30
0
0
VERTEX
8
0
10
81.0895
20
50.1837625
30
0
0
VERTEX
8
0
10
81.0895
20
46.9712375
30
0
0
VERTEX
8
0
10
81.096821875
20
46.934434375
30
0
0
VERTEX
8
0
10
81.11118125
20
46.899765625
30
0
0
VERTEX
8
0
10
81.132028125
20
46.8685625
30
0
0
VERTEX
8
0
10
81.345590625
20
46.655
30
0
0
VERTEX
8
0
10
80.310125
20
46.655
30
0
0
VERTEX
8
0
10
80.29105
20
46.649887500000006
30
0
0
VERTEX
8
0
10
80.27395
20
46.640015625000004
30
0
0
VERTEX
8
0
10
80.259984375
20
46.62605
30
0
0
VERTEX
8
0
10
80.2501125
20
46.60895
30
0
0
VERTEX
8
0
10
80.245
20
46.589875
30
0
0
VERTEX
8
0
10
80.245
20
46.120125
30
0
0
VERTEX
8
0
10
80.2501125
20
46.10105
30
0
0
VERTEX
8
0
10
80.259984375
20
46.08395
30
0
0
VERTEX
8
0
10
80.27395
20
46.069984375000004
30
0
0
VERTEX
8
0
10
80.29105
20
46.0601125
30
0
0
VERTEX
8
0
10
80.310125
20
46.055
30
0
0
VERTEX
8
0
10
81.94559062500001
20
46.055
30
0
0
VERTEX
8
0
10
83.69856250000001
20
44.302028125
30
0
0
VERTEX
8
0
10
83.729765625
20
44.28118125
30
0
0
VERTEX
8
0
10
83.76443437500001
20
44.266821875000005
30
0
0
VERTEX
8
0
10
83.8012375
20
44.2595
30
0
0
VERTEX
8
0
10
88.9
20
44.2595
30
0
0
VERTEX
8
0
10
88.9
20
43.815000000000005
30
0
0
VERTEX
8
0
10
91.44
20
43.815000000000005
30
0
0
VERTEX
8
0
10
91.44
20
45.085
30
0
0
VERTEX
8
0
10
88.9
20
45.085
30
0
0
VERTEX
8
0
10
88.9
20
44.6405
30
0
0
VERTEX
8
0
10
83.898909375
20
44.6405
30
0
0
VERTEX
8
0
10
82.14500000000001
20
46.394409375
30
0
0
VERTEX
8
0
10
82.14500000000001
20
46.589875
30
0
0
VERTEX
8
0
10
82.1398875
20
46.60895
30
0
0
VERTEX
8
0
10
82.130015625
20
46.62605
30
0
0
VERTEX
8
0
10
82.11605
20
46.640015625000004
30
0
0
VERTEX
8
0
10
82.09895
20
46.649887500000006
30
0
0
VERTEX
8
0
10
82.079875
20
46.655
30
0
0
VERTEX
8
0
10
81.884409375
20
46.655
30
0
0
VERTEX
8
0
10
81.4705
20
47.068909375000004
30
0
0
VERTEX
8
0
10
81.4705
20
49.9745
30
0
0
VERTEX
8
0
10
82.296
20
49.9745
30
0
0
VERTEX
8
0
10
82.296
20
49.847500000000004
30
0
0
VERTEX
8
0
10
83.566
20
49.847500000000004
30
0
0
VERTEX
8
0
10
83.566
20
49.9745
30
0
0
VERTEX
8
0
10
85.4075
20
49.9745
30
0
0
VERTEX
8
0
10
85.4075
20
49.276
30
0
0
VERTEX
8
0
10
87.3125
20
49.276
30
0
0
VERTEX
8
0
10
87.3125
20
50.546
30
0
0
VERTEX
8
0
10
85.4075
20
50.546
30
0
0
VERTEX
8
0
10
85.4075
20
50.3555
30
0
0
VERTEX
8
0
10
83.566
20
50.3555
30
0
0
VERTEX
8
0
10
83.566
20
51.752500000000005
30
0
0
VERTEX
8
0
10
82.819409375
20
51.752500000000005
30
0
0
VERTEX
8
0
10
80.1314375
20
54.440471875
30
0
0
VERTEX
8
0
10
80.100234375
20
54.461318750000004
30
0
0
VERTEX
8
0
10
80.065565625
20
54.475678125
30
0
0
VERTEX
8
0
10
80.0287625
20
54.483000000000004
30
0
0
VERTEX
8
0
10
72.0537375
20
54.483000000000004
30
0
0
VERTEX
8
0
10
72.016934375
20
54.475678125
30
0
0
VERTEX
8
0
10
71.982265625
20
54.461318750000004
30
0
0
VERTEX
8
0
10
71.9510625
20
54.440471875
30
0
0
VERTEX
8
0
10
63.987028125
20
46.4764375
30
0
0
VERTEX
8
0
10
63.966181250000005
20
46.445234375000005
30
0
0
VERTEX
8
0
10
63.951821875
20
46.410565625000004
30
0
0
VERTEX
8
0
10
63.944500000000005
20
46.373762500000005
30
0
0
VERTEX
8
0
10
63.944500000000005
20
43.1612375
30
0
0
VERTEX
8
0
10
63.951821875
20
43.124434375
30
0
0
VERTEX
8
0
10
63.966181250000005
20
43.089765625000005
30
0
0
VERTEX
8
0
10
63.987028125
20
43.0585625
30
0
0
VERTEX
8
0
10
64.0135625
20
43.032028125000004
30
0
0
VERTEX
8
0
10
64.044765625
20
43.01118125
30
0
0
VERTEX
8
0
10
64.079434375
20
42.996821875
30
0
0
VERTEX
8
0
10
64.1162375
20
42.9895
30
0
0
VERTEX
8
0
10
64.77
20
42.9895
30
0
0
VERTEX
8
0
10
64.77
20
42.545
30
0
0
VERTEX
8
0
10
66.405590625
20
42.545
30
0
0
VERTEX
8
0
10
70.9295
20
38.021090625
30
0
0
VERTEX
8
0
10
70.9295
20
33.02
30
0
0
VERTEX
8
0
10
70.485
20
33.02
30
0
0
VERTEX
8
0
10
70.485
20
30.48
30
0
0
VERTEX
8
0
10
71.75500000000001
20
30.48
30
0
0
VERTEX
8
0
10
71.75500000000001
20
33.02
30
0
0
VERTEX
8
0
10
71.3105
20
33.02
30
0
0
VERTEX
8
0
10
71.3105
20
38.1187625
30
0
0
SEQEND
0
POLYLINE
66
1
8
1_copper
10
0.0
20
0.0
30
0.0
70
1
0
VERTEX
8
0
10
77.877734375
20
52.55631875
30
0
0
VERTEX
8
0
10
77.84306562500001
20
52.570678125
30
0
0
VERTEX
8
0
10
77.8062625
20
52.578
30
0
0
VERTEX
8
0
10
72.0537375
20
52.578
30
0
0
VERTEX
8
0
10
72.016934375
20
52.570678125
30
0
0
VERTEX
8
0
10
71.982265625
20
52.55631875
30
0
0
VERTEX
8
0
10
71.9510625
20
52.535471875000006
30
0
0
VERTEX
8
0
10
71.861028125
20
52.445437500000004
30
0
0
VERTEX
8
0
10
71.84018125
20
52.414234375
30
0
0
VERTEX
8
0
10
71.825821875
20
52.379565625000005
30
0
0
VERTEX
8
0
10
71.8185
20
52.3427625
30
0
0
VERTEX
8
0
10
71.8185
20
51.752500000000005
30
0
0
VERTEX
8
0
10
71.37400000000001
20
51.752500000000005
30
0
0
VERTEX
8
0
10
71.37400000000001
20
49.847500000000004
30
0
0
VERTEX
8
0
10
72.644
20
49.847500000000004
30
0
0
VERTEX
8
0
10
72.644
20
51.752500000000005
30
0
0
VERTEX
8
0
10
72.1995
20
51.752500000000005
30
0
0
VERTEX
8
0
10
72.1995
20
52.197
30
0
0
VERTEX
8
0
10
77.708590625
20
52.197
30
0
0
VERTEX
8
0
10
78.994
20
50.911590625
30
0
0
VERTEX
8
0
10
78.994
20
49.847500000000004
30
0
0
VERTEX
8
0
10
80.26400000000001
20
49.847500000000004
30
0
0
VERTEX
8
0
10
80.26400000000001
20
51.752500000000005
30
0
0
VERTEX
8
0
10
78.994
20
51.752500000000005
30
0
0
VERTEX
8
0
10
78.994
20
51.450409375
30
0
0
VERTEX
8
0
10
77.90893750000001
20
52.535471875000006
30
0
0
SEQEND
0
POLYLINE
66
1
8
1_copper
10
0.0
20
0.0
30
0.0
70
1
0
VERTEX
8
0
10
75.1205
20
28.1305
30
0
0
VERTEX
8
0
10
75.1205
20
39.291090625
30
0
0
VERTEX
8
0
10
77.935471875
20
42.1060625
30
0
0
VERTEX
8
0
10
77.95631875000001
20
42.137265625000005
30
0
0
VERTEX
8
0
10
77.970678125
20
42.171934375
30
0
0
VERTEX
8
0
10
77.97800000000001
20
42.208737500000005
30
0
0
VERTEX
8
0
10
77.97800000000001
20
44.1512625
30
0
0
VERTEX
8
0
10
77.970678125
20
44.188065625
30
0
0
VERTEX
8
0
10
77.95631875000001
20
44.222734375
30
0
0
VERTEX
8
0
10
77.935471875
20
44.2539375
30
0
0
VERTEX
8
0
10
77.235
20
44.954409375000004
30
0
0
VERTEX
8
0
10
77.235
20
45.319875
30
0
0
VERTEX
8
0
10
77.2298875
20
45.338950000000004
30
0
0
VERTEX
8
0
10
77.220015625
20
45.35605
30
0
0
VERTEX
8
0
10
77.20605
20
45.370015625
30
0
0
VERTEX
8
0
10
77.18895
20
45.3798875
30
0
0
VERTEX
8
0
10
77.169875
20
45.385000000000005
30
0
0
VERTEX
8
0
10
75.400125
20
45.385000000000005
30
0
0
VERTEX
8
0
10
75.38105
20
45.3798875
30
0
0
VERTEX
8
0
10
75.36395
20
45.370015625
30
0
0
VERTEX
8
0
10
75.349984375
20
45.35605
30
0
0
VERTEX
8
0
10
75.3401125
20
45.338950000000004
30
0
0
VERTEX
8
0
10
75.33500000000001
20
45.319875
30
0
0
VERTEX
8
0
10
75.33500000000001
20
45.2755
30
0
0
VERTEX
8
0
10
72.77000000000001
20
45.2755
30
0
0
VERTEX
8
0
10
72.77000000000001
20
46.355000000000004
30
0
0
VERTEX
8
0
10
70.23
20
46.355000000000004
30
0
0
VERTEX
8
0
10
70.23
20
45.085
30
0
0
VERTEX
8
0
10
72.120590625
20
45.085
30
0
0
VERTEX
8
0
10
72.2685625
20
44.937028125000005
30
0
0
VERTEX
8
0
10
72.299765625
20
44.91618125
30
0
0
VERTEX
8
0
10
72.334434375
20
44.901821875
30
0
0
VERTEX
8
0
10
72.3712375
20
44.8945
30
0
0
VERTEX
8
0
10
75.33500000000001
20
44.8945
30
0
0
VERTEX
8
0
10
75.33500000000001
20
44.850125000000006
30
0
0
VERTEX
8
0
10
75.3401125
20
44.831050000000005
30
0
0
VERTEX
8
0
10
75.349984375
20
44.813950000000006
30
0
0
VERTEX
8
0
10
75.36395
20
44.799984375
30
0
0
VERTEX
8
0
10
75.38105
20
44.7901125
30
0
0
VERTEX
8
0
10
75.400125
20
44.785000000000004
30
0
0
VERTEX
8
0
10
76.86559062500001
20
44.785000000000004
30
0
0
VERTEX
8
0
10
77.59700000000001
20
44.053590625000005
30
0
0
VERTEX
8
0
10
77.59700000000001
20
42.306409375
30
0
0
VERTEX
8
0
10
74.782028125
20
39.4914375
30
0
0
VERTEX
8
0
10
74.76118125
20
39.460234375
30
0
0
VERTEX
8
0
10
74.74682187500001
20
39.425565625000004
30
0
0
VERTEX
8
0
10
74.7395
20
39.3887625
30
0
0
VERTEX
8
0
10
74.7395
20
27.9212375
30
0
0
VERTEX
8
0
10
74.74682187500001
20
27.884434375
30
0
0
VERTEX
8
0
10
74.76118125
20
27.849765625
30
0
0
VERTEX
8
0
10
74.782028125
20
27.818562500000002
30
0
0
VERTEX
8
0
10
74.80856250000001
20
27.792028125
30
0
0
VERTEX
8
0
10
74.839765625
20
27.77118125
30
0
0
VERTEX
8
0
10
74.874434375
20
27.756821875
30
0
0
VERTEX
8
0
10
74.9112375
20
27.7495
30
0
0
VERTEX
8
0
10
85.1087625
20
27.7495
30
0
0
VERTEX
8
0
10
85.145565625
20
27.756821875
30
0
0
VERTEX
8
0
10
85.180234375
20
27.77118125
30
0
0
VERTEX
8
0
10
85.2114375
20
27.792028125
30
0
0
VERTEX
8
0
10
85.237971875
20
27.818562500000002
30
0
0
VERTEX
8
0
10
85.25881875
20
27.849765625
30
0
0
VERTEX
8
0
10
85.273178125
20
27.884434375
30
0
0
VERTEX
8
0
10
85.2805
20
27.9212375
30
0
0
VERTEX
8
0
10
85.2805
20
31.671090625
30
0
0
VERTEX
8
0
10
89.804409375
20
36.195
30
0
0
VERTEX
8
0
10
91.44
20
36.195
30
0
0
VERTEX
8
0
10
91.44
20
37.465
30
0
0
VERTEX
8
0
10
88.9
20
37.465
30
0
0
VERTEX
8
0
10
88.9
20
36.195
30
0
0
VERTEX
8
0
10
89.265590625
20
36.195
30
0
0
VERTEX
8
0
10
84.94202812500001
20
31.871437500000003
30
0
0
VERTEX
8
0
10
84.92118125
20
31.840234375
30
0
0
VERTEX
8
0
10
84.906821875
20
31.805565625
30
0
0
VERTEX
8
0
10
84.8995
20
31.7687625
30
0
0
VERTEX
8
0
10
84.8995
20
28.1305
30
0
0
SEQEND
0
POLYLINE
66
1
8
1_copper
10
0.0
20
0.0
30
0.0
70
1
0
VERTEX
8
0
10
87.16381875
20
26.460421875
30
0
0
VERTEX
8
0
10
87.178178125
20
26.495090625
30
0
0
VERTEX
8
0
10
87.1855
20
26.531893750000002
30
0
0
VERTEX
8
0
10
87.1855
20
32.306090625
30
0
0
VERTEX
8
0
10
88.9
20
34.020590625000004
30
0
0
VERTEX
8
0
10
88.9
20
33.655
30
0
0
VERTEX
8
0
10
91.44
20
33.655
30
0
0
VERTEX
8
0
10
91.44
20
34.925000000000004
30
0
0
VERTEX
8
0
10
88.9
20
34.925000000000004
30
0
0
VERTEX
8
0
10
88.9
20
34.4805
30
0
0
VERTEX
8
0
10
88.8812375
20
34.4805
30
0
0
VERTEX
8
0
10
88.844434375
20
34.473178125000004
30
0
0
VERTEX
8
0
10
88.809765625
20
34.45881875
30
0
0
VERTEX
8
0
10
88.7785625
20
34.437971875
30
0
0
VERTEX
8
0
10
86.84702812500001
20
32.506437500000004
30
0
0
VERTEX
8
0
10
86.82618125
20
32.475234375
30
0
0
VERTEX
8
0
10
86.811821875
20
32.440565625000005
30
0
0
VERTEX
8
0
10
86.8045
20
32.4037625
30
0
0
VERTEX
8
0
10
86.8045
20
26.629565625
30
0
0
VERTEX
8
0
10
86.50203437500001
20
26.3271
30
0
0
VERTEX
8
0
10
72.5805
20
26.3271
30
0
0
VERTEX
8
0
10
72.5805
20
42.545
30
0
0
VERTEX
8
0
10
72.77000000000001
20
42.545
30
0
0
VERTEX
8
0
10
72.77000000000001
20
43.624500000000005
30
0
0
VERTEX
8
0
10
75.33500000000001
20
43.624500000000005
30
0
0
VERTEX
8
0
10
75.33500000000001
20
43.580125
30
0
0
VERTEX
8
0
10
75.3401125
20
43.56105
30
0
0
VERTEX
8
0
10
75.349984375
20
43.54395
30
0
0
VERTEX
8
0
10
75.36395
20
43.529984375000005
30
0
0
VERTEX
8
0
10
75.38105
20
43.5201125
30
0
0
VERTEX
8
0
10
75.400125
20
43.515
30
0
0
VERTEX
8
0
10
77.169875
20
43.515
30
0
0
VERTEX
8
0
10
77.18895
20
43.5201125
30
0
0
VERTEX
8
0
10
77.20605
20
43.529984375000005
30
0
0
VERTEX
8
0
10
77.220015625
20
43.54395
30
0
0
VERTEX
8
0
10
77.2298875
20
43.56105
30
0
0
VERTEX
8
0
10
77.235
20
43.580125
30
0
0
VERTEX
8
0
10
77.235
20
44.049875
30
0
0
VERTEX
8
0
10
77.2298875
20
44.06895
30
0
0
VERTEX
8
0
10
77.220015625
20
44.08605
30
0
0
VERTEX
8
0
10
77.20605
20
44.100015625000005
30
0
0
VERTEX
8
0
10
77.18895
20
44.1098875
30
0
0
VERTEX
8
0
10
77.169875
20
44.115
30
0
0
VERTEX
8
0
10
75.400125
20
44.115
30
0
0
VERTEX
8
0
10
75.38105
20
44.1098875
30
0
0
VERTEX
8
0
10
75.36395
20
44.100015625000005
30
0
0
VERTEX
8
0
10
75.349984375
20
44.08605
30
0
0
VERTEX
8
0
10
75.3401125
20
44.06895
30
0
0
VERTEX
8
0
10
75.33500000000001
20
44.049875
30
0
0
VERTEX
8
0
10
75.33500000000001
20
44.005500000000005
30
0
0
VERTEX
8
0
10
72.3712375
20
44.005500000000005
30
0
0
VERTEX
8
0
10
72.334434375
20
43.998178125
30
0
0
VERTEX
8
0
10
72.299765625
20
43.983818750000005
30
0
0
VERTEX
8
0
10
72.2685625
20
43.962971875
30
0
0
VERTEX
8
0
10
72.120590625
20
43.815000000000005
30
0
0
VERTEX
8
0
10
70.23
20
43.815000000000005
30
0
0
VERTEX
8
0
10
70.23
20
42.545
30
0
0
VERTEX
8
0
10
72.1995
20
42.545
30
0
0
VERTEX
8
0
10
72.1995
20
26.1178375
30
0
0
VERTEX
8
0
10
72.206821875
20
26.081034375
30
0
0
VERTEX
8
0
10
72.22118125
20
26.046365625
30
0
0
VERTEX
8
0
10
72.242028125
20
26.015162500000002
30
0
0
VERTEX
8
0
10
72.2685625
20
25.988628125
30
0
0
VERTEX
8
0
10
72.299765625
20
25.96778125
30
0
0
VERTEX
8
0
10
72.334434375
20
25.953421875
30
0
0
VERTEX
8
0
10
72.3712375
20
25.9461
30
0
0
VERTEX
8
0
10
86.59970625000001
20
25.9461
30
0
0
VERTEX
8
0
10
86.636509375
20
25.953421875
30
0
0
VERTEX
8
0
10
86.671178125
20
25.96778125
30
0
0
VERTEX
8
0
10
86.70238125
20
25.988628125
30
0
0
VERTEX
8
0
10
87.142971875
20
26.42921875
30
0
0
SEQEND
0
POLYLINE
66
1
8
1_copper
10
0.0
20
0.0
30
0.0
70
1
0
VERTEX
8
0
10
82.09895
20
44.7901125
30
0
0
VERTEX
8
0
10
82.11605
20
44.799984375
30
0
0
VERTEX
8
0
10
82.130015625
20
44.813950000000006
30
0
0
VERTEX
8
0
10
82.1398875
20
44.831050000000005
30
0
0
VERTEX
8
0
10
82.14500000000001
20
44.850125000000006
30
0
0
VERTEX
8
0
10
82.14500000000001
20
45.319875
30
0
0
VERTEX
8
0
10
82.1398875
20
45.338950000000004
30
0
0
VERTEX
8
0
10
82.130015625
20
45.35605
30
0
0
VERTEX
8
0
10
82.11605
20
45.370015625
30
0
0
VERTEX
8
0
10
82.09895
20
45.3798875
30
0
0
VERTEX
8
0
10
82.079875
20
45.385000000000005
30
0
0
VERTEX
8
0
10
80.61440937500001
20
45.385000000000005
30
0
0
VERTEX
8
0
10
75.946
20
50.053409375
30
0
0
VERTEX
8
0
10
75.946
20
51.752500000000005
30
0
0
VERTEX
8
0
10
74.676
20
51.752500000000005
30
0
0
VERTEX
8
0
10
74.676
20
49.847500000000004
30
0
0
VERTEX
8
0
10
75.613090625
20
49.847500000000004
30
0
0
VERTEX
8
0
10
80.245
20
45.215590625000004
30
0
0
VERTEX
8
0
10
80.245
20
44.850125000000006
30
0
0
VERTEX
8
0
10
80.2501125
20
44.831050000000005
30
0
0
VERTEX
8
0
10
80.259984375
20
44.813950000000006
30
0
0
VERTEX
8
0
10
80.27395
20
44.799984375
30
0
0
VERTEX
8
0
10
80.29105
20
44.7901125
30
0
0
VERTEX
8
0
10
80.310125
20
44.785000000000004
30
0
0
VERTEX
8
0
10
82.079875
20
44.785000000000004
30
0
0
SEQEND
0
POLYLINE
66
1
8
1_copper
10
0.0
20
0.0
30
0.0
70
1
0
VERTEX
8
0
10
79.54381875
20
32.294765625000004
30
0
0
VERTEX
8
0
10
79.558178125
20
32.329434375
30
0
0
VERTEX
8
0
10
79.5655
20
32.366237500000004
30
0
0
VERTEX
8
0
10
79.5655
20
35.877500000000005
30
0
0
VERTEX
8
0
10
80.26400000000001
20
35.877500000000005
30
0
0
VERTEX
8
0
10
80.26400000000001
20
37.7825
30
0
0
VERTEX
8
0
10
78.994
20
37.7825
30
0
0
VERTEX
8
0
10
78.994
20
35.877500000000005
30
0
0
VERTEX
8
0
10
79.1845
20
35.877500000000005
30
0
0
VERTEX
8
0
10
79.1845
20
33.02
30
0
0
VERTEX
8
0
10
78.105
20
33.02
30
0
0
VERTEX
8
0
10
78.105
20
30.48
30
0
0
VERTEX
8
0
10
79.375
20
30.48
30
0
0
VERTEX
8
0
10
79.375
20
32.115590625
30
0
0
VERTEX
8
0
10
79.52297187500001
20
32.2635625
30
0
0
SEQEND
0
POLYLINE
66
1
8
1_copper
10
0.0
20
0.0
30
0.0
70
1
0
VERTEX
8
0
10
83.050678125
20
42.918065625000004
30
0
0
VERTEX
8
0
10
83.03631875
20
42.952734375
30
0
0
VERTEX
8
0
10
83.015471875
20
42.9839375
30
0
0
VERTEX
8
0
10
82.14500000000001
20
43.854409375
30
0
0
VERTEX
8
0
10
82.14500000000001
20
44.049875
30
0
0
VERTEX
8
0
10
82.1398875
20
44.06895
30
0
0
VERTEX
8
0
10
82.130015625
20
44.08605
30
0
0
VERTEX
8
0
10
82.11605
20
44.100015625000005
30
0
0
VERTEX
8
0
10
82.09895
20
44.1098875
30
0
0
VERTEX
8
0
10
82.079875
20
44.115
30
0
0
VERTEX
8
0
10
80.310125
20
44.115
30
0
0
VERTEX
8
0
10
80.29105
20
44.1098875
30
0
0
VERTEX
8
0
10
80.27395
20
44.100015625000005
30
0
0
VERTEX
8
0
10
80.259984375
20
44.08605
30
0
0
VERTEX
8
0
10
80.2501125
20
44.06895
30
0
0
VERTEX
8
0
10
80.245
20
44.049875
30
0
0
VERTEX
8
0
10
80.245
20
43.580125
30
0
0
VERTEX
8
0
10
80.2501125
20
43.56105
30
0
0
VERTEX
8
0
10
80.259984375
20
43.54395
30
0
0
VERTEX
8
0
10
80.27395
20
43.529984375000005
30
0
0
VERTEX
8
0
10
80.29105
20
43.5201125
30
0
0
VERTEX
8
0
10
80.310125
20
43.515
30
0
0
VERTEX
8
0
10
81.94559062500001
20
43.515
30
0
0
VERTEX
8
0
10
82.677
20
42.783590625
30
0
0
VERTEX
8
0
10
82.677
20
37.7825
30
0
0
VERTEX
8
0
10
82.296
20
37.7825
30
0
0
VERTEX
8
0
10
82.296
20
36.527909375
30
0
0
VERTEX
8
0
10
81.132028125
20
35.3639375
30
0
0
VERTEX
8
0
10
81.11118125
20
35.332734375
30
0
0
VERTEX
8
0
10
81.096821875
20
35.298065625
30
0
0
VERTEX
8
0
10
81.0895
20
35.2612625
30
0
0
VERTEX
8
0
10
81.0895
20
33.02
30
0
0
VERTEX
8
0
10
80.64500000000001
20
33.02
30
0
0
VERTEX
8
0
10
80.64500000000001
20
30.48
30
0
0
VERTEX
8
0
10
81.915
20
30.48
30
0
0
VERTEX
8
0
10
81.915
20
33.02
30
0
0
VERTEX
8
0
10
81.4705
20
33.02
30
0
0
VERTEX
8
0
10
81.4705
20
35.163590625000005
30
0
0
VERTEX
8
0
10
82.296
20
35.989090625
30
0
0
VERTEX
8
0
10
82.296
20
35.877500000000005
30
0
0
VERTEX
8
0
10
83.566
20
35.877500000000005
30
0
0
VERTEX
8
0
10
83.566
20
37.7825
30
0
0
VERTEX
8
0
10
83.058
20
37.7825
30
0
0
VERTEX
8
0
10
83.058
20
42.881262500000005
30
0
0
SEQEND
0
ENDSEC
0
EOF