0
SECTION
2
HEADER
9
$ANGDIR
70
1
9
$AUNITS
70
0
9
$PROJECTNAME
1
Schematic_1614_I_ONew v28
9
$TDCREATE
40
2460277.60822556
9
$INSUNITS
70
4
0
ENDSEC
0
SECTION
2
ENTITIES
0
POLYLINE
66
1
8
outline
10
0.0
20
0.0
30
0.0
70
1
0
VERTEX
8
0
10
0
20
0
30
0
0
VERTEX
8
0
10
160
20
0
30
0
0
VERTEX
8
0
10
160
20
100
30
0
0
VERTEX
8
0
10
0
20
100
30
0
0
VERTEX
8
0
10
0
20
0
30
0
0
SEQEND
0
POLYLINE
66
1
8
1_copper
10
0.0
20
0.0
30
0.0
70
1
0
VERTEX
8
0
10
55.118
20
67.94500000000001
30
0
0
VERTEX
8
0
10
53.594
20
67.94500000000001
30
0
0
VERTEX
8
0
10
53.594
20
65.659
30
0
0
VERTEX
8
0
10
55.118
20
65.659
30
0
0
SEQEND
0
POLYLINE
66
1
8
1_copper
10
0.0
20
0.0
30
0.0
70
1
0
VERTEX
8
0
10
50.546
20
67.94500000000001
30
0
0
VERTEX
8
0
10
49.022000000000006
20
67.94500000000001
30
0
0
VERTEX
8
0
10
49.022000000000006
20
65.659
30
0
0
VERTEX
8
0
10
50.546
20
65.659
30
0
0
SEQEND
0
POLYLINE
66
1
8
1_copper
10
0.0
20
0.0
30
0.0
70
1
0
VERTEX
8
0
10
83.82000000000001
20
46.355000000000004
30
0
0
VERTEX
8
0
10
81.28
20
46.355000000000004
30
0
0
VERTEX
8
0
10
81.28
20
45.085
30
0
0
VERTEX
8
0
10
83.82000000000001
20
45.085
30
0
0
SEQEND
0
POLYLINE
66
1
8
1_copper
10
0.0
20
0.0
30
0.0
70
1
0
VERTEX
8
0
10
70.485
20
39.370000000000005
30
0
0
VERTEX
8
0
10
69.215
20
39.370000000000005
30
0
0
VERTEX
8
0
10
69.215
20
36.83
30
0
0
VERTEX
8
0
10
70.485
20
36.83
30
0
0
SEQEND
0
POLYLINE
66
1
8
1_copper
10
0.0
20
0.0
30
0.0
70
1
0
VERTEX
8
0
10
60.325
20
39.370000000000005
30
0
0
VERTEX
8
0
10
59.055
20
39.370000000000005
30
0
0
VERTEX
8
0
10
59.055
20
36.83
30
0
0
VERTEX
8
0
10
60.325
20
36.83
30
0
0
SEQEND
0
POLYLINE
66
1
8
1_copper
10
0.0
20
0.0
30
0.0
70
1
0
VERTEX
8
0
10
78.830234375
20
37.93118125
30
0
0
VERTEX
8
0
10
78.86143750000001
20
37.952028125000005
30
0
0
VERTEX
8
0
10
86.50797187500001
20
45.5985625
30
0
0
VERTEX
8
0
10
86.52881875
20
45.629765625000005
30
0
0
VERTEX
8
0
10
86.543178125
20
45.664434375
30
0
0
VERTEX
8
0
10
86.5505
20
45.701237500000005
30
0
0
VERTEX
8
0
10
86.5505
20
64.7887625
30
0
0
VERTEX
8
0
10
86.543178125
20
64.82556562500001
30
0
0
VERTEX
8
0
10
86.52881875
20
64.860234375
30
0
0
VERTEX
8
0
10
86.50797187500001
20
64.89143750000001
30
0
0
VERTEX
8
0
10
81.4014375
20
69.997971875
30
0
0
VERTEX
8
0
10
81.37023437500001
20
70.01881875000001
30
0
0
VERTEX
8
0
10
81.335565625
20
70.033178125
30
0
0
VERTEX
8
0
10
81.29876250000001
20
70.04050000000001
30
0
0
VERTEX
8
0
10
78.4225
20
70.04050000000001
30
0
0
VERTEX
8
0
10
78.4225
20
70.866
30
0
0
VERTEX
8
0
10
76.5175
20
70.866
30
0
0
VERTEX
8
0
10
76.5175
20
70.04050000000001
30
0
0
VERTEX
8
0
10
71.3105
20
70.04050000000001
30
0
0
VERTEX
8
0
10
71.3105
20
71.1387625
30
0
0
VERTEX
8
0
10
71.303178125
20
71.175565625
30
0
0
VERTEX
8
0
10
71.28881875
20
71.210234375
30
0
0
VERTEX
8
0
10
71.267971875
20
71.2414375
30
0
0
VERTEX
8
0
10
71.2414375
20
71.267971875
30
0
0
VERTEX
8
0
10
71.210234375
20
71.28881875
30
0
0
VERTEX
8
0
10
71.175565625
20
71.303178125
30
0
0
VERTEX
8
0
10
71.1387625
20
71.3105
30
0
0
VERTEX
8
0
10
67.29123750000001
20
71.3105
30
0
0
VERTEX
8
0
10
67.254434375
20
71.303178125
30
0
0
VERTEX
8
0
10
67.21976562500001
20
71.28881875
30
0
0
VERTEX
8
0
10
67.1885625
20
71.267971875
30
0
0
VERTEX
8
0
10
66.110590625
20
70.19
30
0
0
VERTEX
8
0
10
65.28
20
70.19
30
0
0
VERTEX
8
0
10
65.28
20
66.89
30
0
0
VERTEX
8
0
10
66.8
20
66.89
30
0
0
VERTEX
8
0
10
66.8
20
70.19
30
0
0
VERTEX
8
0
10
66.649409375
20
70.19
30
0
0
VERTEX
8
0
10
67.388909375
20
70.9295
30
0
0
VERTEX
8
0
10
70.9295
20
70.9295
30
0
0
VERTEX
8
0
10
70.9295
20
66.118909375
30
0
0
VERTEX
8
0
10
68.432028125
20
63.621437500000006
30
0
0
VERTEX
8
0
10
68.41118125
20
63.590234375
30
0
0
VERTEX
8
0
10
68.396821875
20
63.555565625
30
0
0
VERTEX
8
0
10
68.3895
20
63.5187625
30
0
0
VERTEX
8
0
10
68.3895
20
58.715
30
0
0
VERTEX
8
0
10
67.677971875
20
58.715
30
0
0
VERTEX
8
0
10
67.64947500000001
20
58.709331250000005
30
0
0
VERTEX
8
0
10
67.62263125
20
58.698212500000004
30
0
0
VERTEX
8
0
10
67.59847500000001
20
58.682071875000005
30
0
0
VERTEX
8
0
10
67.577928125
20
58.661525000000005
30
0
0
VERTEX
8
0
10
67.56178750000001
20
58.63736875
30
0
0
VERTEX
8
0
10
67.55066875
20
58.610525
30
0
0
VERTEX
8
0
10
67.545
20
58.582028125
30
0
0
VERTEX
8
0
10
67.545
20
58.257971875
30
0
0
VERTEX
8
0
10
67.55066875
20
58.229475
30
0
0
VERTEX
8
0
10
67.56178750000001
20
58.20263125
30
0
0
VERTEX
8
0
10
67.577928125
20
58.178475000000006
30
0
0
VERTEX
8
0
10
67.59847500000001
20
58.157928125000005
30
0
0
VERTEX
8
0
10
67.62263125
20
58.1417875
30
0
0
VERTEX
8
0
10
67.64947500000001
20
58.130668750000005
30
0
0
VERTEX
8
0
10
67.677971875
20
58.125
30
0
0
VERTEX
8
0
10
69.36202812500001
20
58.125
30
0
0
VERTEX
8
0
10
69.390525
20
58.130668750000005
30
0
0
VERTEX
8
0
10
69.41736875000001
20
58.1417875
30
0
0
VERTEX
8
0
10
69.441525
20
58.157928125000005
30
0
0
VERTEX
8
0
10
69.462071875
20
58.178475000000006
30
0
0
VERTEX
8
0
10
69.4782125
20
58.20263125
30
0
0
VERTEX
8
0
10
69.48933125
20
58.229475
30
0
0
VERTEX
8
0
10
69.495
20
58.257971875
30
0
0
VERTEX
8
0
10
69.495
20
58.582028125
30
0
0
VERTEX
8
0
10
69.48933125
20
58.610525
30
0
0
VERTEX
8
0
10
69.4782125
20
58.63736875
30
0
0
VERTEX
8
0
10
69.462071875
20
58.661525000000005
30
0
0
VERTEX
8
0
10
69.441525
20
58.682071875000005
30
0
0
VERTEX
8
0
10
69.41736875000001
20
58.698212500000004
30
0
0
VERTEX
8
0
10
69.390525
20
58.709331250000005
30
0
0
VERTEX
8
0
10
69.36202812500001
20
58.715
30
0
0
VERTEX
8
0
10
68.7705
20
58.715
30
0
0
VERTEX
8
0
10
68.7705
20
63.421090625000005
30
0
0
VERTEX
8
0
10
71.267971875
20
65.91856250000001
30
0
0
VERTEX
8
0
10
71.28881875
20
65.949765625
30
0
0
VERTEX
8
0
10
71.303178125
20
65.984434375
30
0
0
VERTEX
8
0
10
71.3105
20
66.0212375
30
0
0
VERTEX
8
0
10
71.3105
20
69.65950000000001
30
0
0
VERTEX
8
0
10
76.5175
20
69.65950000000001
30
0
0
VERTEX
8
0
10
76.5175
20
69.596
30
0
0
VERTEX
8
0
10
78.4225
20
69.596
30
0
0
VERTEX
8
0
10
78.4225
20
69.65950000000001
30
0
0
VERTEX
8
0
10
81.201090625
20
69.65950000000001
30
0
0
VERTEX
8
0
10
86.1695
20
64.691090625
30
0
0
VERTEX
8
0
10
86.1695
20
45.798909375
30
0
0
VERTEX
8
0
10
78.661090625
20
38.2905
30
0
0
VERTEX
8
0
10
73.025
20
38.2905
30
0
0
VERTEX
8
0
10
73.025
20
39.370000000000005
30
0
0
VERTEX
8
0
10
71.75500000000001
20
39.370000000000005
30
0
0
VERTEX
8
0
10
71.75500000000001
20
36.83
30
0
0
VERTEX
8
0
10
72.1995
20
36.83
30
0
0
VERTEX
8
0
10
72.1995
20
34.4805
30
0
0
VERTEX
8
0
10
58.379565625000005
20
34.4805
30
0
0
VERTEX
8
0
10
51.8795
20
40.980565625000004
30
0
0
VERTEX
8
0
10
51.8795
20
43.4975
30
0
0
VERTEX
8
0
10
52.324000000000005
20
43.4975
30
0
0
VERTEX
8
0
10
52.324000000000005
20
45.4025
30
0
0
VERTEX
8
0
10
52.021909375
20
45.4025
30
0
0
VERTEX
8
0
10
54.757971875
20
48.1385625
30
0
0
VERTEX
8
0
10
54.77881875
20
48.169765625000004
30
0
0
VERTEX
8
0
10
54.793178125000004
20
48.204434375000005
30
0
0
VERTEX
8
0
10
54.8005
20
48.241237500000004
30
0
0
VERTEX
8
0
10
54.8005
20
51.1175
30
0
0
VERTEX
8
0
10
55.626000000000005
20
51.1175
30
0
0
VERTEX
8
0
10
55.626000000000005
20
53.0225
30
0
0
VERTEX
8
0
10
54.356
20
53.0225
30
0
0
VERTEX
8
0
10
54.356
20
51.1175
30
0
0
VERTEX
8
0
10
54.4195
20
51.1175
30
0
0
VERTEX
8
0
10
54.4195
20
48.450500000000005
30
0
0
VERTEX
8
0
10
45.72
20
48.450500000000005
30
0
0
VERTEX
8
0
10
45.72
20
48.895
30
0
0
VERTEX
8
0
10
43.18
20
48.895
30
0
0
VERTEX
8
0
10
43.18
20
47.625
30
0
0
VERTEX
8
0
10
45.72
20
47.625
30
0
0
VERTEX
8
0
10
45.72
20
48.069500000000005
30
0
0
VERTEX
8
0
10
54.150090625000004
20
48.069500000000005
30
0
0
VERTEX
8
0
10
51.541028125000004
20
45.460437500000005
30
0
0
VERTEX
8
0
10
51.52018125
20
45.429234375
30
0
0
VERTEX
8
0
10
51.509109375
20
45.4025
30
0
0
VERTEX
8
0
10
51.054
20
45.4025
30
0
0
VERTEX
8
0
10
51.054
20
43.4975
30
0
0
VERTEX
8
0
10
51.4985
20
43.4975
30
0
0
VERTEX
8
0
10
51.4985
20
40.88289375
30
0
0
VERTEX
8
0
10
51.505821875
20
40.846090625
30
0
0
VERTEX
8
0
10
51.52018125
20
40.811421875
30
0
0
VERTEX
8
0
10
51.541028125000004
20
40.78021875
30
0
0
VERTEX
8
0
10
58.179218750000004
20
34.142028125
30
0
0
VERTEX
8
0
10
58.210421875
20
34.12118125
30
0
0
VERTEX
8
0
10
58.245090625
20
34.106821875
30
0
0
VERTEX
8
0
10
58.28189375
20
34.0995
30
0
0
VERTEX
8
0
10
72.40876250000001
20
34.0995
30
0
0
VERTEX
8
0
10
72.445565625
20
34.106821875
30
0
0
VERTEX
8
0
10
72.48023437500001
20
34.12118125
30
0
0
VERTEX
8
0
10
72.5114375
20
34.142028125
30
0
0
VERTEX
8
0
10
72.537971875
20
34.1685625
30
0
0
VERTEX
8
0
10
72.55881875
20
34.199765625000005
30
0
0
VERTEX
8
0
10
72.573178125
20
34.234434375
30
0
0
VERTEX
8
0
10
72.5805
20
34.271237500000005
30
0
0
VERTEX
8
0
10
72.5805
20
36.83
30
0
0
VERTEX
8
0
10
73.025
20
36.83
30
0
0
VERTEX
8
0
10
73.025
20
37.9095
30
0
0
VERTEX
8
0
10
78.7587625
20
37.9095
30
0
0
VERTEX
8
0
10
78.79556562500001
20
37.916821875000004
30
0
0
SEQEND
0
POLYLINE
66
1
8
1_copper
10
0.0
20
0.0
30
0.0
70
1
0
VERTEX
8
0
10
67.493178125
20
40.060565625
30
0
0
VERTEX
8
0
10
67.47881875
20
40.095234375000004
30
0
0
VERTEX
8
0
10
67.457971875
20
40.1264375
30
0
0
VERTEX
8
0
10
67.4314375
20
40.152971875
30
0
0
VERTEX
8
0
10
67.400234375
20
40.17381875
30
0
0
VERTEX
8
0
10
67.365565625
20
40.188178125
30
0
0
VERTEX
8
0
10
67.3287625
20
40.1955
30
0
0
VERTEX
8
0
10
63.481237500000006
20
40.1955
30
0
0
VERTEX
8
0
10
63.444434375
20
40.188178125
30
0
0
VERTEX
8
0
10
63.409765625000006
20
40.17381875
30
0
0
VERTEX
8
0
10
63.3785625
20
40.152971875
30
0
0
VERTEX
8
0
10
63.352028125000004
20
40.1264375
30
0
0
VERTEX
8
0
10
63.33118125
20
40.095234375000004
30
0
0
VERTEX
8
0
10
63.316821875
20
40.060565625
30
0
0
VERTEX
8
0
10
63.3095
20
40.023762500000004
30
0
0
VERTEX
8
0
10
63.3095
20
36.3855
30
0
0
VERTEX
8
0
10
58.6105
20
36.3855
30
0
0
VERTEX
8
0
10
58.6105
20
44.468762500000004
30
0
0
VERTEX
8
0
10
58.603178125
20
44.505565625
30
0
0
VERTEX
8
0
10
58.58881875
20
44.540234375000004
30
0
0
VERTEX
8
0
10
58.567971875000005
20
44.5714375
30
0
0
VERTEX
8
0
10
58.5414375
20
44.597971875
30
0
0
VERTEX
8
0
10
58.510234375
20
44.61881875
30
0
0
VERTEX
8
0
10
58.475565625
20
44.633178125
30
0
0
VERTEX
8
0
10
58.4387625
20
44.6405
30
0
0
VERTEX
8
0
10
56.7055
20
44.6405
30
0
0
VERTEX
8
0
10
56.7055
20
52.63719375
30
0
0
VERTEX
8
0
10
56.698178125000005
20
52.673996875
30
0
0
VERTEX
8
0
10
56.68381875
20
52.708665625
30
0
0
VERTEX
8
0
10
56.662971875000004
20
52.73986875
30
0
0
VERTEX
8
0
10
54.61946875
20
54.783371875
30
0
0
VERTEX
8
0
10
54.588265625000005
20
54.804218750000004
30
0
0
VERTEX
8
0
10
54.553596875000004
20
54.818578125
30
0
0
VERTEX
8
0
10
54.516793750000005
20
54.825900000000004
30
0
0
VERTEX
8
0
10
53.3466375
20
54.825900000000004
30
0
0
VERTEX
8
0
10
53.309834375
20
54.818578125
30
0
0
VERTEX
8
0
10
53.275165625
20
54.804218750000004
30
0
0
VERTEX
8
0
10
53.2439625
20
54.783371875
30
0
0
VERTEX
8
0
10
53.192028125
20
54.731437500000006
30
0
0
VERTEX
8
0
10
53.171181250000004
20
54.700234375
30
0
0
VERTEX
8
0
10
53.156821875000006
20
54.665565625
30
0
0
VERTEX
8
0
10
53.1495
20
54.6287625
30
0
0
VERTEX
8
0
10
53.1495
20
49.7205
30
0
0
VERTEX
8
0
10
47.1805
20
49.7205
30
0
0
VERTEX
8
0
10
47.1805
20
50.818762500000005
30
0
0
VERTEX
8
0
10
47.173178125
20
50.855565625000004
30
0
0
VERTEX
8
0
10
47.15881875
20
50.890234375000006
30
0
0
VERTEX
8
0
10
47.137971875000005
20
50.9214375
30
0
0
VERTEX
8
0
10
47.1114375
20
50.947971875
30
0
0
VERTEX
8
0
10
47.080234375
20
50.968818750000004
30
0
0
VERTEX
8
0
10
47.045565625
20
50.983178125
30
0
0
VERTEX
8
0
10
47.0087625
20
50.990500000000004
30
0
0
VERTEX
8
0
10
45.72
20
50.990500000000004
30
0
0
VERTEX
8
0
10
45.72
20
51.435
30
0
0
VERTEX
8
0
10
43.18
20
51.435
30
0
0
VERTEX
8
0
10
43.18
20
50.990500000000004
30
0
0
VERTEX
8
0
10
42.7355
20
50.990500000000004
30
0
0
VERTEX
8
0
10
42.7355
20
56.959500000000006
30
0
0
VERTEX
8
0
10
47.0087625
20
56.959500000000006
30
0
0
VERTEX
8
0
10
47.045565625
20
56.966821875
30
0
0
VERTEX
8
0
10
47.080234375
20
56.981181250000006
30
0
0
VERTEX
8
0
10
47.1114375
20
57.002028125
30
0
0
VERTEX
8
0
10
49.164409375000005
20
59.055
30
0
0
VERTEX
8
0
10
50.546
20
59.055
30
0
0
VERTEX
8
0
10
50.546
20
61.341
30
0
0
VERTEX
8
0
10
49.022000000000006
20
61.341
30
0
0
VERTEX
8
0
10
49.022000000000006
20
59.451409375000004
30
0
0
VERTEX
8
0
10
46.911090625
20
57.340500000000006
30
0
0
VERTEX
8
0
10
42.7355
20
57.340500000000006
30
0
0
VERTEX
8
0
10
42.7355
20
64.57950000000001
30
0
0
VERTEX
8
0
10
63.3095
20
64.57950000000001
30
0
0
VERTEX
8
0
10
63.3095
20
58.715
30
0
0
VERTEX
8
0
10
62.717971875
20
58.715
30
0
0
VERTEX
8
0
10
62.689475
20
58.709331250000005
30
0
0
VERTEX
8
0
10
62.662631250000004
20
58.698212500000004
30
0
0
VERTEX
8
0
10
62.638475
20
58.682071875000005
30
0
0
VERTEX
8
0
10
62.617928125000006
20
58.661525000000005
30
0
0
VERTEX
8
0
10
62.6017875
20
58.63736875
30
0
0
VERTEX
8
0
10
62.590668750000006
20
58.610525
30
0
0
VERTEX
8
0
10
62.585
20
58.582028125
30
0
0
VERTEX
8
0
10
62.585
20
58.257971875
30
0
0
VERTEX
8
0
10
62.590668750000006
20
58.229475
30
0
0
VERTEX
8
0
10
62.6017875
20
58.20263125
30
0
0
VERTEX
8
0
10
62.617928125000006
20
58.178475000000006
30
0
0
VERTEX
8
0
10
62.638475
20
58.157928125000005
30
0
0
VERTEX
8
0
10
62.662631250000004
20
58.1417875
30
0
0
VERTEX
8
0
10
62.689475
20
58.130668750000005
30
0
0
VERTEX
8
0
10
62.717971875
20
58.125
30
0
0
VERTEX
8
0
10
64.402028125
20
58.125
30
0
0
VERTEX
8
0
10
64.430525
20
58.130668750000005
30
0
0
VERTEX
8
0
10
64.45736875
20
58.1417875
30
0
0
VERTEX
8
0
10
64.481525
20
58.157928125000005
30
0
0
VERTEX
8
0
10
64.502071875
20
58.178475000000006
30
0
0
VERTEX
8
0
10
64.5182125
20
58.20263125
30
0
0
VERTEX
8
0
10
64.52933125
20
58.229475
30
0
0
VERTEX
8
0
10
64.535
20
58.257971875
30
0
0
VERTEX
8
0
10
64.535
20
58.582028125
30
0
0
VERTEX
8
0
10
64.52933125
20
58.610525
30
0
0
VERTEX
8
0
10
64.5182125
20
58.63736875
30
0
0
VERTEX
8
0
10
64.502071875
20
58.661525000000005
30
0
0
VERTEX
8
0
10
64.481525
20
58.682071875000005
30
0
0
VERTEX
8
0
10
64.45736875
20
58.698212500000004
30
0
0
VERTEX
8
0
10
64.430525
20
58.709331250000005
30
0
0
VERTEX
8
0
10
64.402028125
20
58.715
30
0
0
VERTEX
8
0
10
63.6905
20
58.715
30
0
0
VERTEX
8
0
10
63.6905
20
66.89
30
0
0
VERTEX
8
0
10
64.26
20
66.89
30
0
0
VERTEX
8
0
10
64.26
20
70.19
30
0
0
VERTEX
8
0
10
62.74
20
70.19
30
0
0
VERTEX
8
0
10
62.74
20
66.89
30
0
0
VERTEX
8
0
10
63.3095
20
66.89
30
0
0
VERTEX
8
0
10
63.3095
20
64.9605
30
0
0
VERTEX
8
0
10
42.5262375
20
64.9605
30
0
0
VERTEX
8
0
10
42.489434375
20
64.95317812500001
30
0
0
VERTEX
8
0
10
42.454765625
20
64.93881875000001
30
0
0
VERTEX
8
0
10
42.4235625
20
64.917971875
30
0
0
VERTEX
8
0
10
42.397028125
20
64.89143750000001
30
0
0
VERTEX
8
0
10
42.37618125
20
64.860234375
30
0
0
VERTEX
8
0
10
42.361821875000004
20
64.82556562500001
30
0
0
VERTEX
8
0
10
42.3545
20
64.7887625
30
0
0
VERTEX
8
0
10
42.3545
20
50.7812375
30
0
0
VERTEX
8
0
10
42.361821875000004
20
50.744434375000004
30
0
0
VERTEX
8
0
10
42.37618125
20
50.709765625
30
0
0
VERTEX
8
0
10
42.397028125
20
50.678562500000005
30
0
0
VERTEX
8
0
10
42.4235625
20
50.652028125
30
0
0
VERTEX
8
0
10
42.454765625
20
50.631181250000004
30
0
0
VERTEX
8
0
10
42.489434375
20
50.616821875
30
0
0
VERTEX
8
0
10
42.5262375
20
50.609500000000004
30
0
0
VERTEX
8
0
10
43.18
20
50.609500000000004
30
0
0
VERTEX
8
0
10
43.18
20
50.165
30
0
0
VERTEX
8
0
10
45.72
20
50.165
30
0
0
VERTEX
8
0
10
45.72
20
50.609500000000004
30
0
0
VERTEX
8
0
10
46.7995
20
50.609500000000004
30
0
0
VERTEX
8
0
10
46.7995
20
49.5112375
30
0
0
VERTEX
8
0
10
46.806821875000004
20
49.474434375
30
0
0
VERTEX
8
0
10
46.82118125
20
49.439765625
30
0
0
VERTEX
8
0
10
46.842028125
20
49.4085625
30
0
0
VERTEX
8
0
10
46.8685625
20
49.382028125000005
30
0
0
VERTEX
8
0
10
46.899765625
20
49.36118125
30
0
0
VERTEX
8
0
10
46.934434375
20
49.346821875
30
0
0
VERTEX
8
0
10
46.9712375
20
49.3395
30
0
0
VERTEX
8
0
10
53.358762500000005
20
49.3395
30
0
0
VERTEX
8
0
10
53.395565625
20
49.346821875
30
0
0
VERTEX
8
0
10
53.430234375000005
20
49.36118125
30
0
0
VERTEX
8
0
10
53.4614375
20
49.382028125000005
30
0
0
VERTEX
8
0
10
53.487971875
20
49.4085625
30
0
0
VERTEX
8
0
10
53.50881875
20
49.439765625
30
0
0
VERTEX
8
0
10
53.523178125
20
49.474434375
30
0
0
VERTEX
8
0
10
53.5305
20
49.5112375
30
0
0
VERTEX
8
0
10
53.5305
20
54.444900000000004
30
0
0
VERTEX
8
0
10
54.419121875
20
54.444900000000004
30
0
0
VERTEX
8
0
10
56.3245
20
52.539521875000005
30
0
0
VERTEX
8
0
10
56.3245
20
44.6405
30
0
0
VERTEX
8
0
10
55.626000000000005
20
44.6405
30
0
0
VERTEX
8
0
10
55.626000000000005
20
45.4025
30
0
0
VERTEX
8
0
10
54.356
20
45.4025
30
0
0
VERTEX
8
0
10
54.356
20
43.4975
30
0
0
VERTEX
8
0
10
55.626000000000005
20
43.4975
30
0
0
VERTEX
8
0
10
55.626000000000005
20
44.2595
30
0
0
VERTEX
8
0
10
58.2295
20
44.2595
30
0
0
VERTEX
8
0
10
58.2295
20
36.1762375
30
0
0
VERTEX
8
0
10
58.236821875000004
20
36.139434375
30
0
0
VERTEX
8
0
10
58.25118125
20
36.104765625
30
0
0
VERTEX
8
0
10
58.272028125000006
20
36.0735625
30
0
0
VERTEX
8
0
10
58.2985625
20
36.047028125000004
30
0
0
VERTEX
8
0
10
58.329765625
20
36.02618125
30
0
0
VERTEX
8
0
10
58.364434375
20
36.011821875
30
0
0
VERTEX
8
0
10
58.4012375
20
36.0045
30
0
0
VERTEX
8
0
10
63.5187625
20
36.0045
30
0
0
VERTEX
8
0
10
63.555565625
20
36.011821875
30
0
0
VERTEX
8
0
10
63.590234375
20
36.02618125
30
0
0
VERTEX
8
0
10
63.621437500000006
20
36.047028125000004
30
0
0
VERTEX
8
0
10
63.647971875
20
36.0735625
30
0
0
VERTEX
8
0
10
63.66881875
20
36.104765625
30
0
0
VERTEX
8
0
10
63.683178125000005
20
36.139434375
30
0
0
VERTEX
8
0
10
63.6905
20
36.1762375
30
0
0
VERTEX
8
0
10
63.6905
20
39.8145
30
0
0
VERTEX
8
0
10
67.1195
20
39.8145
30
0
0
VERTEX
8
0
10
67.1195
20
39.370000000000005
30
0
0
VERTEX
8
0
10
66.675
20
39.370000000000005
30
0
0
VERTEX
8
0
10
66.675
20
36.83
30
0
0
VERTEX
8
0
10
67.94500000000001
20
36.83
30
0
0
VERTEX
8
0
10
67.94500000000001
20
39.370000000000005
30
0
0
VERTEX
8
0
10
67.5005
20
39.370000000000005
30
0
0
VERTEX
8
0
10
67.5005
20
40.023762500000004
30
0
0
SEQEND
0
POLYLINE
66
1
8
1_copper
10
0.0
20
0.0
30
0.0
70
1
0
VERTEX
8
0
10
61.835903125
20
52.253178125000005
30
0
0
VERTEX
8
0
10
61.801234375
20
52.23881875
30
0
0
VERTEX
8
0
10
61.77003125
20
52.217971875
30
0
0
VERTEX
8
0
10
60.812028125000005
20
51.259968750000006
30
0
0
VERTEX
8
0
10
60.79118125
20
51.228765625
30
0
0
VERTEX
8
0
10
60.776821875
20
51.194096875
30
0
0
VERTEX
8
0
10
60.7695
20
51.15729375
30
0
0
VERTEX
8
0
10
60.7695
20
40.6212375
30
0
0
VERTEX
8
0
10
60.776821875
20
40.584434375
30
0
0
VERTEX
8
0
10
60.79118125
20
40.549765625
30
0
0
VERTEX
8
0
10
60.812028125000005
20
40.5185625
30
0
0
VERTEX
8
0
10
61.960590625
20
39.370000000000005
30
0
0
VERTEX
8
0
10
61.595000000000006
20
39.370000000000005
30
0
0
VERTEX
8
0
10
61.595000000000006
20
36.83
30
0
0
VERTEX
8
0
10
62.865
20
36.83
30
0
0
VERTEX
8
0
10
62.865
20
39.370000000000005
30
0
0
VERTEX
8
0
10
62.420500000000004
20
39.370000000000005
30
0
0
VERTEX
8
0
10
62.420500000000004
20
39.3887625
30
0
0
VERTEX
8
0
10
62.413178125
20
39.425565625000004
30
0
0
VERTEX
8
0
10
62.398818750000004
20
39.460234375
30
0
0
VERTEX
8
0
10
62.377971875
20
39.4914375
30
0
0
VERTEX
8
0
10
61.1505
20
40.718909375
30
0
0
VERTEX
8
0
10
61.1505
20
51.059621875000005
30
0
0
VERTEX
8
0
10
61.970378125
20
51.8795
30
0
0
VERTEX
8
0
10
62.5906625
20
51.8795
30
0
0
VERTEX
8
0
10
62.590668750000006
20
51.879475
30
0
0
VERTEX
8
0
10
62.6017875
20
51.85263125
30
0
0
VERTEX
8
0
10
62.617928125000006
20
51.828475000000005
30
0
0
VERTEX
8
0
10
62.638475
20
51.807928125000004
30
0
0
VERTEX
8
0
10
62.662631250000004
20
51.791787500000005
30
0
0
VERTEX
8
0
10
62.689475
20
51.780668750000004
30
0
0
VERTEX
8
0
10
62.717971875
20
51.775000000000006
30
0
0
VERTEX
8
0
10
64.402028125
20
51.775000000000006
30
0
0
VERTEX
8
0
10
64.430525
20
51.780668750000004
30
0
0
VERTEX
8
0
10
64.45736875
20
51.791787500000005
30
0
0
VERTEX
8
0
10
64.481525
20
51.807928125000004
30
0
0
VERTEX
8
0
10
64.502071875
20
51.828475000000005
30
0
0
VERTEX
8
0
10
64.5182125
20
51.85263125
30
0
0
VERTEX
8
0
10
64.52933125
20
51.879475
30
0
0
VERTEX
8
0
10
64.535
20
51.907971875
30
0
0
VERTEX
8
0
10
64.535
20
52.232028125
30
0
0
VERTEX
8
0
10
64.52933125
20
52.260525
30
0
0
VERTEX
8
0
10
64.5182125
20
52.287368750000006
30
0
0
VERTEX
8
0
10
64.502071875
20
52.311525
30
0
0
VERTEX
8
0
10
64.481525
20
52.332071875000004
30
0
0
VERTEX
8
0
10
64.45736875
20
52.3482125
30
0
0
VERTEX
8
0
10
64.430525
20
52.359331250000004
30
0
0
VERTEX
8
0
10
64.402028125
20
52.365
30
0
0
VERTEX
8
0
10
62.717971875
20
52.365
30
0
0
VERTEX
8
0
10
62.689475
20
52.359331250000004
30
0
0
VERTEX
8
0
10
62.662631250000004
20
52.3482125
30
0
0
VERTEX
8
0
10
62.638475
20
52.332071875000004
30
0
0
VERTEX
8
0
10
62.617928125000006
20
52.311525
30
0
0
VERTEX
8
0
10
62.6017875
20
52.287368750000006
30
0
0
VERTEX
8
0
10
62.590668750000006
20
52.260525
30
0
0
VERTEX
8
0
10
62.5906625
20
52.2605
30
0
0
VERTEX
8
0
10
61.87270625
20
52.2605
30
0
0
SEQEND
0
POLYLINE
66
1
8
1_copper
10
0.0
20
0.0
30
0.0
70
1
0
VERTEX
8
0
10
84.63817812500001
20
59.745565625000005
30
0
0
VERTEX
8
0
10
84.62381875
20
59.780234375000006
30
0
0
VERTEX
8
0
10
84.60297187500001
20
59.811437500000004
30
0
0
VERTEX
8
0
10
84.5764375
20
59.837971875
30
0
0
VERTEX
8
0
10
84.545234375
20
59.858818750000005
30
0
0
VERTEX
8
0
10
84.510565625
20
59.873178125
30
0
0
VERTEX
8
0
10
84.4737625
20
59.880500000000005
30
0
0
VERTEX
8
0
10
70.9295
20
59.880500000000005
30
0
0
VERTEX
8
0
10
70.9295
20
61.2775
30
0
0
VERTEX
8
0
10
71.37400000000001
20
61.2775
30
0
0
VERTEX
8
0
10
71.37400000000001
20
63.182500000000005
30
0
0
VERTEX
8
0
10
70.104
20
63.182500000000005
30
0
0
VERTEX
8
0
10
70.104
20
61.2775
30
0
0
VERTEX
8
0
10
70.5485
20
61.2775
30
0
0
VERTEX
8
0
10
70.5485
20
59.671237500000004
30
0
0
VERTEX
8
0
10
70.555821875
20
59.634434375000005
30
0
0
VERTEX
8
0
10
70.57018125
20
59.599765625
30
0
0
VERTEX
8
0
10
70.59102812500001
20
59.568562500000006
30
0
0
VERTEX
8
0
10
70.6175625
20
59.542028125
30
0
0
VERTEX
8
0
10
70.64876562500001
20
59.521181250000005
30
0
0
VERTEX
8
0
10
70.683434375
20
59.506821875
30
0
0
VERTEX
8
0
10
70.72023750000001
20
59.499500000000005
30
0
0
VERTEX
8
0
10
84.2645
20
59.499500000000005
30
0
0
VERTEX
8
0
10
84.2645
20
47.1805
30
0
0
VERTEX
8
0
10
66.8655
20
47.1805
30
0
0
VERTEX
8
0
10
66.8655
20
52.0887625
30
0
0
VERTEX
8
0
10
66.85817812500001
20
52.125565625
30
0
0
VERTEX
8
0
10
66.84381875
20
52.160234375
30
0
0
VERTEX
8
0
10
66.82297187500001
20
52.1914375
30
0
0
VERTEX
8
0
10
64.535
20
54.479409375
30
0
0
VERTEX
8
0
10
64.535
20
54.772028125000006
30
0
0
VERTEX
8
0
10
64.52933125
20
54.800525
30
0
0
VERTEX
8
0
10
64.5182125
20
54.827368750000005
30
0
0
VERTEX
8
0
10
64.502071875
20
54.851525
30
0
0
VERTEX
8
0
10
64.481525
20
54.872071875
30
0
0
VERTEX
8
0
10
64.45736875
20
54.8882125
30
0
0
VERTEX
8
0
10
64.430525
20
54.89933125
30
0
0
VERTEX
8
0
10
64.402028125
20
54.905
30
0
0
VERTEX
8
0
10
62.717971875
20
54.905
30
0
0
VERTEX
8
0
10
62.689475
20
54.89933125
30
0
0
VERTEX
8
0
10
62.662631250000004
20
54.8882125
30
0
0
VERTEX
8
0
10
62.638475
20
54.872071875
30
0
0
VERTEX
8
0
10
62.617928125000006
20
54.851525
30
0
0
VERTEX
8
0
10
62.6017875
20
54.827368750000005
30
0
0
VERTEX
8
0
10
62.590668750000006
20
54.800525
30
0
0
VERTEX
8
0
10
62.585
20
54.772028125000006
30
0
0
VERTEX
8
0
10
62.585
20
54.447971875
30
0
0
VERTEX
8
0
10
62.590668750000006
20
54.419475000000006
30
0
0
VERTEX
8
0
10
62.6017875
20
54.39263125
30
0
0
VERTEX
8
0
10
62.617928125000006
20
54.368475000000004
30
0
0
VERTEX
8
0
10
62.638475
20
54.347928125
30
0
0
VERTEX
8
0
10
62.662631250000004
20
54.331787500000004
30
0
0
VERTEX
8
0
10
62.689475
20
54.32066875
30
0
0
VERTEX
8
0
10
62.717971875
20
54.315000000000005
30
0
0
VERTEX
8
0
10
64.160590625
20
54.315000000000005
30
0
0
VERTEX
8
0
10
66.4845
20
51.991090625000005
30
0
0
VERTEX
8
0
10
66.4845
20
46.9712375
30
0
0
VERTEX
8
0
10
66.491821875
20
46.934434375
30
0
0
VERTEX
8
0
10
66.50618125
20
46.899765625
30
0
0
VERTEX
8
0
10
66.527028125
20
46.8685625
30
0
0
VERTEX
8
0
10
66.5535625
20
46.842028125
30
0
0
VERTEX
8
0
10
66.584765625
20
46.82118125
30
0
0
VERTEX
8
0
10
66.619434375
20
46.806821875000004
30
0
0
VERTEX
8
0
10
66.6562375
20
46.7995
30
0
0
VERTEX
8
0
10
84.4737625
20
46.7995
30
0
0
VERTEX
8
0
10
84.510565625
20
46.806821875000004
30
0
0
VERTEX
8
0
10
84.545234375
20
46.82118125
30
0
0
VERTEX
8
0
10
84.5764375
20
46.842028125
30
0
0
VERTEX
8
0
10
84.60297187500001
20
46.8685625
30
0
0
VERTEX
8
0
10
84.62381875
20
46.899765625
30
0
0
VERTEX
8
0
10
84.63817812500001
20
46.934434375
30
0
0
VERTEX
8
0
10
84.6455
20
46.9712375
30
0
0
VERTEX
8
0
10
84.6455
20
59.708762500000006
30
0
0
SEQEND
0
POLYLINE
66
1
8
1_copper
10
0.0
20
0.0
30
0.0
70
1
0
VERTEX
8
0
10
77.63881875
20
65.314765625
30
0
0
VERTEX
8
0
10
77.65317812500001
20
65.349434375
30
0
0
VERTEX
8
0
10
77.6605
20
65.38623750000001
30
0
0
VERTEX
8
0
10
77.6605
20
66.294
30
0
0
VERTEX
8
0
10
78.4225
20
66.294
30
0
0
VERTEX
8
0
10
78.4225
20
67.56400000000001
30
0
0
VERTEX
8
0
10
76.5175
20
67.56400000000001
30
0
0
VERTEX
8
0
10
76.5175
20
66.294
30
0
0
VERTEX
8
0
10
77.2795
20
66.294
30
0
0
VERTEX
8
0
10
77.2795
20
65.483909375
30
0
0
VERTEX
8
0
10
74.676
20
62.880409375000006
30
0
0
VERTEX
8
0
10
74.676
20
63.182500000000005
30
0
0
VERTEX
8
0
10
73.406
20
63.182500000000005
30
0
0
VERTEX
8
0
10
73.406
20
61.2775
30
0
0
VERTEX
8
0
10
74.676
20
61.2775
30
0
0
VERTEX
8
0
10
74.676
20
62.341590625
30
0
0
VERTEX
8
0
10
77.61797187500001
20
65.2835625
30
0
0
SEQEND
0
POLYLINE
66
1
8
1_copper
10
0.0
20
0.0
30
0.0
70
1
0
VERTEX
8
0
10
68.76317812500001
20
40.060565625
30
0
0
VERTEX
8
0
10
68.74881875
20
40.095234375000004
30
0
0
VERTEX
8
0
10
68.72797187500001
20
40.1264375
30
0
0
VERTEX
8
0
10
64.9605
20
43.893909375
30
0
0
VERTEX
8
0
10
64.9605
20
50.1837625
30
0
0
VERTEX
8
0
10
64.95317812500001
20
50.220565625
30
0
0
VERTEX
8
0
10
64.93881875000001
20
50.255234375
30
0
0
VERTEX
8
0
10
64.917971875
20
50.286437500000005
30
0
0
VERTEX
8
0
10
64.535
20
50.669409375
30
0
0
VERTEX
8
0
10
64.535
20
50.962028125
30
0
0
VERTEX
8
0
10
64.52933125
20
50.990525000000005
30
0
0
VERTEX
8
0
10
64.5182125
20
51.01736875
30
0
0
VERTEX
8
0
10
64.502071875
20
51.041525
30
0
0
VERTEX
8
0
10
64.481525
20
51.062071875
30
0
0
VERTEX
8
0
10
64.45736875
20
51.0782125
30
0
0
VERTEX
8
0
10
64.430525
20
51.08933125
30
0
0
VERTEX
8
0
10
64.402028125
20
51.095000000000006
30
0
0
VERTEX
8
0
10
62.717971875
20
51.095000000000006
30
0
0
VERTEX
8
0
10
62.689475
20
51.08933125
30
0
0
VERTEX
8
0
10
62.662631250000004
20
51.0782125
30
0
0
VERTEX
8
0
10
62.638475
20
51.062071875
30
0
0
VERTEX
8
0
10
62.617928125000006
20
51.041525
30
0
0
VERTEX
8
0
10
62.6017875
20
51.01736875
30
0
0
VERTEX
8
0
10
62.590668750000006
20
50.990525000000005
30
0
0
VERTEX
8
0
10
62.585
20
50.962028125
30
0
0
VERTEX
8
0
10
62.585
20
50.637971875000005
30
0
0
VERTEX
8
0
10
62.590668750000006
20
50.609475
30
0
0
VERTEX
8
0
10
62.6017875
20
50.582631250000006
30
0
0
VERTEX
8
0
10
62.617928125000006
20
50.558475
30
0
0
VERTEX
8
0
10
62.638475
20
50.537928125
30
0
0
VERTEX
8
0
10
62.662631250000004
20
50.5217875
30
0
0
VERTEX
8
0
10
62.689475
20
50.51066875
30
0
0
VERTEX
8
0
10
62.717971875
20
50.505
30
0
0
VERTEX
8
0
10
64.160590625
20
50.505
30
0
0
VERTEX
8
0
10
64.57950000000001
20
50.086090625000004
30
0
0
VERTEX
8
0
10
64.57950000000001
20
43.796237500000004
30
0
0
VERTEX
8
0
10
64.586821875
20
43.759434375000005
30
0
0
VERTEX
8
0
10
64.60118125
20
43.724765625
30
0
0
VERTEX
8
0
10
64.622028125
20
43.6935625
30
0
0
VERTEX
8
0
10
68.3895
20
39.926090625
30
0
0
VERTEX
8
0
10
68.3895
20
36.3855
30
0
0
VERTEX
8
0
10
64.9605
20
36.3855
30
0
0
VERTEX
8
0
10
64.9605
20
36.83
30
0
0
VERTEX
8
0
10
65.405
20
36.83
30
0
0
VERTEX
8
0
10
65.405
20
39.370000000000005
30
0
0
VERTEX
8
0
10
64.135
20
39.370000000000005
30
0
0
VERTEX
8
0
10
64.135
20
36.83
30
0
0
VERTEX
8
0
10
64.57950000000001
20
36.83
30
0
0
VERTEX
8
0
10
64.57950000000001
20
36.1762375
30
0
0
VERTEX
8
0
10
64.586821875
20
36.139434375
30
0
0
VERTEX
8
0
10
64.60118125
20
36.104765625
30
0
0
VERTEX
8
0
10
64.622028125
20
36.0735625
30
0
0
VERTEX
8
0
10
64.6485625
20
36.047028125000004
30
0
0
VERTEX
8
0
10
64.679765625
20
36.02618125
30
0
0
VERTEX
8
0
10
64.714434375
20
36.011821875
30
0
0
VERTEX
8
0
10
64.7512375
20
36.0045
30
0
0
VERTEX
8
0
10
68.5987625
20
36.0045
30
0
0
VERTEX
8
0
10
68.635565625
20
36.011821875
30
0
0
VERTEX
8
0
10
68.670234375
20
36.02618125
30
0
0
VERTEX
8
0
10
68.7014375
20
36.047028125000004
30
0
0
VERTEX
8
0
10
68.72797187500001
20
36.0735625
30
0
0
VERTEX
8
0
10
68.74881875
20
36.104765625
30
0
0
VERTEX
8
0
10
68.76317812500001
20
36.139434375
30
0
0
VERTEX
8
0
10
68.7705
20
36.1762375
30
0
0
VERTEX
8
0
10
68.7705
20
40.023762500000004
30
0
0
SEQEND
0
POLYLINE
66
1
8
1_copper
10
0.0
20
0.0
30
0.0
70
1
0
VERTEX
8
0
10
70.278765625
20
56.981181250000006
30
0
0
VERTEX
8
0
10
70.30996875000001
20
57.002028125
30
0
0
VERTEX
8
0
10
71.537440625
20
58.2295
30
0
0
VERTEX
8
0
10
81.28
20
58.2295
30
0
0
VERTEX
8
0
10
81.28
20
57.785000000000004
30
0
0
VERTEX
8
0
10
83.82000000000001
20
57.785000000000004
30
0
0
VERTEX
8
0
10
83.82000000000001
20
59.055
30
0
0
VERTEX
8
0
10
81.28
20
59.055
30
0
0
VERTEX
8
0
10
81.28
20
58.6105
30
0
0
VERTEX
8
0
10
71.43976875
20
58.6105
30
0
0
VERTEX
8
0
10
71.40296562500001
20
58.603178125
30
0
0
VERTEX
8
0
10
71.368296875
20
58.58881875
30
0
0
VERTEX
8
0
10
71.33709375000001
20
58.567971875000005
30
0
0
VERTEX
8
0
10
70.109621875
20
57.340500000000006
30
0
0
VERTEX
8
0
10
69.4893375
20
57.340500000000006
30
0
0
VERTEX
8
0
10
69.48933125
20
57.340525
30
0
0
VERTEX
8
0
10
69.4782125
20
57.367368750000004
30
0
0
VERTEX
8
0
10
69.462071875
20
57.391525
30
0
0
VERTEX
8
0
10
69.441525
20
57.412071875
30
0
0
VERTEX
8
0
10
69.41736875000001
20
57.4282125
30
0
0
VERTEX
8
0
10
69.390525
20
57.43933125
30
0
0
VERTEX
8
0
10
69.36202812500001
20
57.445
30
0
0
VERTEX
8
0
10
67.677971875
20
57.445
30
0
0
VERTEX
8
0
10
67.64947500000001
20
57.43933125
30
0
0
VERTEX
8
0
10
67.62263125
20
57.4282125
30
0
0
VERTEX
8
0
10
67.59847500000001
20
57.412071875
30
0
0
VERTEX
8
0
10
67.577928125
20
57.391525
30
0
0
VERTEX
8
0
10
67.56178750000001
20
57.367368750000004
30
0
0
VERTEX
8
0
10
67.55066875
20
57.340525
30
0
0
VERTEX
8
0
10
67.545
20
57.312028125000005
30
0
0
VERTEX
8
0
10
67.545
20
56.987971875
30
0
0
VERTEX
8
0
10
67.55066875
20
56.959475000000005
30
0
0
VERTEX
8
0
10
67.56178750000001
20
56.93263125
30
0
0
VERTEX
8
0
10
67.577928125
20
56.908475
30
0
0
VERTEX
8
0
10
67.59847500000001
20
56.887928125
30
0
0
VERTEX
8
0
10
67.62263125
20
56.8717875
30
0
0
VERTEX
8
0
10
67.64947500000001
20
56.86066875
30
0
0
VERTEX
8
0
10
67.677971875
20
56.855000000000004
30
0
0
VERTEX
8
0
10
69.36202812500001
20
56.855000000000004
30
0
0
VERTEX
8
0
10
69.390525
20
56.86066875
30
0
0
VERTEX
8
0
10
69.41736875000001
20
56.8717875
30
0
0
VERTEX
8
0
10
69.441525
20
56.887928125
30
0
0
VERTEX
8
0
10
69.462071875
20
56.908475
30
0
0
VERTEX
8
0
10
69.4782125
20
56.93263125
30
0
0
VERTEX
8
0
10
69.48933125
20
56.959475000000005
30
0
0
VERTEX
8
0
10
69.4893375
20
56.959500000000006
30
0
0
VERTEX
8
0
10
70.20729375
20
56.959500000000006
30
0
0
VERTEX
8
0
10
70.244096875
20
56.966821875
30
0
0
SEQEND
0
POLYLINE
66
1
8
1_copper
10
0.0
20
0.0
30
0.0
70
1
0
VERTEX
8
0
10
83.82000000000001
20
56.515
30
0
0
VERTEX
8
0
10
81.28
20
56.515
30
0
0
VERTEX
8
0
10
81.28
20
56.0705
30
0
0
VERTEX
8
0
10
69.4893375
20
56.0705
30
0
0
VERTEX
8
0
10
69.48933125
20
56.070525
30
0
0
VERTEX
8
0
10
69.4782125
20
56.09736875
30
0
0
VERTEX
8
0
10
69.462071875
20
56.121525000000005
30
0
0
VERTEX
8
0
10
69.441525
20
56.142071875
30
0
0
VERTEX
8
0
10
69.41736875000001
20
56.158212500000005
30
0
0
VERTEX
8
0
10
69.390525
20
56.169331250000006
30
0
0
VERTEX
8
0
10
69.36202812500001
20
56.175000000000004
30
0
0
VERTEX
8
0
10
67.677971875
20
56.175000000000004
30
0
0
VERTEX
8
0
10
67.64947500000001
20
56.169331250000006
30
0
0
VERTEX
8
0
10
67.62263125
20
56.158212500000005
30
0
0
VERTEX
8
0
10
67.59847500000001
20
56.142071875
30
0
0
VERTEX
8
0
10
67.577928125
20
56.121525000000005
30
0
0
VERTEX
8
0
10
67.56178750000001
20
56.09736875
30
0
0
VERTEX
8
0
10
67.55066875
20
56.070525
30
0
0
VERTEX
8
0
10
67.545
20
56.042028125
30
0
0
VERTEX
8
0
10
67.545
20
55.717971875
30
0
0
VERTEX
8
0
10
67.55066875
20
55.689475
30
0
0
VERTEX
8
0
10
67.56178750000001
20
55.662631250000004
30
0
0
VERTEX
8
0
10
67.577928125
20
55.638475
30
0
0
VERTEX
8
0
10
67.59847500000001
20
55.617928125000006
30
0
0
VERTEX
8
0
10
67.62263125
20
55.6017875
30
0
0
VERTEX
8
0
10
67.64947500000001
20
55.590668750000006
30
0
0
VERTEX
8
0
10
67.677971875
20
55.585
30
0
0
VERTEX
8
0
10
69.36202812500001
20
55.585
30
0
0
VERTEX
8
0
10
69.390525
20
55.590668750000006
30
0
0
VERTEX
8
0
10
69.41736875000001
20
55.6017875
30
0
0
VERTEX
8
0
10
69.441525
20
55.617928125000006
30
0
0
VERTEX
8
0
10
69.462071875
20
55.638475
30
0
0
VERTEX
8
0
10
69.4782125
20
55.662631250000004
30
0
0
VERTEX
8
0
10
69.48933125
20
55.689475
30
0
0
VERTEX
8
0
10
69.4893375
20
55.6895
30
0
0
VERTEX
8
0
10
81.28
20
55.6895
30
0
0
VERTEX
8
0
10
81.28
20
55.245000000000005
30
0
0
VERTEX
8
0
10
83.82000000000001
20
55.245000000000005
30
0
0
SEQEND
0
POLYLINE
66
1
8
1_copper
10
0.0
20
0.0
30
0.0
70
1
0
VERTEX
8
0
10
70.278765625
20
54.77881875
30
0
0
VERTEX
8
0
10
70.244096875
20
54.793178125000004
30
0
0
VERTEX
8
0
10
70.20729375
20
54.8005
30
0
0
VERTEX
8
0
10
69.4893375
20
54.8005
30
0
0
VERTEX
8
0
10
69.48933125
20
54.800525
30
0
0
VERTEX
8
0
10
69.4782125
20
54.827368750000005
30
0
0
VERTEX
8
0
10
69.462071875
20
54.851525
30
0
0
VERTEX
8
0
10
69.441525
20
54.872071875
30
0
0
VERTEX
8
0
10
69.41736875000001
20
54.8882125
30
0
0
VERTEX
8
0
10
69.390525
20
54.89933125
30
0
0
VERTEX
8
0
10
69.36202812500001
20
54.905
30
0
0
VERTEX
8
0
10
67.677971875
20
54.905
30
0
0
VERTEX
8
0
10
67.64947500000001
20
54.89933125
30
0
0
VERTEX
8
0
10
67.62263125
20
54.8882125
30
0
0
VERTEX
8
0
10
67.59847500000001
20
54.872071875
30
0
0
VERTEX
8
0
10
67.577928125
20
54.851525
30
0
0
VERTEX
8
0
10
67.56178750000001
20
54.827368750000005
30
0
0
VERTEX
8
0
10
67.55066875
20
54.800525
30
0
0
VERTEX
8
0
10
67.545
20
54.772028125000006
30
0
0
VERTEX
8
0
10
67.545
20
54.447971875
30
0
0
VERTEX
8
0
10
67.55066875
20
54.419475000000006
30
0
0
VERTEX
8
0
10
67.56178750000001
20
54.39263125
30
0
0
VERTEX
8
0
10
67.577928125
20
54.368475000000004
30
0
0
VERTEX
8
0
10
67.59847500000001
20
54.347928125
30
0
0
VERTEX
8
0
10
67.62263125
20
54.331787500000004
30
0
0
VERTEX
8
0
10
67.64947500000001
20
54.32066875
30
0
0
VERTEX
8
0
10
67.677971875
20
54.315000000000005
30
0
0
VERTEX
8
0
10
69.36202812500001
20
54.315000000000005
30
0
0
VERTEX
8
0
10
69.390525
20
54.32066875
30
0
0
VERTEX
8
0
10
69.41736875000001
20
54.331787500000004
30
0
0
VERTEX
8
0
10
69.441525
20
54.347928125
30
0
0
VERTEX
8
0
10
69.462071875
20
54.368475000000004
30
0
0
VERTEX
8
0
10
69.4782125
20
54.39263125
30
0
0
VERTEX
8
0
10
69.48933125
20
54.419475000000006
30
0
0
VERTEX
8
0
10
69.4893375
20
54.4195
30
0
0
VERTEX
8
0
10
70.109621875
20
54.4195
30
0
0
VERTEX
8
0
10
71.33709375000001
20
53.192028125
30
0
0
VERTEX
8
0
10
71.368296875
20
53.171181250000004
30
0
0
VERTEX
8
0
10
71.40296562500001
20
53.156821875000006
30
0
0
VERTEX
8
0
10
71.43976875
20
53.1495
30
0
0
VERTEX
8
0
10
81.28
20
53.1495
30
0
0
VERTEX
8
0
10
81.28
20
52.705000000000005
30
0
0
VERTEX
8
0
10
83.82000000000001
20
52.705000000000005
30
0
0
VERTEX
8
0
10
83.82000000000001
20
53.975
30
0
0
VERTEX
8
0
10
81.28
20
53.975
30
0
0
VERTEX
8
0
10
81.28
20
53.5305
30
0
0
VERTEX
8
0
10
71.537440625
20
53.5305
30
0
0
VERTEX
8
0
10
70.30996875000001
20
54.757971875
30
0
0
SEQEND
0
POLYLINE
66
1
8
1_copper
10
0.0
20
0.0
30
0.0
70
1
0
VERTEX
8
0
10
62.590668750000006
20
53.149475
30
0
0
VERTEX
8
0
10
62.6017875
20
53.122631250000005
30
0
0
VERTEX
8
0
10
62.617928125000006
20
53.098475
30
0
0
VERTEX
8
0
10
62.638475
20
53.077928125
30
0
0
VERTEX
8
0
10
62.662631250000004
20
53.0617875
30
0
0
VERTEX
8
0
10
62.689475
20
53.05066875
30
0
0
VERTEX
8
0
10
62.717971875
20
53.045
30
0
0
VERTEX
8
0
10
64.402028125
20
53.045
30
0
0
VERTEX
8
0
10
64.430525
20
53.05066875
30
0
0
VERTEX
8
0
10
64.45736875
20
53.0617875
30
0
0
VERTEX
8
0
10
64.481525
20
53.077928125
30
0
0
VERTEX
8
0
10
64.502071875
20
53.098475
30
0
0
VERTEX
8
0
10
64.5182125
20
53.122631250000005
30
0
0
VERTEX
8
0
10
64.52933125
20
53.149475
30
0
0
VERTEX
8
0
10
64.535
20
53.177971875000004
30
0
0
VERTEX
8
0
10
64.535
20
53.502028125
30
0
0
VERTEX
8
0
10
64.52933125
20
53.530525000000004
30
0
0
VERTEX
8
0
10
64.5182125
20
53.55736875
30
0
0
VERTEX
8
0
10
64.502071875
20
53.581525
30
0
0
VERTEX
8
0
10
64.481525
20
53.602071875
30
0
0
VERTEX
8
0
10
64.45736875
20
53.618212500000006
30
0
0
VERTEX
8
0
10
64.430525
20
53.62933125
30
0
0
VERTEX
8
0
10
64.402028125
20
53.635000000000005
30
0
0
VERTEX
8
0
10
62.717971875
20
53.635000000000005
30
0
0
VERTEX
8
0
10
62.689475
20
53.62933125
30
0
0
VERTEX
8
0
10
62.662631250000004
20
53.618212500000006
30
0
0
VERTEX
8
0
10
62.638475
20
53.602071875
30
0
0
VERTEX
8
0
10
62.617928125000006
20
53.581525
30
0
0
VERTEX
8
0
10
62.6017875
20
53.55736875
30
0
0
VERTEX
8
0
10
62.590668750000006
20
53.530525000000004
30
0
0
VERTEX
8
0
10
62.5906625
20
53.5305
30
0
0
VERTEX
8
0
10
57.896684375
20
53.5305
30
0
0
VERTEX
8
0
10
54.8404125
20
56.586771875000004
30
0
0
VERTEX
8
0
10
54.809209375
20
56.60761875
30
0
0
VERTEX
8
0
10
54.774540625
20
56.621978125000005
30
0
0
VERTEX
8
0
10
54.7377375
20
56.6293
30
0
0
VERTEX
8
0
10
53.164909375
20
56.6293
30
0
0
VERTEX
8
0
10
54.122971875000005
20
57.587362500000005
30
0
0
VERTEX
8
0
10
54.14381875
20
57.618565625
30
0
0
VERTEX
8
0
10
54.158178125
20
57.653234375000004
30
0
0
VERTEX
8
0
10
54.1655
20
57.6900375
30
0
0
VERTEX
8
0
10
54.1655
20
59.055
30
0
0
VERTEX
8
0
10
55.118
20
59.055
30
0
0
VERTEX
8
0
10
55.118
20
61.341
30
0
0
VERTEX
8
0
10
53.594
20
61.341
30
0
0
VERTEX
8
0
10
53.594
20
59.055
30
0
0
VERTEX
8
0
10
53.7845
20
59.055
30
0
0
VERTEX
8
0
10
53.7845
20
57.787709375000006
30
0
0
VERTEX
8
0
10
51.287028125
20
55.2902375
30
0
0
VERTEX
8
0
10
51.26618125
20
55.259034375000006
30
0
0
VERTEX
8
0
10
51.251821875000005
20
55.224365625000004
30
0
0
VERTEX
8
0
10
51.2445
20
55.187562500000006
30
0
0
VERTEX
8
0
10
51.2445
20
53.0225
30
0
0
VERTEX
8
0
10
51.054
20
53.0225
30
0
0
VERTEX
8
0
10
51.054
20
51.1175
30
0
0
VERTEX
8
0
10
52.324000000000005
20
51.1175
30
0
0
VERTEX
8
0
10
52.324000000000005
20
53.0225
30
0
0
VERTEX
8
0
10
51.6255
20
53.0225
30
0
0
VERTEX
8
0
10
51.6255
20
55.089890625
30
0
0
VERTEX
8
0
10
52.783909375
20
56.2483
30
0
0
VERTEX
8
0
10
54.640065625000005
20
56.2483
30
0
0
VERTEX
8
0
10
57.696337500000006
20
53.192028125
30
0
0
VERTEX
8
0
10
57.727540625
20
53.171181250000004
30
0
0
VERTEX
8
0
10
57.762209375000005
20
53.156821875000006
30
0
0
VERTEX
8
0
10
57.7990125
20
53.1495
30
0
0
VERTEX
8
0
10
62.5906625
20
53.1495
30
0
0
SEQEND
0
POLYLINE
66
1
8
1_copper
10
0.0
20
0.0
30
0.0
70
1
0
VERTEX
8
0
10
68.74881875
20
66.584765625
30
0
0
VERTEX
8
0
10
68.76317812500001
20
66.619434375
30
0
0
VERTEX
8
0
10
68.7705
20
66.6562375
30
0
0
VERTEX
8
0
10
68.7705
20
66.89
30
0
0
VERTEX
8
0
10
69.34
20
66.89
30
0
0
VERTEX
8
0
10
69.34
20
70.19
30
0
0
VERTEX
8
0
10
67.82000000000001
20
70.19
30
0
0
VERTEX
8
0
10
67.82000000000001
20
66.89
30
0
0
VERTEX
8
0
10
68.3895
20
66.89
30
0
0
VERTEX
8
0
10
68.3895
20
66.753909375
30
0
0
VERTEX
8
0
10
66.527028125
20
64.89143750000001
30
0
0
VERTEX
8
0
10
66.50618125
20
64.860234375
30
0
0
VERTEX
8
0
10
66.491821875
20
64.82556562500001
30
0
0
VERTEX
8
0
10
66.4845
20
64.7887625
30
0
0
VERTEX
8
0
10
66.4845
20
54.591237500000005
30
0
0
VERTEX
8
0
10
66.491821875
20
54.554434375
30
0
0
VERTEX
8
0
10
66.50618125
20
54.519765625000005
30
0
0
VERTEX
8
0
10
66.527028125
20
54.4885625
30
0
0
VERTEX
8
0
10
67.545
20
53.470590625
30
0
0
VERTEX
8
0
10
67.545
20
53.177971875000004
30
0
0
VERTEX
8
0
10
67.55066875
20
53.149475
30
0
0
VERTEX
8
0
10
67.56178750000001
20
53.122631250000005
30
0
0
VERTEX
8
0
10
67.577928125
20
53.098475
30
0
0
VERTEX
8
0
10
67.59847500000001
20
53.077928125
30
0
0
VERTEX
8
0
10
67.62263125
20
53.0617875
30
0
0
VERTEX
8
0
10
67.64947500000001
20
53.05066875
30
0
0
VERTEX
8
0
10
67.677971875
20
53.045
30
0
0
VERTEX
8
0
10
69.36202812500001
20
53.045
30
0
0
VERTEX
8
0
10
69.390525
20
53.05066875
30
0
0
VERTEX
8
0
10
69.41736875000001
20
53.0617875
30
0
0
VERTEX
8
0
10
69.441525
20
53.077928125
30
0
0
VERTEX
8
0
10
69.462071875
20
53.098475
30
0
0
VERTEX
8
0
10
69.4782125
20
53.122631250000005
30
0
0
VERTEX
8
0
10
69.48933125
20
53.149475
30
0
0
VERTEX
8
0
10
69.495
20
53.177971875000004
30
0
0
VERTEX
8
0
10
69.495
20
53.502028125
30
0
0
VERTEX
8
0
10
69.48933125
20
53.530525000000004
30
0
0
VERTEX
8
0
10
69.4782125
20
53.55736875
30
0
0
VERTEX
8
0
10
69.462071875
20
53.581525
30
0
0
VERTEX
8
0
10
69.441525
20
53.602071875
30
0
0
VERTEX
8
0
10
69.41736875000001
20
53.618212500000006
30
0
0
VERTEX
8
0
10
69.390525
20
53.62933125
30
0
0
VERTEX
8
0
10
69.36202812500001
20
53.635000000000005
30
0
0
VERTEX
8
0
10
67.919409375
20
53.635000000000005
30
0
0
VERTEX
8
0
10
66.8655
20
54.688909375
30
0
0
VERTEX
8
0
10
66.8655
20
64.691090625
30
0
0
VERTEX
8
0
10
68.72797187500001
20
66.5535625
30
0
0
SEQEND
0
POLYLINE
66
1
8
1_copper
10
0.0
20
0.0
30
0.0
70
1
0
VERTEX
8
0
10
70.278765625
20
52.23881875
30
0
0
VERTEX
8
0
10
70.244096875
20
52.253178125000005
30
0
0
VERTEX
8
0
10
70.20729375
20
52.2605
30
0
0
VERTEX
8
0
10
69.4893375
20
52.2605
30
0
0
VERTEX
8
0
10
69.48933125
20
52.260525
30
0
0
VERTEX
8
0
10
69.4782125
20
52.287368750000006
30
0
0
VERTEX
8
0
10
69.462071875
20
52.311525
30
0
0
VERTEX
8
0
10
69.441525
20
52.332071875000004
30
0
0
VERTEX
8
0
10
69.41736875000001
20
52.3482125
30
0
0
VERTEX
8
0
10
69.390525
20
52.359331250000004
30
0
0
VERTEX
8
0
10
69.36202812500001
20
52.365
30
0
0
VERTEX
8
0
10
67.677971875
20
52.365
30
0
0
VERTEX
8
0
10
67.64947500000001
20
52.359331250000004
30
0
0
VERTEX
8
0
10
67.62263125
20
52.3482125
30
0
0
VERTEX
8
0
10
67.59847500000001
20
52.332071875000004
30
0
0
VERTEX
8
0
10
67.577928125
20
52.311525
30
0
0
VERTEX
8
0
10
67.56178750000001
20
52.287368750000006
30
0
0
VERTEX
8
0
10
67.55066875
20
52.260525
30
0
0
VERTEX
8
0
10
67.545
20
52.232028125
30
0
0
VERTEX
8
0
10
67.545
20
51.907971875
30
0
0
VERTEX
8
0
10
67.55066875
20
51.879475
30
0
0
VERTEX
8
0
10
67.56178750000001
20
51.85263125
30
0
0
VERTEX
8
0
10
67.577928125
20
51.828475000000005
30
0
0
VERTEX
8
0
10
67.59847500000001
20
51.807928125000004
30
0
0
VERTEX
8
0
10
67.62263125
20
51.791787500000005
30
0
0
VERTEX
8
0
10
67.64947500000001
20
51.780668750000004
30
0
0
VERTEX
8
0
10
67.677971875
20
51.775000000000006
30
0
0
VERTEX
8
0
10
69.36202812500001
20
51.775000000000006
30
0
0
VERTEX
8
0
10
69.390525
20
51.780668750000004
30
0
0
VERTEX
8
0
10
69.41736875000001
20
51.791787500000005
30
0
0
VERTEX
8
0
10
69.441525
20
51.807928125000004
30
0
0
VERTEX
8
0
10
69.462071875
20
51.828475000000005
30
0
0
VERTEX
8
0
10
69.4782125
20
51.85263125
30
0
0
VERTEX
8
0
10
69.48933125
20
51.879475
30
0
0
VERTEX
8
0
10
69.4893375
20
51.8795
30
0
0
VERTEX
8
0
10
70.109621875
20
51.8795
30
0
0
VERTEX
8
0
10
71.33709375000001
20
50.652028125
30
0
0
VERTEX
8
0
10
71.368296875
20
50.631181250000004
30
0
0
VERTEX
8
0
10
71.40296562500001
20
50.616821875
30
0
0
VERTEX
8
0
10
71.43976875
20
50.609500000000004
30
0
0
VERTEX
8
0
10
81.28
20
50.609500000000004
30
0
0
VERTEX
8
0
10
81.28
20
50.165
30
0
0
VERTEX
8
0
10
83.82000000000001
20
50.165
30
0
0
VERTEX
8
0
10
83.82000000000001
20
51.435
30
0
0
VERTEX
8
0
10
81.28
20
51.435
30
0
0
VERTEX
8
0
10
81.28
20
50.990500000000004
30
0
0
VERTEX
8
0
10
71.537440625
20
50.990500000000004
30
0
0
VERTEX
8
0
10
70.30996875000001
20
52.217971875
30
0
0
SEQEND
0
POLYLINE
66
1
8
1_copper
10
0.0
20
0.0
30
0.0
70
1
0
VERTEX
8
0
10
81.28
20
47.625
30
0
0
VERTEX
8
0
10
83.82000000000001
20
47.625
30
0
0
VERTEX
8
0
10
83.82000000000001
20
48.895
30
0
0
VERTEX
8
0
10
81.28
20
48.895
30
0
0
VERTEX
8
0
10
81.28
20
48.450500000000005
30
0
0
VERTEX
8
0
10
71.138909375
20
48.450500000000005
30
0
0
VERTEX
8
0
10
69.084409375
20
50.505
30
0
0
VERTEX
8
0
10
69.36202812500001
20
50.505
30
0
0
VERTEX
8
0
10
69.390525
20
50.51066875
30
0
0
VERTEX
8
0
10
69.41736875000001
20
50.5217875
30
0
0
VERTEX
8
0
10
69.441525
20
50.537928125
30
0
0
VERTEX
8
0
10
69.462071875
20
50.558475
30
0
0
VERTEX
8
0
10
69.4782125
20
50.582631250000006
30
0
0
VERTEX
8
0
10
69.48933125
20
50.609475
30
0
0
VERTEX
8
0
10
69.495
20
50.637971875000005
30
0
0
VERTEX
8
0
10
69.495
20
50.962028125
30
0
0
VERTEX
8
0
10
69.48933125
20
50.990525000000005
30
0
0
VERTEX
8
0
10
69.4782125
20
51.01736875
30
0
0
VERTEX
8
0
10
69.462071875
20
51.041525
30
0
0
VERTEX
8
0
10
69.441525
20
51.062071875
30
0
0
VERTEX
8
0
10
69.41736875000001
20
51.0782125
30
0
0
VERTEX
8
0
10
69.390525
20
51.08933125
30
0
0
VERTEX
8
0
10
69.36202812500001
20
51.095000000000006
30
0
0
VERTEX
8
0
10
67.677971875
20
51.095000000000006
30
0
0
VERTEX
8
0
10
67.64947500000001
20
51.08933125
30
0
0
VERTEX
8
0
10
67.62263125
20
51.0782125
30
0
0
VERTEX
8
0
10
67.59847500000001
20
51.062071875
30
0
0
VERTEX
8
0
10
67.577928125
20
51.041525
30
0
0
VERTEX
8
0
10
67.56178750000001
20
51.01736875
30
0
0
VERTEX
8
0
10
67.55066875
20
50.990525000000005
30
0
0
VERTEX
8
0
10
67.545
20
50.962028125
30
0
0
VERTEX
8
0
10
67.545
20
50.637971875000005
30
0
0
VERTEX
8
0
10
67.55066875
20
50.609475
30
0
0
VERTEX
8
0
10
67.56178750000001
20
50.582631250000006
30
0
0
VERTEX
8
0
10
67.577928125
20
50.558475
30
0
0
VERTEX
8
0
10
67.59847500000001
20
50.537928125
30
0
0
VERTEX
8
0
10
67.62263125
20
50.5217875
30
0
0
VERTEX
8
0
10
67.64947500000001
20
50.51066875
30
0
0
VERTEX
8
0
10
67.677971875
20
50.505
30
0
0
VERTEX
8
0
10
68.545590625
20
50.505
30
0
0
VERTEX
8
0
10
70.9385625
20
48.112028125
30
0
0
VERTEX
8
0
10
70.96976562500001
20
48.091181250000005
30
0
0
VERTEX
8
0
10
71.004434375
20
48.076821875
30
0
0
VERTEX
8
0
10
71.04123750000001
20
48.069500000000005
30
0
0
VERTEX
8
0
10
81.28
20
48.069500000000005
30
0
0
SEQEND
0
POLYLINE
66
1
8
1_copper
10
0.0
20
0.0
30
0.0
70
1
0
VERTEX
8
0
10
44.394434375
20
63.683178125000005
30
0
0
VERTEX
8
0
10
44.359765625
20
63.66881875
30
0
0
VERTEX
8
0
10
44.328562500000004
20
63.647971875
30
0
0
VERTEX
8
0
10
44.302028125
20
63.621437500000006
30
0
0
VERTEX
8
0
10
44.28118125
20
63.590234375
30
0
0
VERTEX
8
0
10
44.266821875000005
20
63.555565625
30
0
0
VERTEX
8
0
10
44.2595
20
63.5187625
30
0
0
VERTEX
8
0
10
44.2595
20
59.055
30
0
0
VERTEX
8
0
10
43.18
20
59.055
30
0
0
VERTEX
8
0
10
43.18
20
57.785000000000004
30
0
0
VERTEX
8
0
10
45.72
20
57.785000000000004
30
0
0
VERTEX
8
0
10
45.72
20
59.055
30
0
0
VERTEX
8
0
10
44.6405
20
59.055
30
0
0
VERTEX
8
0
10
44.6405
20
63.3095
30
0
0
VERTEX
8
0
10
55.920434375
20
63.3095
30
0
0
VERTEX
8
0
10
62.227906250000004
20
57.002028125
30
0
0
VERTEX
8
0
10
62.259109375
20
56.981181250000006
30
0
0
VERTEX
8
0
10
62.293778125
20
56.966821875
30
0
0
VERTEX
8
0
10
62.33058125
20
56.959500000000006
30
0
0
VERTEX
8
0
10
62.5906625
20
56.959500000000006
30
0
0
VERTEX
8
0
10
62.590668750000006
20
56.959475000000005
30
0
0
VERTEX
8
0
10
62.6017875
20
56.93263125
30
0
0
VERTEX
8
0
10
62.617928125000006
20
56.908475
30
0
0
VERTEX
8
0
10
62.638475
20
56.887928125
30
0
0
VERTEX
8
0
10
62.662631250000004
20
56.8717875
30
0
0
VERTEX
8
0
10
62.689475
20
56.86066875
30
0
0
VERTEX
8
0
10
62.717971875
20
56.855000000000004
30
0
0
VERTEX
8
0
10
64.402028125
20
56.855000000000004
30
0
0
VERTEX
8
0
10
64.430525
20
56.86066875
30
0
0
VERTEX
8
0
10
64.45736875
20
56.8717875
30
0
0
VERTEX
8
0
10
64.481525
20
56.887928125
30
0
0
VERTEX
8
0
10
64.502071875
20
56.908475
30
0
0
VERTEX
8
0
10
64.5182125
20
56.93263125
30
0
0
VERTEX
8
0
10
64.52933125
20
56.959475000000005
30
0
0
VERTEX
8
0
10
64.535
20
56.987971875
30
0
0
VERTEX
8
0
10
64.535
20
57.312028125000005
30
0
0
VERTEX
8
0
10
64.52933125
20
57.340525
30
0
0
VERTEX
8
0
10
64.5182125
20
57.367368750000004
30
0
0
VERTEX
8
0
10
64.502071875
20
57.391525
30
0
0
VERTEX
8
0
10
64.481525
20
57.412071875
30
0
0
VERTEX
8
0
10
64.45736875
20
57.4282125
30
0
0
VERTEX
8
0
10
64.430525
20
57.43933125
30
0
0
VERTEX
8
0
10
64.402028125
20
57.445
30
0
0
VERTEX
8
0
10
62.717971875
20
57.445
30
0
0
VERTEX
8
0
10
62.689475
20
57.43933125
30
0
0
VERTEX
8
0
10
62.662631250000004
20
57.4282125
30
0
0
VERTEX
8
0
10
62.638475
20
57.412071875
30
0
0
VERTEX
8
0
10
62.617928125000006
20
57.391525
30
0
0
VERTEX
8
0
10
62.6017875
20
57.367368750000004
30
0
0
VERTEX
8
0
10
62.590668750000006
20
57.340525
30
0
0
VERTEX
8
0
10
62.5906625
20
57.340500000000006
30
0
0
VERTEX
8
0
10
62.428253125000005
20
57.340500000000006
30
0
0
VERTEX
8
0
10
56.12078125
20
63.647971875
30
0
0
VERTEX
8
0
10
56.089578125
20
63.66881875
30
0
0
VERTEX
8
0
10
56.054909375
20
63.683178125000005
30
0
0
VERTEX
8
0
10
56.01810625
20
63.6905
30
0
0
VERTEX
8
0
10
44.4312375
20
63.6905
30
0
0
SEQEND
0
POLYLINE
66
1
8
1_copper
10
0.0
20
0.0
30
0.0
70
1
0
VERTEX
8
0
10
49.620234375
20
55.71118125
30
0
0
VERTEX
8
0
10
49.6514375
20
55.732028125
30
0
0
VERTEX
8
0
10
52.852971875
20
58.9335625
30
0
0
VERTEX
8
0
10
52.873818750000005
20
58.964765625000005
30
0
0
VERTEX
8
0
10
52.888178125
20
58.999434375
30
0
0
VERTEX
8
0
10
52.895500000000006
20
59.036237500000006
30
0
0
VERTEX
8
0
10
52.895500000000006
20
62.039500000000004
30
0
0
VERTEX
8
0
10
55.166090625
20
62.039500000000004
30
0
0
VERTEX
8
0
10
61.4735625
20
55.732028125
30
0
0
VERTEX
8
0
10
61.504765625000005
20
55.71118125
30
0
0
VERTEX
8
0
10
61.539434375000006
20
55.696821875000005
30
0
0
VERTEX
8
0
10
61.576237500000005
20
55.6895
30
0
0
VERTEX
8
0
10
62.5906625
20
55.6895
30
0
0
VERTEX
8
0
10
62.590668750000006
20
55.689475
30
0
0
VERTEX
8
0
10
62.6017875
20
55.662631250000004
30
0
0
VERTEX
8
0
10
62.617928125000006
20
55.638475
30
0
0
VERTEX
8
0
10
62.638475
20
55.617928125000006
30
0
0
VERTEX
8
0
10
62.662631250000004
20
55.6017875
30
0
0
VERTEX
8
0
10
62.689475
20
55.590668750000006
30
0
0
VERTEX
8
0
10
62.717971875
20
55.585
30
0
0
VERTEX
8
0
10
64.402028125
20
55.585
30
0
0
VERTEX
8
0
10
64.430525
20
55.590668750000006
30
0
0
VERTEX
8
0
10
64.45736875
20
55.6017875
30
0
0
VERTEX
8
0
10
64.481525
20
55.617928125000006
30
0
0
VERTEX
8
0
10
64.502071875
20
55.638475
30
0
0
VERTEX
8
0
10
64.5182125
20
55.662631250000004
30
0
0
VERTEX
8
0
10
64.52933125
20
55.689475
30
0
0
VERTEX
8
0
10
64.535
20
55.717971875
30
0
0
VERTEX
8
0
10
64.535
20
56.042028125
30
0
0
VERTEX
8
0
10
64.52933125
20
56.070525
30
0
0
VERTEX
8
0
10
64.5182125
20
56.09736875
30
0
0
VERTEX
8
0
10
64.502071875
20
56.121525000000005
30
0
0
VERTEX
8
0
10
64.481525
20
56.142071875
30
0
0
VERTEX
8
0
10
64.45736875
20
56.158212500000005
30
0
0
VERTEX
8
0
10
64.430525
20
56.169331250000006
30
0
0
VERTEX
8
0
10
64.402028125
20
56.175000000000004
30
0
0
VERTEX
8
0
10
62.717971875
20
56.175000000000004
30
0
0
VERTEX
8
0
10
62.689475
20
56.169331250000006
30
0
0
VERTEX
8
0
10
62.662631250000004
20
56.158212500000005
30
0
0
VERTEX
8
0
10
62.638475
20
56.142071875
30
0
0
VERTEX
8
0
10
62.617928125000006
20
56.121525000000005
30
0
0
VERTEX
8
0
10
62.6017875
20
56.09736875
30
0
0
VERTEX
8
0
10
62.590668750000006
20
56.070525
30
0
0
VERTEX
8
0
10
62.5906625
20
56.0705
30
0
0
VERTEX
8
0
10
61.673909375
20
56.0705
30
0
0
VERTEX
8
0
10
55.3664375
20
62.377971875
30
0
0
VERTEX
8
0
10
55.335234375000006
20
62.398818750000004
30
0
0
VERTEX
8
0
10
55.300565625000004
20
62.413178125
30
0
0
VERTEX
8
0
10
55.263762500000006
20
62.420500000000004
30
0
0
VERTEX
8
0
10
52.686237500000004
20
62.420500000000004
30
0
0
VERTEX
8
0
10
52.649434375000006
20
62.413178125
30
0
0
VERTEX
8
0
10
52.614765625000004
20
62.398818750000004
30
0
0
VERTEX
8
0
10
52.5835625
20
62.377971875
30
0
0
VERTEX
8
0
10
52.557028125
20
62.3514375
30
0
0
VERTEX
8
0
10
52.536181250000006
20
62.320234375000005
30
0
0
VERTEX
8
0
10
52.521821875
20
62.285565625000004
30
0
0
VERTEX
8
0
10
52.514500000000005
20
62.248762500000005
30
0
0
VERTEX
8
0
10
52.514500000000005
20
59.133909375
30
0
0
VERTEX
8
0
10
49.451090625
20
56.0705
30
0
0
VERTEX
8
0
10
45.72
20
56.0705
30
0
0
VERTEX
8
0
10
45.72
20
56.515
30
0
0
VERTEX
8
0
10
43.18
20
56.515
30
0
0
VERTEX
8
0
10
43.18
20
55.245000000000005
30
0
0
VERTEX
8
0
10
45.72
20
55.245000000000005
30
0
0
VERTEX
8
0
10
45.72
20
55.6895
30
0
0
VERTEX
8
0
10
49.5487625
20
55.6895
30
0
0
VERTEX
8
0
10
49.585565625
20
55.696821875000005
30
0
0
SEQEND
0
POLYLINE
66
1
8
1_copper
10
0.0
20
0.0
30
0.0
70
1
0
VERTEX
8
0
10
45.72
20
53.975
30
0
0
VERTEX
8
0
10
43.18
20
53.975
30
0
0
VERTEX
8
0
10
43.18
20
52.705000000000005
30
0
0
VERTEX
8
0
10
45.72
20
52.705000000000005
30
0
0
SEQEND
0
POLYLINE
66
1
8
1_copper
10
0.0
20
0.0
30
0.0
70
1
0
VERTEX
8
0
10
45.72
20
46.355000000000004
30
0
0
VERTEX
8
0
10
43.18
20
46.355000000000004
30
0
0
VERTEX
8
0
10
43.18
20
45.085
30
0
0
VERTEX
8
0
10
45.72
20
45.085
30
0
0
SEQEND
0
ENDSEC
0
EOF