999
FreeCAD v0.21 33771 (Git)
  0
SECTION
  2
HEADER
  9
$ACADVER
  1
AC1014
  9
$ACADMAINTVER
 70
     9
  9
$DWGCODEPAGE
  3
ANSI_1252
  9
$TEXTSTYLE
  7
STANDARD
  9
$DIMSTYLE
  2
STANDARD
  9
$DIMTXSTY
  7
STANDARD
  9
$CMLSTYLE
  2
STANDARD
  9
$LUNITS
 70
2
  9
$INSUNITS
 70
4
  9
$PEXTMAX
 10
50
 20
50
 30
50
  9
$PEXTMIN
 10
0
 20
0
 30
0
  9
$HANDSEED
  5
FFFF
  0
ENDSEC
  0
SECTION
  2
CLASSES
  0
CLASS
  1
ACDBDICTIONARYWDFLT
  2
AcDbDictionaryWithDefault
  3
ObjectDBX Classes
 90
        0
280
     0
281
     0
  0
CLASS
  1
XRECORD
  2
AcDbXrecord
  3
ObjectDBX Classes
 90
        0
280
     0
281
     0
  0
CLASS
  1
LWPOLYLINE
  2
AcDbPolyline
  3
ObjectDBX Classes
 90
        0
280
     0
281
     1
  0
ENDSEC
  0
SECTION
  2
TABLES
  0
TABLE
  2
VPORT
  5
20
330
0
100
AcDbSymbolTable
 70
     1
  0
VPORT
  5
21
330
20
100
AcDbSymbolTableRecord
100
AcDbViewportTableRecord
  2
*ACTIVE
 70
     0
  0
ENDTAB
  0
TABLE
  2
LTYPE
  5
22
330
0
100
AcDbSymbolTable
 70
     1
  0
LTYPE
  5
23
330
21
100
AcDbSymbolTableRecord
100
AcDbLinetypeTableRecord
  2
BYBLOCK
 70
     0
  3

 72
    65
 73
     0
 40
0.0
  0
LTYPE
  5
24
330
21
100
AcDbSymbolTableRecord
100
AcDbLinetypeTableRecord
  2
BYLAYER
 70
     0
  3

 72
    65
 73
     0
 40
0.0
  0
LTYPE
  5
25
330
21
100
AcDbSymbolTableRecord
100
AcDbLinetypeTableRecord
  2
CONTINUOUS
 70
     0
  3
Solid line
 72
    65
 73
     0
 40
0.0
  0
ENDTAB
  0
TABLE
  2
LAYER
  5
E6A
330
0
100
AcDbSymbolTable
 70
11
  0
LAYER
  5
E6B
330
E6A
100
AcDbSymbolTableRecord
100
AcDbLayerTableRecord
  2
0
 70
   0
 62
   7
  6
CONTINUOUS
  0
LAYER
  5
E6C
330
E6A
100
AcDbSymbolTableRecord
100
AcDbLayerTableRecord
  2
none
 70
    0
 62
    7
  6
CONTINUOUS
  0
LAYER
  5
E6D
330
E6A
100
AcDbSymbolTableRecord
100
AcDbLayerTableRecord
  2
Body
 70
    0
 62
    7
  6
CONTINUOUS
  0
LAYER
  5
E6E
330
E6A
100
AcDbSymbolTableRecord
100
AcDbLayerTableRecord
  2
ShapeString001
 70
    0
 62
    7
  6
CONTINUOUS
  0
LAYER
  5
E6F
330
E6A
100
AcDbSymbolTableRecord
100
AcDbLayerTableRecord
  2
ShapeString002
 70
    0
 62
    7
  6
CONTINUOUS
  0
LAYER
  5
E70
330
E6A
100
AcDbSymbolTableRecord
100
AcDbLayerTableRecord
  2
ShapeString003
 70
    0
 62
    7
  6
CONTINUOUS
  0
LAYER
  5
E71
330
E6A
100
AcDbSymbolTableRecord
100
AcDbLayerTableRecord
  2
ShapeString004
 70
    0
 62
    7
  6
CONTINUOUS
  0
LAYER
  5
E72
330
E6A
100
AcDbSymbolTableRecord
100
AcDbLayerTableRecord
  2
ShapeString005
 70
    0
 62
    7
  6
CONTINUOUS
  0
LAYER
  5
E73
330
E6A
100
AcDbSymbolTableRecord
100
AcDbLayerTableRecord
  2
ShapeString006
 70
    0
 62
    7
  6
CONTINUOUS
  0
LAYER
  5
E74
330
E6A
100
AcDbSymbolTableRecord
100
AcDbLayerTableRecord
  2
ShapeString007
 70
    0
 62
    7
  6
CONTINUOUS
  0
LAYER
  5
E75
330
E6A
100
AcDbSymbolTableRecord
100
AcDbLayerTableRecord
  2
ShapeString008
 70
    0
 62
    7
  6
CONTINUOUS
  0
ENDTAB
  0
TABLE
  2
STYLE
  5
70
330
0
100
AcDbSymbolTable
 70
     2
  0
STYLE
  5
71
330
70
100
AcDbSymbolTableRecord
100
AcDbTextStyleTableRecord
  2
STANDARD
 70
     0
 40
0.0
 41
1.0
 50
0.0
 71
     0
 42
2.5
  3
arial.ttf
  4

  0
STYLE
  5
72
330
70
100
AcDbSymbolTableRecord
100
AcDbTextStyleTableRecord
  2
ANNOTATIVE
 70
     0
 40
0.0
 41
1.0
 50
0.0
 71
     0
 42
2.5
  3
arial.ttf
  4

  0
ENDTAB
  0
TABLE
  2
VIEW
  5
73
330
0
100
AcDbSymbolTable
 70
     0
  0
ENDTAB
  0
TABLE
  2
UCS
  5
74
330
0
100
AcDbSymbolTable
 70
     0
  0
ENDTAB
  0
TABLE
  2
APPID
  5
75
330
0
100
AcDbSymbolTable
 70
     2
  0
APPID
  5
76
330
75
100
AcDbSymbolTableRecord
100
AcDbRegAppTableRecord
  2
ACAD
 70
     0
  0
APPID
  5
77
330
75
100
AcDbSymbolTableRecord
100
AcDbRegAppTableRecord
  2
ACADANNOTATIVE
 70
     0
  0
ENDTAB
  0
TABLE
  2
DIMSTYLE
  5
78
330
0
100
AcDbSymbolTable
 70
     2
  0
DIMSTYLE
105
79
330
78
100
AcDbSymbolTableRecord
100
AcDbDimStyleTableRecord
  2
STANDARD
 70
     0
  3

  4

  5

  6

  7

 40
0.0
 41
2.5
 42
0.625
 43
3.75
 44
1.25
 45
0.0
 46
0.0
 47
0.0
 48
0.0
140
2.5
141
2.5
142
0.0
143
0.03937007874016
144
1.0
145
0.0
146
1.0
147
0.625
 71
     0
 72
     0
 73
     0
 74
     0
 75
     0
 76
     0
 77
     1
 78
     8
170
     0
171
     3
172
     1
173
     0
174
     0
175
     0
176
     0
177
     0
178
     0
270
     2
271
     2
272
     2
273
     2
274
     3
340
71
275
     0
280
     0
281
     0
282
     0
283
     0
284
     8
285
     0
286
     0
287
     3
288
     0
  0
ENDTAB
  0
TABLE
  2
BLOCK_RECORD
  5
A01
330
0
100
AcDbSymbolTable
  70
5
  0
BLOCK_RECORD
  5
A02
330
A01
100
AcDbSymbolTableRecord
100
AcDbBlockTableRecord
  2
*MODEL_SPACE
  0
BLOCK_RECORD
  5
A03
330
A01
100
AcDbSymbolTableRecord
100
AcDbBlockTableRecord
  2
*PAPER_SPACE
  0
ENDTAB
  0
ENDSEC
  0
SECTION
  2
BLOCKS
  0
BLOCK
  5
A04
330
A02
100
AcDbEntity
  8
0
100
AcDbBlockBegin
  2
*MODEL_SPACE
 70
   0
 10
0
 20
0
 30
0
  3
*MODEL_SPACE
  1
 
  0
ENDBLK
  5
A05
330
A02
100
AcDbEntity
  8
0
100
AcDbBlockEnd
  0
BLOCK
  5
A06
330
A03
100
AcDbEntity
 67
1
  8
0
100
AcDbBlockBegin
  2
*PAPER_SPACE
 70
   0
 10
0
 20
0
 30
0
  3
*PAPER_SPACE
  1
 
  0
ENDBLK
  5
A07
330
A03
100
AcDbEntity
 67
    1
  8
0
100
AcDbBlockEnd
  0
ENDSEC
  0
SECTION
  2
ENTITIES
  0
LINE
  5
A08
330
A02
100
AcDbEntity
  8
Body
100
AcDbLine
 10
-54.0445
 20
0
 30
0
 11
-54.0445
 21
0
 31
4
  0
LINE
  5
A09
330
A02
100
AcDbEntity
  8
Body
100
AcDbLine
 10
-54.0445
 20
40
 30
0
 11
-54.0445
 21
40
 31
4
  0
LINE
  5
A0A
330
A02
100
AcDbEntity
  8
Body
100
AcDbLine
 10
-54.0445
 20
0
 30
0
 11
-54.0445
 21
40
 31
0
  0
LINE
  5
A0B
330
A02
100
AcDbEntity
  8
Body
100
AcDbLine
 10
-54.0445
 20
0
 30
4
 11
-54.0445
 21
40
 31
4
  0
LINE
  5
A0C
330
A02
100
AcDbEntity
  8
Body
100
AcDbLine
 10
-54.0445
 20
40
 30
0
 11
-54.0445
 21
40
 31
4
  0
LINE
  5
A0D
330
A02
100
AcDbEntity
  8
Body
100
AcDbLine
 10
-44.6908
 20
40
 30
0
 11
-44.6908
 21
40
 31
4
  0
LINE
  5
A0E
330
A02
100
AcDbEntity
  8
Body
100
AcDbLine
 10
-54.0445
 20
40
 30
0
 11
-44.6908
 21
40
 31
0
  0
LINE
  5
A0F
330
A02
100
AcDbEntity
  8
Body
100
AcDbLine
 10
-54.0445
 20
40
 30
4
 11
-44.6908
 21
40
 31
4
  0
LINE
  5
A10
330
A02
100
AcDbEntity
  8
Body
100
AcDbLine
 10
-44.6908
 20
40
 30
0
 11
-44.6908
 21
40
 31
4
  0
LINE
  5
A11
330
A02
100
AcDbEntity
  8
Body
100
AcDbLine
 10
-44.6908
 20
20
 30
0
 11
-44.6908
 21
20
 31
4
  0
LINE
  5
A12
330
A02
100
AcDbEntity
  8
Body
100
AcDbLine
 10
-44.6908
 20
40
 30
0
 11
-44.6908
 21
20
 31
0
  0
LINE
  5
A13
330
A02
100
AcDbEntity
  8
Body
100
AcDbLine
 10
-44.6908
 20
40
 30
4
 11
-44.6908
 21
20
 31
4
  0
LINE
  5
A14
330
A02
100
AcDbEntity
  8
Body
100
AcDbLine
 10
-44.6908
 20
20
 30
0
 11
-44.6908
 21
20
 31
4
  0
LINE
  5
A15
330
A02
100
AcDbEntity
  8
Body
100
AcDbLine
 10
-40.6908
 20
20
 30
0
 11
-40.6908
 21
20
 31
4
  0
LINE
  5
A16
330
A02
100
AcDbEntity
  8
Body
100
AcDbLine
 10
-44.6908
 20
20
 30
0
 11
-40.6908
 21
20
 31
0
  0
LINE
  5
A17
330
A02
100
AcDbEntity
  8
Body
100
AcDbLine
 10
-44.6908
 20
20
 30
4
 11
-40.6908
 21
20
 31
4
  0
LINE
  5
A18
330
A02
100
AcDbEntity
  8
Body
100
AcDbLine
 10
-40.6908
 20
20
 30
0
 11
-40.6908
 21
20
 31
4
  0
LINE
  5
A19
330
A02
100
AcDbEntity
  8
Body
100
AcDbLine
 10
-40.6908
 20
40
 30
0
 11
-40.6908
 21
40
 31
4
  0
LINE
  5
A1A
330
A02
100
AcDbEntity
  8
Body
100
AcDbLine
 10
-40.6908
 20
20
 30
0
 11
-40.6908
 21
40
 31
0
  0
LINE
  5
A1B
330
A02
100
AcDbEntity
  8
Body
100
AcDbLine
 10
-40.6908
 20
20
 30
4
 11
-40.6908
 21
40
 31
4
  0
LINE
  5
A1C
330
A02
100
AcDbEntity
  8
Body
100
AcDbLine
 10
-40.6908
 20
40
 30
0
 11
-40.6908
 21
40
 31
4
  0
LINE
  5
A1D
330
A02
100
AcDbEntity
  8
Body
100
AcDbLine
 10
-27.3145
 20
40
 30
0
 11
-27.3145
 21
40
 31
4
  0
LINE
  5
A1E
330
A02
100
AcDbEntity
  8
Body
100
AcDbLine
 10
-40.6908
 20
40
 30
0
 11
-27.3145
 21
40
 31
0
  0
LINE
  5
A1F
330
A02
100
AcDbEntity
  8
Body
100
AcDbLine
 10
-40.6908
 20
40
 30
4
 11
-27.3145
 21
40
 31
4
  0
LINE
  5
A20
330
A02
100
AcDbEntity
  8
Body
100
AcDbLine
 10
-27.3145
 20
40
 30
0
 11
-27.3145
 21
40
 31
4
  0
LINE
  5
A21
330
A02
100
AcDbEntity
  8
Body
100
AcDbLine
 10
-27.3145
 20
20
 30
0
 11
-27.3145
 21
20
 31
4
  0
LINE
  5
A22
330
A02
100
AcDbEntity
  8
Body
100
AcDbLine
 10
-27.3145
 20
40
 30
0
 11
-27.3145
 21
20
 31
0
  0
LINE
  5
A23
330
A02
100
AcDbEntity
  8
Body
100
AcDbLine
 10
-27.3145
 20
40
 30
4
 11
-27.3145
 21
20
 31
4
  0
LINE
  5
A24
330
A02
100
AcDbEntity
  8
Body
100
AcDbLine
 10
-27.3145
 20
20
 30
0
 11
-27.3145
 21
20
 31
4
  0
LINE
  5
A25
330
A02
100
AcDbEntity
  8
Body
100
AcDbLine
 10
-23.4145
 20
20
 30
0
 11
-23.4145
 21
20
 31
4
  0
LINE
  5
A26
330
A02
100
AcDbEntity
  8
Body
100
AcDbLine
 10
-27.3145
 20
20
 30
0
 11
-23.4145
 21
20
 31
0
  0
LINE
  5
A27
330
A02
100
AcDbEntity
  8
Body
100
AcDbLine
 10
-27.3145
 20
20
 30
4
 11
-23.4145
 21
20
 31
4
  0
LINE
  5
A28
330
A02
100
AcDbEntity
  8
Body
100
AcDbLine
 10
-23.4145
 20
20
 30
0
 11
-23.4145
 21
20
 31
4
  0
LINE
  5
A29
330
A02
100
AcDbEntity
  8
Body
100
AcDbLine
 10
-23.4145
 20
40
 30
0
 11
-23.4145
 21
40
 31
4
  0
LINE
  5
A2A
330
A02
100
AcDbEntity
  8
Body
100
AcDbLine
 10
-23.4145
 20
20
 30
0
 11
-23.4145
 21
40
 31
0
  0
LINE
  5
A2B
330
A02
100
AcDbEntity
  8
Body
100
AcDbLine
 10
-23.4145
 20
20
 30
4
 11
-23.4145
 21
40
 31
4
  0
LINE
  5
A2C
330
A02
100
AcDbEntity
  8
Body
100
AcDbLine
 10
-23.4145
 20
40
 30
0
 11
-23.4145
 21
40
 31
4
  0
LINE
  5
A2D
330
A02
100
AcDbEntity
  8
Body
100
AcDbLine
 10
-10.0382
 20
40
 30
0
 11
-10.0382
 21
40
 31
4
  0
LINE
  5
A2E
330
A02
100
AcDbEntity
  8
Body
100
AcDbLine
 10
-23.4145
 20
40
 30
0
 11
-10.0382
 21
40
 31
0
  0
LINE
  5
A2F
330
A02
100
AcDbEntity
  8
Body
100
AcDbLine
 10
-23.4145
 20
40
 30
4
 11
-10.0382
 21
40
 31
4
  0
LINE
  5
A30
330
A02
100
AcDbEntity
  8
Body
100
AcDbLine
 10
-10.0382
 20
40
 30
0
 11
-10.0382
 21
40
 31
4
  0
LINE
  5
A31
330
A02
100
AcDbEntity
  8
Body
100
AcDbLine
 10
-10.0382
 20
20
 30
0
 11
-10.0382
 21
20
 31
4
  0
LINE
  5
A32
330
A02
100
AcDbEntity
  8
Body
100
AcDbLine
 10
-10.0382
 20
40
 30
0
 11
-10.0382
 21
20
 31
0
  0
LINE
  5
A33
330
A02
100
AcDbEntity
  8
Body
100
AcDbLine
 10
-10.0382
 20
40
 30
4
 11
-10.0382
 21
20
 31
4
  0
LINE
  5
A34
330
A02
100
AcDbEntity
  8
Body
100
AcDbLine
 10
-10.0382
 20
20
 30
0
 11
-10.0382
 21
20
 31
4
  0
LINE
  5
A35
330
A02
100
AcDbEntity
  8
Body
100
AcDbLine
 10
-6.23816
 20
20
 30
0
 11
-6.23816
 21
20
 31
4
  0
LINE
  5
A36
330
A02
100
AcDbEntity
  8
Body
100
AcDbLine
 10
-10.0382
 20
20
 30
0
 11
-6.23816
 21
20
 31
0
  0
LINE
  5
A37
330
A02
100
AcDbEntity
  8
Body
100
AcDbLine
 10
-10.0382
 20
20
 30
4
 11
-6.23816
 21
20
 31
4
  0
LINE
  5
A38
330
A02
100
AcDbEntity
  8
Body
100
AcDbLine
 10
-6.23816
 20
20
 30
0
 11
-6.23816
 21
20
 31
4
  0
LINE
  5
A39
330
A02
100
AcDbEntity
  8
Body
100
AcDbLine
 10
-6.23816
 20
40
 30
0
 11
-6.23816
 21
40
 31
4
  0
LINE
  5
A3A
330
A02
100
AcDbEntity
  8
Body
100
AcDbLine
 10
-6.23816
 20
20
 30
0
 11
-6.23816
 21
40
 31
0
  0
LINE
  5
A3B
330
A02
100
AcDbEntity
  8
Body
100
AcDbLine
 10
-6.23816
 20
20
 30
4
 11
-6.23816
 21
40
 31
4
  0
LINE
  5
A3C
330
A02
100
AcDbEntity
  8
Body
100
AcDbLine
 10
-6.23816
 20
40
 30
0
 11
-6.23816
 21
40
 31
4
  0
LINE
  5
A3D
330
A02
100
AcDbEntity
  8
Body
100
AcDbLine
 10
7.13816
 20
40
 30
0
 11
7.13816
 21
40
 31
4
  0
LINE
  5
A3E
330
A02
100
AcDbEntity
  8
Body
100
AcDbLine
 10
-6.23816
 20
40
 30
0
 11
7.13816
 21
40
 31
0
  0
LINE
  5
A3F
330
A02
100
AcDbEntity
  8
Body
100
AcDbLine
 10
-6.23816
 20
40
 30
4
 11
7.13816
 21
40
 31
4
  0
LINE
  5
A40
330
A02
100
AcDbEntity
  8
Body
100
AcDbLine
 10
7.13816
 20
40
 30
0
 11
7.13816
 21
40
 31
4
  0
LINE
  5
A41
330
A02
100
AcDbEntity
  8
Body
100
AcDbLine
 10
7.13816
 20
20
 30
0
 11
7.13816
 21
20
 31
4
  0
LINE
  5
A42
330
A02
100
AcDbEntity
  8
Body
100
AcDbLine
 10
7.13816
 20
40
 30
0
 11
7.13816
 21
20
 31
0
  0
LINE
  5
A43
330
A02
100
AcDbEntity
  8
Body
100
AcDbLine
 10
7.13816
 20
40
 30
4
 11
7.13816
 21
20
 31
4
  0
LINE
  5
A44
330
A02
100
AcDbEntity
  8
Body
100
AcDbLine
 10
7.13816
 20
20
 30
0
 11
7.13816
 21
20
 31
4
  0
LINE
  5
A45
330
A02
100
AcDbEntity
  8
Body
100
AcDbLine
 10
10.8382
 20
20
 30
0
 11
10.8382
 21
20
 31
4
  0
LINE
  5
A46
330
A02
100
AcDbEntity
  8
Body
100
AcDbLine
 10
7.13816
 20
20
 30
0
 11
10.8382
 21
20
 31
0
  0
LINE
  5
A47
330
A02
100
AcDbEntity
  8
Body
100
AcDbLine
 10
7.13816
 20
20
 30
4
 11
10.8382
 21
20
 31
4
  0
LINE
  5
A48
330
A02
100
AcDbEntity
  8
Body
100
AcDbLine
 10
10.8382
 20
20
 30
0
 11
10.8382
 21
20
 31
4
  0
LINE
  5
A49
330
A02
100
AcDbEntity
  8
Body
100
AcDbLine
 10
10.8382
 20
40
 30
0
 11
10.8382
 21
40
 31
4
  0
LINE
  5
A4A
330
A02
100
AcDbEntity
  8
Body
100
AcDbLine
 10
10.8382
 20
20
 30
0
 11
10.8382
 21
40
 31
0
  0
LINE
  5
A4B
330
A02
100
AcDbEntity
  8
Body
100
AcDbLine
 10
10.8382
 20
20
 30
4
 11
10.8382
 21
40
 31
4
  0
LINE
  5
A4C
330
A02
100
AcDbEntity
  8
Body
100
AcDbLine
 10
10.8382
 20
40
 30
0
 11
10.8382
 21
40
 31
4
  0
LINE
  5
A4D
330
A02
100
AcDbEntity
  8
Body
100
AcDbLine
 10
24.2145
 20
40
 30
0
 11
24.2145
 21
40
 31
4
  0
LINE
  5
A4E
330
A02
100
AcDbEntity
  8
Body
100
AcDbLine
 10
10.8382
 20
40
 30
0
 11
24.2145
 21
40
 31
0
  0
LINE
  5
A4F
330
A02
100
AcDbEntity
  8
Body
100
AcDbLine
 10
10.8382
 20
40
 30
4
 11
24.2145
 21
40
 31
4
  0
LINE
  5
A50
330
A02
100
AcDbEntity
  8
Body
100
AcDbLine
 10
24.2145
 20
40
 30
0
 11
24.2145
 21
40
 31
4
  0
LINE
  5
A51
330
A02
100
AcDbEntity
  8
Body
100
AcDbLine
 10
24.2145
 20
20
 30
0
 11
24.2145
 21
20
 31
4
  0
LINE
  5
A52
330
A02
100
AcDbEntity
  8
Body
100
AcDbLine
 10
24.2145
 20
40
 30
0
 11
24.2145
 21
20
 31
0
  0
LINE
  5
A53
330
A02
100
AcDbEntity
  8
Body
100
AcDbLine
 10
24.2145
 20
40
 30
4
 11
24.2145
 21
20
 31
4
  0
LINE
  5
A54
330
A02
100
AcDbEntity
  8
Body
100
AcDbLine
 10
24.2145
 20
20
 30
0
 11
24.2145
 21
20
 31
4
  0
LINE
  5
A55
330
A02
100
AcDbEntity
  8
Body
100
AcDbLine
 10
27.8145
 20
20
 30
0
 11
27.8145
 21
20
 31
4
  0
LINE
  5
A56
330
A02
100
AcDbEntity
  8
Body
100
AcDbLine
 10
24.2145
 20
20
 30
0
 11
27.8145
 21
20
 31
0
  0
LINE
  5
A57
330
A02
100
AcDbEntity
  8
Body
100
AcDbLine
 10
24.2145
 20
20
 30
4
 11
27.8145
 21
20
 31
4
  0
LINE
  5
A58
330
A02
100
AcDbEntity
  8
Body
100
AcDbLine
 10
27.8145
 20
20
 30
0
 11
27.8145
 21
20
 31
4
  0
LINE
  5
A59
330
A02
100
AcDbEntity
  8
Body
100
AcDbLine
 10
27.8145
 20
40
 30
0
 11
27.8145
 21
40
 31
4
  0
LINE
  5
A5A
330
A02
100
AcDbEntity
  8
Body
100
AcDbLine
 10
27.8145
 20
20
 30
0
 11
27.8145
 21
40
 31
0
  0
LINE
  5
A5B
330
A02
100
AcDbEntity
  8
Body
100
AcDbLine
 10
27.8145
 20
20
 30
4
 11
27.8145
 21
40
 31
4
  0
LINE
  5
A5C
330
A02
100
AcDbEntity
  8
Body
100
AcDbLine
 10
27.8145
 20
40
 30
0
 11
27.8145
 21
40
 31
4
  0
LINE
  5
A5D
330
A02
100
AcDbEntity
  8
Body
100
AcDbLine
 10
41.1908
 20
40
 30
0
 11
41.1908
 21
40
 31
4
  0
LINE
  5
A5E
330
A02
100
AcDbEntity
  8
Body
100
AcDbLine
 10
27.8145
 20
40
 30
0
 11
41.1908
 21
40
 31
0
  0
LINE
  5
A5F
330
A02
100
AcDbEntity
  8
Body
100
AcDbLine
 10
27.8145
 20
40
 30
4
 11
41.1908
 21
40
 31
4
  0
LINE
  5
A60
330
A02
100
AcDbEntity
  8
Body
100
AcDbLine
 10
41.1908
 20
40
 30
0
 11
41.1908
 21
40
 31
4
  0
LINE
  5
A61
330
A02
100
AcDbEntity
  8
Body
100
AcDbLine
 10
41.1908
 20
20
 30
0
 11
41.1908
 21
20
 31
4
  0
LINE
  5
A62
330
A02
100
AcDbEntity
  8
Body
100
AcDbLine
 10
41.1908
 20
40
 30
0
 11
41.1908
 21
20
 31
0
  0
LINE
  5
A63
330
A02
100
AcDbEntity
  8
Body
100
AcDbLine
 10
41.1908
 20
40
 30
4
 11
41.1908
 21
20
 31
4
  0
LINE
  5
A64
330
A02
100
AcDbEntity
  8
Body
100
AcDbLine
 10
41.1908
 20
20
 30
0
 11
41.1908
 21
20
 31
4
  0
LINE
  5
A65
330
A02
100
AcDbEntity
  8
Body
100
AcDbLine
 10
44.6908
 20
20
 30
0
 11
44.6908
 21
20
 31
4
  0
LINE
  5
A66
330
A02
100
AcDbEntity
  8
Body
100
AcDbLine
 10
41.1908
 20
20
 30
0
 11
44.6908
 21
20
 31
0
  0
LINE
  5
A67
330
A02
100
AcDbEntity
  8
Body
100
AcDbLine
 10
41.1908
 20
20
 30
4
 11
44.6908
 21
20
 31
4
  0
LINE
  5
A68
330
A02
100
AcDbEntity
  8
Body
100
AcDbLine
 10
44.6908
 20
20
 30
0
 11
44.6908
 21
20
 31
4
  0
LINE
  5
A69
330
A02
100
AcDbEntity
  8
Body
100
AcDbLine
 10
44.6908
 20
40
 30
0
 11
44.6908
 21
40
 31
4
  0
LINE
  5
A6A
330
A02
100
AcDbEntity
  8
Body
100
AcDbLine
 10
44.6908
 20
20
 30
0
 11
44.6908
 21
40
 31
0
  0
LINE
  5
A6B
330
A02
100
AcDbEntity
  8
Body
100
AcDbLine
 10
44.6908
 20
20
 30
4
 11
44.6908
 21
40
 31
4
  0
LINE
  5
A6C
330
A02
100
AcDbEntity
  8
Body
100
AcDbLine
 10
44.6908
 20
40
 30
0
 11
44.6908
 21
40
 31
4
  0
LINE
  5
A6D
330
A02
100
AcDbEntity
  8
Body
100
AcDbLine
 10
54.0445
 20
40
 30
0
 11
54.0445
 21
40
 31
4
  0
LINE
  5
A6E
330
A02
100
AcDbEntity
  8
Body
100
AcDbLine
 10
44.6908
 20
40
 30
0
 11
54.0445
 21
40
 31
0
  0
LINE
  5
A6F
330
A02
100
AcDbEntity
  8
Body
100
AcDbLine
 10
44.6908
 20
40
 30
4
 11
54.0445
 21
40
 31
4
  0
LINE
  5
A70
330
A02
100
AcDbEntity
  8
Body
100
AcDbLine
 10
54.0445
 20
40
 30
0
 11
54.0445
 21
40
 31
4
  0
LINE
  5
A71
330
A02
100
AcDbEntity
  8
Body
100
AcDbLine
 10
54.0445
 20
0
 30
0
 11
54.0445
 21
0
 31
4
  0
LINE
  5
A72
330
A02
100
AcDbEntity
  8
Body
100
AcDbLine
 10
54.0445
 20
40
 30
0
 11
54.0445
 21
0
 31
0
  0
LINE
  5
A73
330
A02
100
AcDbEntity
  8
Body
100
AcDbLine
 10
54.0445
 20
40
 30
4
 11
54.0445
 21
0
 31
4
  0
LINE
  5
A74
330
A02
100
AcDbEntity
  8
Body
100
AcDbLine
 10
54.0445
 20
0
 30
0
 11
54.0445
 21
0
 31
4
  0
LINE
  5
A75
330
A02
100
AcDbEntity
  8
Body
100
AcDbLine
 10
-54.0445
 20
0
 30
0
 11
-54.0445
 21
0
 31
4
  0
LINE
  5
A76
330
A02
100
AcDbEntity
  8
Body
100
AcDbLine
 10
54.0445
 20
0
 30
0
 11
-54.0445
 21
0
 31
0
  0
LINE
  5
A77
330
A02
100
AcDbEntity
  8
Body
100
AcDbLine
 10
54.0445
 20
0
 30
4
 11
-54.0445
 21
0
 31
4
  0
LINE
  5
A78
330
A02
100
AcDbEntity
  8
Body
100
AcDbLine
 10
-54.0445
 20
0
 30
0
 11
-54.0445
 21
40
 31
0
  0
LINE
  5
A79
330
A02
100
AcDbEntity
  8
Body
100
AcDbLine
 10
-54.0445
 20
40
 30
0
 11
-44.6908
 21
40
 31
0
  0
LINE
  5
A7A
330
A02
100
AcDbEntity
  8
Body
100
AcDbLine
 10
-44.6908
 20
40
 30
0
 11
-44.6908
 21
20
 31
0
  0
LINE
  5
A7B
330
A02
100
AcDbEntity
  8
Body
100
AcDbLine
 10
-44.6908
 20
20
 30
0
 11
-40.6908
 21
20
 31
0
  0
LINE
  5
A7C
330
A02
100
AcDbEntity
  8
Body
100
AcDbLine
 10
-40.6908
 20
20
 30
0
 11
-40.6908
 21
40
 31
0
  0
LINE
  5
A7D
330
A02
100
AcDbEntity
  8
Body
100
AcDbLine
 10
-40.6908
 20
40
 30
0
 11
-27.3145
 21
40
 31
0
  0
LINE
  5
A7E
330
A02
100
AcDbEntity
  8
Body
100
AcDbLine
 10
-27.3145
 20
40
 30
0
 11
-27.3145
 21
20
 31
0
  0
LINE
  5
A7F
330
A02
100
AcDbEntity
  8
Body
100
AcDbLine
 10
-27.3145
 20
20
 30
0
 11
-23.4145
 21
20
 31
0
  0
LINE
  5
A80
330
A02
100
AcDbEntity
  8
Body
100
AcDbLine
 10
-23.4145
 20
20
 30
0
 11
-23.4145
 21
40
 31
0
  0
LINE
  5
A81
330
A02
100
AcDbEntity
  8
Body
100
AcDbLine
 10
-23.4145
 20
40
 30
0
 11
-10.0382
 21
40
 31
0
  0
LINE
  5
A82
330
A02
100
AcDbEntity
  8
Body
100
AcDbLine
 10
-10.0382
 20
40
 30
0
 11
-10.0382
 21
20
 31
0
  0
LINE
  5
A83
330
A02
100
AcDbEntity
  8
Body
100
AcDbLine
 10
-10.0382
 20
20
 30
0
 11
-6.23816
 21
20
 31
0
  0
LINE
  5
A84
330
A02
100
AcDbEntity
  8
Body
100
AcDbLine
 10
-6.23816
 20
20
 30
0
 11
-6.23816
 21
40
 31
0
  0
LINE
  5
A85
330
A02
100
AcDbEntity
  8
Body
100
AcDbLine
 10
-6.23816
 20
40
 30
0
 11
7.13816
 21
40
 31
0
  0
LINE
  5
A86
330
A02
100
AcDbEntity
  8
Body
100
AcDbLine
 10
7.13816
 20
40
 30
0
 11
7.13816
 21
20
 31
0
  0
LINE
  5
A87
330
A02
100
AcDbEntity
  8
Body
100
AcDbLine
 10
7.13816
 20
20
 30
0
 11
10.8382
 21
20
 31
0
  0
LINE
  5
A88
330
A02
100
AcDbEntity
  8
Body
100
AcDbLine
 10
10.8382
 20
20
 30
0
 11
10.8382
 21
40
 31
0
  0
LINE
  5
A89
330
A02
100
AcDbEntity
  8
Body
100
AcDbLine
 10
10.8382
 20
40
 30
0
 11
24.2145
 21
40
 31
0
  0
LINE
  5
A8A
330
A02
100
AcDbEntity
  8
Body
100
AcDbLine
 10
24.2145
 20
40
 30
0
 11
24.2145
 21
20
 31
0
  0
LINE
  5
A8B
330
A02
100
AcDbEntity
  8
Body
100
AcDbLine
 10
24.2145
 20
20
 30
0
 11
27.8145
 21
20
 31
0
  0
LINE
  5
A8C
330
A02
100
AcDbEntity
  8
Body
100
AcDbLine
 10
27.8145
 20
20
 30
0
 11
27.8145
 21
40
 31
0
  0
LINE
  5
A8D
330
A02
100
AcDbEntity
  8
Body
100
AcDbLine
 10
27.8145
 20
40
 30
0
 11
41.1908
 21
40
 31
0
  0
LINE
  5
A8E
330
A02
100
AcDbEntity
  8
Body
100
AcDbLine
 10
41.1908
 20
40
 30
0
 11
41.1908
 21
20
 31
0
  0
LINE
  5
A8F
330
A02
100
AcDbEntity
  8
Body
100
AcDbLine
 10
41.1908
 20
20
 30
0
 11
44.6908
 21
20
 31
0
  0
LINE
  5
A90
330
A02
100
AcDbEntity
  8
Body
100
AcDbLine
 10
44.6908
 20
20
 30
0
 11
44.6908
 21
40
 31
0
  0
LINE
  5
A91
330
A02
100
AcDbEntity
  8
Body
100
AcDbLine
 10
44.6908
 20
40
 30
0
 11
54.0445
 21
40
 31
0
  0
LINE
  5
A92
330
A02
100
AcDbEntity
  8
Body
100
AcDbLine
 10
54.0445
 20
40
 30
0
 11
54.0445
 21
0
 31
0
  0
LINE
  5
A93
330
A02
100
AcDbEntity
  8
Body
100
AcDbLine
 10
54.0445
 20
0
 30
0
 11
-54.0445
 21
0
 31
0
  0
LINE
  5
A94
330
A02
100
AcDbEntity
  8
Body
100
AcDbLine
 10
-54.0445
 20
0
 30
4
 11
-54.0445
 21
40
 31
4
  0
LINE
  5
A95
330
A02
100
AcDbEntity
  8
Body
100
AcDbLine
 10
-54.0445
 20
40
 30
4
 11
-44.6908
 21
40
 31
4
  0
LINE
  5
A96
330
A02
100
AcDbEntity
  8
Body
100
AcDbLine
 10
-44.6908
 20
40
 30
4
 11
-44.6908
 21
20
 31
4
  0
LINE
  5
A97
330
A02
100
AcDbEntity
  8
Body
100
AcDbLine
 10
-44.6908
 20
20
 30
4
 11
-40.6908
 21
20
 31
4
  0
LINE
  5
A98
330
A02
100
AcDbEntity
  8
Body
100
AcDbLine
 10
-40.6908
 20
20
 30
4
 11
-40.6908
 21
40
 31
4
  0
LINE
  5
A99
330
A02
100
AcDbEntity
  8
Body
100
AcDbLine
 10
-40.6908
 20
40
 30
4
 11
-27.3145
 21
40
 31
4
  0
LINE
  5
A9A
330
A02
100
AcDbEntity
  8
Body
100
AcDbLine
 10
-27.3145
 20
40
 30
4
 11
-27.3145
 21
20
 31
4
  0
LINE
  5
A9B
330
A02
100
AcDbEntity
  8
Body
100
AcDbLine
 10
-27.3145
 20
20
 30
4
 11
-23.4145
 21
20
 31
4
  0
LINE
  5
A9C
330
A02
100
AcDbEntity
  8
Body
100
AcDbLine
 10
-23.4145
 20
20
 30
4
 11
-23.4145
 21
40
 31
4
  0
LINE
  5
A9D
330
A02
100
AcDbEntity
  8
Body
100
AcDbLine
 10
-23.4145
 20
40
 30
4
 11
-10.0382
 21
40
 31
4
  0
LINE
  5
A9E
330
A02
100
AcDbEntity
  8
Body
100
AcDbLine
 10
-10.0382
 20
40
 30
4
 11
-10.0382
 21
20
 31
4
  0
LINE
  5
A9F
330
A02
100
AcDbEntity
  8
Body
100
AcDbLine
 10
-10.0382
 20
20
 30
4
 11
-6.23816
 21
20
 31
4
  0
LINE
  5
AA0
330
A02
100
AcDbEntity
  8
Body
100
AcDbLine
 10
-6.23816
 20
20
 30
4
 11
-6.23816
 21
40
 31
4
  0
LINE
  5
AA1
330
A02
100
AcDbEntity
  8
Body
100
AcDbLine
 10
-6.23816
 20
40
 30
4
 11
7.13816
 21
40
 31
4
  0
LINE
  5
AA2
330
A02
100
AcDbEntity
  8
Body
100
AcDbLine
 10
7.13816
 20
40
 30
4
 11
7.13816
 21
20
 31
4
  0
LINE
  5
AA3
330
A02
100
AcDbEntity
  8
Body
100
AcDbLine
 10
7.13816
 20
20
 30
4
 11
10.8382
 21
20
 31
4
  0
LINE
  5
AA4
330
A02
100
AcDbEntity
  8
Body
100
AcDbLine
 10
10.8382
 20
20
 30
4
 11
10.8382
 21
40
 31
4
  0
LINE
  5
AA5
330
A02
100
AcDbEntity
  8
Body
100
AcDbLine
 10
10.8382
 20
40
 30
4
 11
24.2145
 21
40
 31
4
  0
LINE
  5
AA6
330
A02
100
AcDbEntity
  8
Body
100
AcDbLine
 10
24.2145
 20
40
 30
4
 11
24.2145
 21
20
 31
4
  0
LINE
  5
AA7
330
A02
100
AcDbEntity
  8
Body
100
AcDbLine
 10
24.2145
 20
20
 30
4
 11
27.8145
 21
20
 31
4
  0
LINE
  5
AA8
330
A02
100
AcDbEntity
  8
Body
100
AcDbLine
 10
27.8145
 20
20
 30
4
 11
27.8145
 21
40
 31
4
  0
LINE
  5
AA9
330
A02
100
AcDbEntity
  8
Body
100
AcDbLine
 10
27.8145
 20
40
 30
4
 11
41.1908
 21
40
 31
4
  0
LINE
  5
AAA
330
A02
100
AcDbEntity
  8
Body
100
AcDbLine
 10
41.1908
 20
40
 30
4
 11
41.1908
 21
20
 31
4
  0
LINE
  5
AAB
330
A02
100
AcDbEntity
  8
Body
100
AcDbLine
 10
41.1908
 20
20
 30
4
 11
44.6908
 21
20
 31
4
  0
LINE
  5
AAC
330
A02
100
AcDbEntity
  8
Body
100
AcDbLine
 10
44.6908
 20
20
 30
4
 11
44.6908
 21
40
 31
4
  0
LINE
  5
AAD
330
A02
100
AcDbEntity
  8
Body
100
AcDbLine
 10
44.6908
 20
40
 30
4
 11
54.0445
 21
40
 31
4
  0
LINE
  5
AAE
330
A02
100
AcDbEntity
  8
Body
100
AcDbLine
 10
54.0445
 20
40
 30
4
 11
54.0445
 21
0
 31
4
  0
LINE
  5
AAF
330
A02
100
AcDbEntity
  8
Body
100
AcDbLine
 10
54.0445
 20
0
 30
4
 11
-54.0445
 21
0
 31
4
  0
LINE
  5
AB0
330
A02
100
AcDbEntity
  8
ShapeString001
100
AcDbLine
 10
-47.1036
 20
10
 30
4
 11
-47.1036
 21
10.6766
 31
4
  0
LINE
  5
AB1
330
A02
100
AcDbEntity
  8
ShapeString001
100
AcDbLine
 10
-47.1036
 20
10.6766
 30
4
 11
-48.0251
 21
10.6766
 31
4
  0
LINE
  5
AB2
330
A02
100
AcDbEntity
  8
ShapeString001
100
AcDbLine
 10
-48.0251
 20
10.6766
 30
4
 11
-48.0251
 21
10.9089
 31
4
  0
LINE
  5
AB3
330
A02
100
AcDbEntity
  8
ShapeString001
100
AcDbLine
 10
-48.0251
 20
10.9089
 30
4
 11
-47.2616
 21
13.072
 31
4
  0
LINE
  5
AB4
330
A02
100
AcDbEntity
  8
ShapeString001
100
AcDbLine
 10
-47.2616
 20
13.072
 30
4
 11
-46.8666
 21
13.072
 31
4
  0
LINE
  5
AB5
330
A02
100
AcDbEntity
  8
ShapeString001
100
AcDbLine
 10
-46.8666
 20
13.072
 30
4
 11
-46.8666
 21
10.8869
 31
4
  0
LINE
  5
AB6
330
A02
100
AcDbEntity
  8
ShapeString001
100
AcDbLine
 10
-46.8666
 20
10.8869
 30
4
 11
-46.634
 21
10.8869
 31
4
  0
LINE
  5
AB7
330
A02
100
AcDbEntity
  8
ShapeString001
100
AcDbLine
 10
-46.634
 20
10.8869
 30
4
 11
-46.634
 21
10.6766
 31
4
  0
LINE
  5
AB8
330
A02
100
AcDbEntity
  8
ShapeString001
100
AcDbLine
 10
-46.634
 20
10.6766
 30
4
 11
-46.8666
 21
10.6766
 31
4
  0
LINE
  5
AB9
330
A02
100
AcDbEntity
  8
ShapeString001
100
AcDbLine
 10
-46.8666
 20
10.6766
 30
4
 11
-46.8666
 21
10
 31
4
  0
LINE
  5
ABA
330
A02
100
AcDbEntity
  8
ShapeString001
100
AcDbLine
 10
-46.8666
 20
10
 30
4
 11
-47.1036
 21
10
 31
4
  0
LINE
  5
ABB
330
A02
100
AcDbEntity
  8
ShapeString001
100
AcDbLine
 10
-47.7839
 20
10.8869
 30
4
 11
-47.1036
 21
10.8869
 31
4
  0
LINE
  5
ABC
330
A02
100
AcDbEntity
  8
ShapeString001
100
AcDbLine
 10
-47.1036
 20
10.8869
 30
4
 11
-47.1036
 21
12.7951
 31
4
  0
LINE
  5
ABD
330
A02
100
AcDbEntity
  8
ShapeString001
100
AcDbLine
 10
-47.1036
 20
12.7951
 30
4
 11
-47.1431
 21
12.7951
 31
4
  0
LINE
  5
ABE
330
A02
100
AcDbEntity
  8
ShapeString001
100
AcDbLine
 10
-47.1431
 20
12.7951
 30
4
 11
-47.7839
 21
10.9396
 31
4
  0
LINE
  5
ABF
330
A02
100
AcDbEntity
  8
ShapeString001
100
AcDbLine
 10
-47.7839
 20
10.9396
 30
4
 11
-47.7839
 21
10.8869
 31
4
  0
LINE
  5
AC0
330
A02
100
AcDbEntity
  8
ShapeString001
100
AcDbLine
 10
-46.2551
 20
10
 30
4
 11
-46.2551
 21
10.32
 31
4
  0
LINE
  5
AC1
330
A02
100
AcDbEntity
  8
ShapeString001
100
AcDbLine
 10
-46.2551
 20
10.32
 30
4
 11
-45.9523
 21
10.32
 31
4
  0
LINE
  5
AC2
330
A02
100
AcDbEntity
  8
ShapeString001
100
AcDbLine
 10
-45.9523
 20
10.32
 30
4
 11
-45.9523
 21
10
 31
4
  0
LINE
  5
AC3
330
A02
100
AcDbEntity
  8
ShapeString001
100
AcDbLine
 10
-45.9523
 20
10
 30
4
 11
-46.2551
 21
10
 31
4
  0
LINE
  5
AC4
330
A02
100
AcDbEntity
  8
ShapeString001
100
AcDbLine
 10
-45.1184
 20
10
 30
4
 11
-45.4651
 21
10.3423
 31
4
  0
LINE
  5
AC5
330
A02
100
AcDbEntity
  8
ShapeString001
100
AcDbLine
 10
-45.4651
 20
10.3423
 30
4
 11
-45.4651
 21
12.7297
 31
4
  0
LINE
  5
AC6
330
A02
100
AcDbEntity
  8
ShapeString001
100
AcDbLine
 10
-45.4651
 20
12.7297
 30
4
 11
-45.1184
 21
13.072
 31
4
  0
LINE
  5
AC7
330
A02
100
AcDbEntity
  8
ShapeString001
100
AcDbLine
 10
-45.1184
 20
13.072
 30
4
 11
-44.526
 21
13.072
 31
4
  0
LINE
  5
AC8
330
A02
100
AcDbEntity
  8
ShapeString001
100
AcDbLine
 10
-44.526
 20
13.072
 30
4
 11
-44.1837
 21
12.7297
 31
4
  0
LINE
  5
AC9
330
A02
100
AcDbEntity
  8
ShapeString001
100
AcDbLine
 10
-44.1837
 20
12.7297
 30
4
 11
-44.1837
 21
10.3423
 31
4
  0
LINE
  5
ACA
330
A02
100
AcDbEntity
  8
ShapeString001
100
AcDbLine
 10
-44.1837
 20
10.3423
 30
4
 11
-44.526
 21
10
 31
4
  0
LINE
  5
ACB
330
A02
100
AcDbEntity
  8
ShapeString001
100
AcDbLine
 10
-44.526
 20
10
 30
4
 11
-45.1184
 21
10
 31
4
  0
LINE
  5
ACC
330
A02
100
AcDbEntity
  8
ShapeString001
100
AcDbLine
 10
-45.0044
 20
10.2103
 30
4
 11
-44.6446
 21
10.2103
 31
4
  0
LINE
  5
ACD
330
A02
100
AcDbEntity
  8
ShapeString001
100
AcDbLine
 10
-44.6446
 20
10.2103
 30
4
 11
-44.4251
 21
10.4297
 31
4
  0
LINE
  5
ACE
330
A02
100
AcDbEntity
  8
ShapeString001
100
AcDbLine
 10
-44.4251
 20
10.4297
 30
4
 11
-44.4251
 21
12.6423
 31
4
  0
LINE
  5
ACF
330
A02
100
AcDbEntity
  8
ShapeString001
100
AcDbLine
 10
-44.4251
 20
12.6423
 30
4
 11
-44.6446
 21
12.8617
 31
4
  0
LINE
  5
AD0
330
A02
100
AcDbEntity
  8
ShapeString001
100
AcDbLine
 10
-44.6446
 20
12.8617
 30
4
 11
-45.0044
 21
12.8617
 31
4
  0
LINE
  5
AD1
330
A02
100
AcDbEntity
  8
ShapeString001
100
AcDbLine
 10
-45.0044
 20
12.8617
 30
4
 11
-45.2239
 21
12.6423
 31
4
  0
LINE
  5
AD2
330
A02
100
AcDbEntity
  8
ShapeString001
100
AcDbLine
 10
-45.2239
 20
12.6423
 30
4
 11
-45.2239
 21
10.4297
 31
4
  0
LINE
  5
AD3
330
A02
100
AcDbEntity
  8
ShapeString001
100
AcDbLine
 10
-45.2239
 20
10.4297
 30
4
 11
-45.0044
 21
10.2103
 31
4
  0
LINE
  5
AD4
330
A02
100
AcDbEntity
  8
ShapeString001
100
AcDbLine
 10
-43.3264
 20
10
 30
4
 11
-43.6731
 21
10.3423
 31
4
  0
LINE
  5
AD5
330
A02
100
AcDbEntity
  8
ShapeString001
100
AcDbLine
 10
-43.6731
 20
10.3423
 30
4
 11
-43.6731
 21
12.7297
 31
4
  0
LINE
  5
AD6
330
A02
100
AcDbEntity
  8
ShapeString001
100
AcDbLine
 10
-43.6731
 20
12.7297
 30
4
 11
-43.3264
 21
13.072
 31
4
  0
LINE
  5
AD7
330
A02
100
AcDbEntity
  8
ShapeString001
100
AcDbLine
 10
-43.3264
 20
13.072
 30
4
 11
-42.734
 21
13.072
 31
4
  0
LINE
  5
AD8
330
A02
100
AcDbEntity
  8
ShapeString001
100
AcDbLine
 10
-42.734
 20
13.072
 30
4
 11
-42.3917
 21
12.7297
 31
4
  0
LINE
  5
AD9
330
A02
100
AcDbEntity
  8
ShapeString001
100
AcDbLine
 10
-42.3917
 20
12.7297
 30
4
 11
-42.3917
 21
10.3423
 31
4
  0
LINE
  5
ADA
330
A02
100
AcDbEntity
  8
ShapeString001
100
AcDbLine
 10
-42.3917
 20
10.3423
 30
4
 11
-42.734
 21
10
 31
4
  0
LINE
  5
ADB
330
A02
100
AcDbEntity
  8
ShapeString001
100
AcDbLine
 10
-42.734
 20
10
 30
4
 11
-43.3264
 21
10
 31
4
  0
LINE
  5
ADC
330
A02
100
AcDbEntity
  8
ShapeString001
100
AcDbLine
 10
-43.2124
 20
10.2103
 30
4
 11
-42.8526
 21
10.2103
 31
4
  0
LINE
  5
ADD
330
A02
100
AcDbEntity
  8
ShapeString001
100
AcDbLine
 10
-42.8526
 20
10.2103
 30
4
 11
-42.6331
 21
10.4297
 31
4
  0
LINE
  5
ADE
330
A02
100
AcDbEntity
  8
ShapeString001
100
AcDbLine
 10
-42.6331
 20
10.4297
 30
4
 11
-42.6331
 21
12.6423
 31
4
  0
LINE
  5
ADF
330
A02
100
AcDbEntity
  8
ShapeString001
100
AcDbLine
 10
-42.6331
 20
12.6423
 30
4
 11
-42.8526
 21
12.8617
 31
4
  0
LINE
  5
AE0
330
A02
100
AcDbEntity
  8
ShapeString001
100
AcDbLine
 10
-42.8526
 20
12.8617
 30
4
 11
-43.2124
 21
12.8617
 31
4
  0
LINE
  5
AE1
330
A02
100
AcDbEntity
  8
ShapeString001
100
AcDbLine
 10
-43.2124
 20
12.8617
 30
4
 11
-43.4319
 21
12.6423
 31
4
  0
LINE
  5
AE2
330
A02
100
AcDbEntity
  8
ShapeString001
100
AcDbLine
 10
-43.4319
 20
12.6423
 30
4
 11
-43.4319
 21
10.4297
 31
4
  0
LINE
  5
AE3
330
A02
100
AcDbEntity
  8
ShapeString001
100
AcDbLine
 10
-43.4319
 20
10.4297
 30
4
 11
-43.2124
 21
10.2103
 31
4
  0
LINE
  5
AE4
330
A02
100
AcDbEntity
  8
ShapeString001
100
AcDbLine
 10
-41.925
 20
10
 30
4
 11
-41.925
 21
12.2583
 31
4
  0
LINE
  5
AE5
330
A02
100
AcDbEntity
  8
ShapeString001
100
AcDbLine
 10
-41.925
 20
12.2583
 30
4
 11
-41.7539
 21
12.2583
 31
4
  0
LINE
  5
AE6
330
A02
100
AcDbEntity
  8
ShapeString001
100
AcDbLine
 10
-41.7539
 20
12.2583
 30
4
 11
-41.7539
 21
12.1486
 31
4
  0
LINE
  5
AE7
330
A02
100
AcDbEntity
  8
ShapeString001
100
AcDbLine
 10
-41.7539
 20
12.1486
 30
4
 11
-41.7013
 21
12.1486
 31
4
  0
LINE
  5
AE8
330
A02
100
AcDbEntity
  8
ShapeString001
100
AcDbLine
 10
-41.7013
 20
12.1486
 30
4
 11
-41.5871
 21
12.2583
 31
4
  0
LINE
  5
AE9
330
A02
100
AcDbEntity
  8
ShapeString001
100
AcDbLine
 10
-41.5871
 20
12.2583
 30
4
 11
-41.1483
 21
12.2583
 31
4
  0
LINE
  5
AEA
330
A02
100
AcDbEntity
  8
ShapeString001
100
AcDbLine
 10
-41.1483
 20
12.2583
 30
4
 11
-40.9947
 21
12.1047
 31
4
  0
LINE
  5
AEB
330
A02
100
AcDbEntity
  8
ShapeString001
100
AcDbLine
 10
-40.9947
 20
12.1047
 30
4
 11
-40.942
 21
12.1047
 31
4
  0
LINE
  5
AEC
330
A02
100
AcDbEntity
  8
ShapeString001
100
AcDbLine
 10
-40.942
 20
12.1047
 30
4
 11
-40.7753
 21
12.2583
 31
4
  0
LINE
  5
AED
330
A02
100
AcDbEntity
  8
ShapeString001
100
AcDbLine
 10
-40.7753
 20
12.2583
 30
4
 11
-40.3364
 21
12.2583
 31
4
  0
LINE
  5
AEE
330
A02
100
AcDbEntity
  8
ShapeString001
100
AcDbLine
 10
-40.3364
 20
12.2583
 30
4
 11
-40.0643
 21
11.9864
 31
4
  0
LINE
  5
AEF
330
A02
100
AcDbEntity
  8
ShapeString001
100
AcDbLine
 10
-40.0643
 20
11.9864
 30
4
 11
-40.0643
 21
10
 31
4
  0
LINE
  5
AF0
330
A02
100
AcDbEntity
  8
ShapeString001
100
AcDbLine
 10
-40.0643
 20
10
 30
4
 11
-40.3013
 21
10
 31
4
  0
LINE
  5
AF1
330
A02
100
AcDbEntity
  8
ShapeString001
100
AcDbLine
 10
-40.3013
 20
10
 30
4
 11
-40.3013
 21
11.8989
 31
4
  0
LINE
  5
AF2
330
A02
100
AcDbEntity
  8
ShapeString001
100
AcDbLine
 10
-40.3013
 20
11.8989
 30
4
 11
-40.4461
 21
12.048
 31
4
  0
LINE
  5
AF3
330
A02
100
AcDbEntity
  8
ShapeString001
100
AcDbLine
 10
-40.4461
 20
12.048
 30
4
 11
-40.7181
 21
12.048
 31
4
  0
LINE
  5
AF4
330
A02
100
AcDbEntity
  8
ShapeString001
100
AcDbLine
 10
-40.7181
 20
12.048
 30
4
 11
-40.8761
 21
11.8989
 31
4
  0
LINE
  5
AF5
330
A02
100
AcDbEntity
  8
ShapeString001
100
AcDbLine
 10
-40.8761
 20
11.8989
 30
4
 11
-40.8761
 21
10
 31
4
  0
LINE
  5
AF6
330
A02
100
AcDbEntity
  8
ShapeString001
100
AcDbLine
 10
-40.8761
 20
10
 30
4
 11
-41.1131
 21
10
 31
4
  0
LINE
  5
AF7
330
A02
100
AcDbEntity
  8
ShapeString001
100
AcDbLine
 10
-41.1131
 20
10
 30
4
 11
-41.1131
 21
11.8989
 31
4
  0
LINE
  5
AF8
330
A02
100
AcDbEntity
  8
ShapeString001
100
AcDbLine
 10
-41.1131
 20
11.8989
 30
4
 11
-41.258
 21
12.048
 31
4
  0
LINE
  5
AF9
330
A02
100
AcDbEntity
  8
ShapeString001
100
AcDbLine
 10
-41.258
 20
12.048
 30
4
 11
-41.5301
 21
12.048
 31
4
  0
LINE
  5
AFA
330
A02
100
AcDbEntity
  8
ShapeString001
100
AcDbLine
 10
-41.5301
 20
12.048
 30
4
 11
-41.6881
 21
11.8989
 31
4
  0
LINE
  5
AFB
330
A02
100
AcDbEntity
  8
ShapeString001
100
AcDbLine
 10
-41.6881
 20
11.8989
 30
4
 11
-41.6881
 21
10
 31
4
  0
LINE
  5
AFC
330
A02
100
AcDbEntity
  8
ShapeString001
100
AcDbLine
 10
-41.6881
 20
10
 30
4
 11
-41.925
 21
10
 31
4
  0
LINE
  5
AFD
330
A02
100
AcDbEntity
  8
ShapeString001
100
AcDbLine
 10
-39.6667
 20
10
 30
4
 11
-39.6667
 21
12.2583
 31
4
  0
LINE
  5
AFE
330
A02
100
AcDbEntity
  8
ShapeString001
100
AcDbLine
 10
-39.6667
 20
12.2583
 30
4
 11
-39.4956
 21
12.2583
 31
4
  0
LINE
  5
AFF
330
A02
100
AcDbEntity
  8
ShapeString001
100
AcDbLine
 10
-39.4956
 20
12.2583
 30
4
 11
-39.4956
 21
12.1486
 31
4
  0
LINE
  5
B00
330
A02
100
AcDbEntity
  8
ShapeString001
100
AcDbLine
 10
-39.4956
 20
12.1486
 30
4
 11
-39.443
 21
12.1486
 31
4
  0
LINE
  5
B01
330
A02
100
AcDbEntity
  8
ShapeString001
100
AcDbLine
 10
-39.443
 20
12.1486
 30
4
 11
-39.3289
 21
12.2583
 31
4
  0
LINE
  5
B02
330
A02
100
AcDbEntity
  8
ShapeString001
100
AcDbLine
 10
-39.3289
 20
12.2583
 30
4
 11
-38.89
 21
12.2583
 31
4
  0
LINE
  5
B03
330
A02
100
AcDbEntity
  8
ShapeString001
100
AcDbLine
 10
-38.89
 20
12.2583
 30
4
 11
-38.7364
 21
12.1047
 31
4
  0
LINE
  5
B04
330
A02
100
AcDbEntity
  8
ShapeString001
100
AcDbLine
 10
-38.7364
 20
12.1047
 30
4
 11
-38.6837
 21
12.1047
 31
4
  0
LINE
  5
B05
330
A02
100
AcDbEntity
  8
ShapeString001
100
AcDbLine
 10
-38.6837
 20
12.1047
 30
4
 11
-38.517
 21
12.2583
 31
4
  0
LINE
  5
B06
330
A02
100
AcDbEntity
  8
ShapeString001
100
AcDbLine
 10
-38.517
 20
12.2583
 30
4
 11
-38.0781
 21
12.2583
 31
4
  0
LINE
  5
B07
330
A02
100
AcDbEntity
  8
ShapeString001
100
AcDbLine
 10
-38.0781
 20
12.2583
 30
4
 11
-37.806
 21
11.9864
 31
4
  0
LINE
  5
B08
330
A02
100
AcDbEntity
  8
ShapeString001
100
AcDbLine
 10
-37.806
 20
11.9864
 30
4
 11
-37.806
 21
10
 31
4
  0
LINE
  5
B09
330
A02
100
AcDbEntity
  8
ShapeString001
100
AcDbLine
 10
-37.806
 20
10
 30
4
 11
-38.043
 21
10
 31
4
  0
LINE
  5
B0A
330
A02
100
AcDbEntity
  8
ShapeString001
100
AcDbLine
 10
-38.043
 20
10
 30
4
 11
-38.043
 21
11.8989
 31
4
  0
LINE
  5
B0B
330
A02
100
AcDbEntity
  8
ShapeString001
100
AcDbLine
 10
-38.043
 20
11.8989
 30
4
 11
-38.1879
 21
12.048
 31
4
  0
LINE
  5
B0C
330
A02
100
AcDbEntity
  8
ShapeString001
100
AcDbLine
 10
-38.1879
 20
12.048
 30
4
 11
-38.4599
 21
12.048
 31
4
  0
LINE
  5
B0D
330
A02
100
AcDbEntity
  8
ShapeString001
100
AcDbLine
 10
-38.4599
 20
12.048
 30
4
 11
-38.6179
 21
11.8989
 31
4
  0
LINE
  5
B0E
330
A02
100
AcDbEntity
  8
ShapeString001
100
AcDbLine
 10
-38.6179
 20
11.8989
 30
4
 11
-38.6179
 21
10
 31
4
  0
LINE
  5
B0F
330
A02
100
AcDbEntity
  8
ShapeString001
100
AcDbLine
 10
-38.6179
 20
10
 30
4
 11
-38.8549
 21
10
 31
4
  0
LINE
  5
B10
330
A02
100
AcDbEntity
  8
ShapeString001
100
AcDbLine
 10
-38.8549
 20
10
 30
4
 11
-38.8549
 21
11.8989
 31
4
  0
LINE
  5
B11
330
A02
100
AcDbEntity
  8
ShapeString001
100
AcDbLine
 10
-38.8549
 20
11.8989
 30
4
 11
-38.9997
 21
12.048
 31
4
  0
LINE
  5
B12
330
A02
100
AcDbEntity
  8
ShapeString001
100
AcDbLine
 10
-38.9997
 20
12.048
 30
4
 11
-39.2719
 21
12.048
 31
4
  0
LINE
  5
B13
330
A02
100
AcDbEntity
  8
ShapeString001
100
AcDbLine
 10
-39.2719
 20
12.048
 30
4
 11
-39.4299
 21
11.8989
 31
4
  0
LINE
  5
B14
330
A02
100
AcDbEntity
  8
ShapeString001
100
AcDbLine
 10
-39.4299
 20
11.8989
 30
4
 11
-39.4299
 21
10
 31
4
  0
LINE
  5
B15
330
A02
100
AcDbEntity
  8
ShapeString001
100
AcDbLine
 10
-39.4299
 20
10
 30
4
 11
-39.6667
 21
10
 31
4
  0
LINE
  5
B16
330
A02
100
AcDbEntity
  8
ShapeString002
100
AcDbLine
 10
-31.069
 20
10
 30
4
 11
-31.069
 21
10.2103
 31
4
  0
LINE
  5
B17
330
A02
100
AcDbEntity
  8
ShapeString002
100
AcDbLine
 10
-31.069
 20
10.2103
 30
4
 11
-30.3669
 21
10.2103
 31
4
  0
LINE
  5
B18
330
A02
100
AcDbEntity
  8
ShapeString002
100
AcDbLine
 10
-30.3669
 20
10.2103
 30
4
 11
-30.1474
 21
10.4294
 31
4
  0
LINE
  5
B19
330
A02
100
AcDbEntity
  8
ShapeString002
100
AcDbLine
 10
-30.1474
 20
10.4294
 30
4
 11
-30.1474
 21
11.262
 31
4
  0
LINE
  5
B1A
330
A02
100
AcDbEntity
  8
ShapeString002
100
AcDbLine
 10
-30.1474
 20
11.262
 30
4
 11
-30.3669
 21
11.4811
 31
4
  0
LINE
  5
B1B
330
A02
100
AcDbEntity
  8
ShapeString002
100
AcDbLine
 10
-30.3669
 20
11.4811
 30
4
 11
-30.8101
 21
11.4811
 31
4
  0
LINE
  5
B1C
330
A02
100
AcDbEntity
  8
ShapeString002
100
AcDbLine
 10
-30.8101
 20
11.4811
 30
4
 11
-30.8101
 21
11.7006
 31
4
  0
LINE
  5
B1D
330
A02
100
AcDbEntity
  8
ShapeString002
100
AcDbLine
 10
-30.8101
 20
11.7006
 30
4
 11
-30.3889
 21
11.7006
 31
4
  0
LINE
  5
B1E
330
A02
100
AcDbEntity
  8
ShapeString002
100
AcDbLine
 10
-30.3889
 20
11.7006
 30
4
 11
-30.1913
 21
11.8977
 31
4
  0
LINE
  5
B1F
330
A02
100
AcDbEntity
  8
ShapeString002
100
AcDbLine
 10
-30.1913
 20
11.8977
 30
4
 11
-30.1913
 21
12.6646
 31
4
  0
LINE
  5
B20
330
A02
100
AcDbEntity
  8
ShapeString002
100
AcDbLine
 10
-30.1913
 20
12.6646
 30
4
 11
-30.3889
 21
12.8617
 31
4
  0
LINE
  5
B21
330
A02
100
AcDbEntity
  8
ShapeString002
100
AcDbLine
 10
-30.3889
 20
12.8617
 30
4
 11
-31.0471
 21
12.8617
 31
4
  0
LINE
  5
B22
330
A02
100
AcDbEntity
  8
ShapeString002
100
AcDbLine
 10
-31.0471
 20
12.8617
 30
4
 11
-31.0471
 21
13.072
 31
4
  0
LINE
  5
B23
330
A02
100
AcDbEntity
  8
ShapeString002
100
AcDbLine
 10
-31.0471
 20
13.072
 30
4
 11
-30.2703
 21
13.072
 31
4
  0
LINE
  5
B24
330
A02
100
AcDbEntity
  8
ShapeString002
100
AcDbLine
 10
-30.2703
 20
13.072
 30
4
 11
-29.95
 21
12.7517
 31
4
  0
LINE
  5
B25
330
A02
100
AcDbEntity
  8
ShapeString002
100
AcDbLine
 10
-29.95
 20
12.7517
 30
4
 11
-29.95
 21
11.8304
 31
4
  0
LINE
  5
B26
330
A02
100
AcDbEntity
  8
ShapeString002
100
AcDbLine
 10
-29.95
 20
11.8304
 30
4
 11
-30.165
 21
11.611
 31
4
  0
LINE
  5
B27
330
A02
100
AcDbEntity
  8
ShapeString002
100
AcDbLine
 10
-30.165
 20
11.611
 30
4
 11
-29.9061
 21
11.3476
 31
4
  0
LINE
  5
B28
330
A02
100
AcDbEntity
  8
ShapeString002
100
AcDbLine
 10
-29.9061
 20
11.3476
 30
4
 11
-29.9061
 21
10.3424
 31
4
  0
LINE
  5
B29
330
A02
100
AcDbEntity
  8
ShapeString002
100
AcDbLine
 10
-29.9061
 20
10.3424
 30
4
 11
-30.2484
 21
10
 31
4
  0
LINE
  5
B2A
330
A02
100
AcDbEntity
  8
ShapeString002
100
AcDbLine
 10
-30.2484
 20
10
 30
4
 11
-31.069
 21
10
 31
4
  0
LINE
  5
B2B
330
A02
100
AcDbEntity
  8
ShapeString002
100
AcDbLine
 10
-29.4471
 20
10
 30
4
 11
-29.4471
 21
10.32
 31
4
  0
LINE
  5
B2C
330
A02
100
AcDbEntity
  8
ShapeString002
100
AcDbLine
 10
-29.4471
 20
10.32
 30
4
 11
-29.1443
 21
10.32
 31
4
  0
LINE
  5
B2D
330
A02
100
AcDbEntity
  8
ShapeString002
100
AcDbLine
 10
-29.1443
 20
10.32
 30
4
 11
-29.1443
 21
10
 31
4
  0
LINE
  5
B2E
330
A02
100
AcDbEntity
  8
ShapeString002
100
AcDbLine
 10
-29.1443
 20
10
 30
4
 11
-29.4471
 21
10
 31
4
  0
LINE
  5
B2F
330
A02
100
AcDbEntity
  8
ShapeString002
100
AcDbLine
 10
-28.6001
 20
10
 30
4
 11
-28.6001
 21
10.2103
 31
4
  0
LINE
  5
B30
330
A02
100
AcDbEntity
  8
ShapeString002
100
AcDbLine
 10
-28.6001
 20
10.2103
 30
4
 11
-27.8936
 21
10.2103
 31
4
  0
LINE
  5
B31
330
A02
100
AcDbEntity
  8
ShapeString002
100
AcDbLine
 10
-27.8936
 20
10.2103
 30
4
 11
-27.6917
 21
10.4169
 31
4
  0
LINE
  5
B32
330
A02
100
AcDbEntity
  8
ShapeString002
100
AcDbLine
 10
-27.6917
 20
10.4169
 30
4
 11
-27.6917
 21
11.2069
 31
4
  0
LINE
  5
B33
330
A02
100
AcDbEntity
  8
ShapeString002
100
AcDbLine
 10
-27.6917
 20
11.2069
 30
4
 11
-28.3851
 21
11.2069
 31
4
  0
LINE
  5
B34
330
A02
100
AcDbEntity
  8
ShapeString002
100
AcDbLine
 10
-28.3851
 20
11.2069
 30
4
 11
-28.6836
 21
11.5053
 31
4
  0
LINE
  5
B35
330
A02
100
AcDbEntity
  8
ShapeString002
100
AcDbLine
 10
-28.6836
 20
11.5053
 30
4
 11
-28.6836
 21
12.7736
 31
4
  0
LINE
  5
B36
330
A02
100
AcDbEntity
  8
ShapeString002
100
AcDbLine
 10
-28.6836
 20
12.7736
 30
4
 11
-28.3851
 21
13.072
 31
4
  0
LINE
  5
B37
330
A02
100
AcDbEntity
  8
ShapeString002
100
AcDbLine
 10
-28.3851
 20
13.072
 30
4
 11
-27.7487
 21
13.072
 31
4
  0
LINE
  5
B38
330
A02
100
AcDbEntity
  8
ShapeString002
100
AcDbLine
 10
-27.7487
 20
13.072
 30
4
 11
-27.4503
 21
12.7736
 31
4
  0
LINE
  5
B39
330
A02
100
AcDbEntity
  8
ShapeString002
100
AcDbLine
 10
-27.4503
 20
12.7736
 30
4
 11
-27.4503
 21
10.3291
 31
4
  0
LINE
  5
B3A
330
A02
100
AcDbEntity
  8
ShapeString002
100
AcDbLine
 10
-27.4503
 20
10.3291
 30
4
 11
-27.7794
 21
10
 31
4
  0
LINE
  5
B3B
330
A02
100
AcDbEntity
  8
ShapeString002
100
AcDbLine
 10
-27.7794
 20
10
 30
4
 11
-28.6001
 21
10
 31
4
  0
LINE
  5
B3C
330
A02
100
AcDbEntity
  8
ShapeString002
100
AcDbLine
 10
-28.2666
 20
11.4171
 30
4
 11
-27.6917
 21
11.4171
 31
4
  0
LINE
  5
B3D
330
A02
100
AcDbEntity
  8
ShapeString002
100
AcDbLine
 10
-27.6917
 20
11.4171
 30
4
 11
-27.6917
 21
12.6859
 31
4
  0
LINE
  5
B3E
330
A02
100
AcDbEntity
  8
ShapeString002
100
AcDbLine
 10
-27.6917
 20
12.6859
 30
4
 11
-27.8673
 21
12.8617
 31
4
  0
LINE
  5
B3F
330
A02
100
AcDbEntity
  8
ShapeString002
100
AcDbLine
 10
-27.8673
 20
12.8617
 30
4
 11
-28.2666
 21
12.8617
 31
4
  0
LINE
  5
B40
330
A02
100
AcDbEntity
  8
ShapeString002
100
AcDbLine
 10
-28.2666
 20
12.8617
 30
4
 11
-28.4421
 21
12.6861
 31
4
  0
LINE
  5
B41
330
A02
100
AcDbEntity
  8
ShapeString002
100
AcDbLine
 10
-28.4421
 20
12.6861
 30
4
 11
-28.4421
 21
11.5927
 31
4
  0
LINE
  5
B42
330
A02
100
AcDbEntity
  8
ShapeString002
100
AcDbLine
 10
-28.4421
 20
11.5927
 30
4
 11
-28.2666
 21
11.4171
 31
4
  0
LINE
  5
B43
330
A02
100
AcDbEntity
  8
ShapeString002
100
AcDbLine
 10
-26.5916
 20
10
 30
4
 11
-26.9383
 21
10.3423
 31
4
  0
LINE
  5
B44
330
A02
100
AcDbEntity
  8
ShapeString002
100
AcDbLine
 10
-26.9383
 20
10.3423
 30
4
 11
-26.9383
 21
12.7297
 31
4
  0
LINE
  5
B45
330
A02
100
AcDbEntity
  8
ShapeString002
100
AcDbLine
 10
-26.9383
 20
12.7297
 30
4
 11
-26.5916
 21
13.072
 31
4
  0
LINE
  5
B46
330
A02
100
AcDbEntity
  8
ShapeString002
100
AcDbLine
 10
-26.5916
 20
13.072
 30
4
 11
-25.9991
 21
13.072
 31
4
  0
LINE
  5
B47
330
A02
100
AcDbEntity
  8
ShapeString002
100
AcDbLine
 10
-25.9991
 20
13.072
 30
4
 11
-25.6569
 21
12.7297
 31
4
  0
LINE
  5
B48
330
A02
100
AcDbEntity
  8
ShapeString002
100
AcDbLine
 10
-25.6569
 20
12.7297
 30
4
 11
-25.6569
 21
10.3423
 31
4
  0
LINE
  5
B49
330
A02
100
AcDbEntity
  8
ShapeString002
100
AcDbLine
 10
-25.6569
 20
10.3423
 30
4
 11
-25.9991
 21
10
 31
4
  0
LINE
  5
B4A
330
A02
100
AcDbEntity
  8
ShapeString002
100
AcDbLine
 10
-25.9991
 20
10
 30
4
 11
-26.5916
 21
10
 31
4
  0
LINE
  5
B4B
330
A02
100
AcDbEntity
  8
ShapeString002
100
AcDbLine
 10
-26.4776
 20
10.2103
 30
4
 11
-26.1177
 21
10.2103
 31
4
  0
LINE
  5
B4C
330
A02
100
AcDbEntity
  8
ShapeString002
100
AcDbLine
 10
-26.1177
 20
10.2103
 30
4
 11
-25.8983
 21
10.4297
 31
4
  0
LINE
  5
B4D
330
A02
100
AcDbEntity
  8
ShapeString002
100
AcDbLine
 10
-25.8983
 20
10.4297
 30
4
 11
-25.8983
 21
12.6423
 31
4
  0
LINE
  5
B4E
330
A02
100
AcDbEntity
  8
ShapeString002
100
AcDbLine
 10
-25.8983
 20
12.6423
 30
4
 11
-26.1177
 21
12.8617
 31
4
  0
LINE
  5
B4F
330
A02
100
AcDbEntity
  8
ShapeString002
100
AcDbLine
 10
-26.1177
 20
12.8617
 30
4
 11
-26.4776
 21
12.8617
 31
4
  0
LINE
  5
B50
330
A02
100
AcDbEntity
  8
ShapeString002
100
AcDbLine
 10
-26.4776
 20
12.8617
 30
4
 11
-26.697
 21
12.6423
 31
4
  0
LINE
  5
B51
330
A02
100
AcDbEntity
  8
ShapeString002
100
AcDbLine
 10
-26.697
 20
12.6423
 30
4
 11
-26.697
 21
10.4297
 31
4
  0
LINE
  5
B52
330
A02
100
AcDbEntity
  8
ShapeString002
100
AcDbLine
 10
-26.697
 20
10.4297
 30
4
 11
-26.4776
 21
10.2103
 31
4
  0
LINE
  5
B53
330
A02
100
AcDbEntity
  8
ShapeString002
100
AcDbLine
 10
-25.1901
 20
10
 30
4
 11
-25.1901
 21
12.2583
 31
4
  0
LINE
  5
B54
330
A02
100
AcDbEntity
  8
ShapeString002
100
AcDbLine
 10
-25.1901
 20
12.2583
 30
4
 11
-25.019
 21
12.2583
 31
4
  0
LINE
  5
B55
330
A02
100
AcDbEntity
  8
ShapeString002
100
AcDbLine
 10
-25.019
 20
12.2583
 30
4
 11
-25.019
 21
12.1486
 31
4
  0
LINE
  5
B56
330
A02
100
AcDbEntity
  8
ShapeString002
100
AcDbLine
 10
-25.019
 20
12.1486
 30
4
 11
-24.9664
 21
12.1486
 31
4
  0
LINE
  5
B57
330
A02
100
AcDbEntity
  8
ShapeString002
100
AcDbLine
 10
-24.9664
 20
12.1486
 30
4
 11
-24.8523
 21
12.2583
 31
4
  0
LINE
  5
B58
330
A02
100
AcDbEntity
  8
ShapeString002
100
AcDbLine
 10
-24.8523
 20
12.2583
 30
4
 11
-24.4134
 21
12.2583
 31
4
  0
LINE
  5
B59
330
A02
100
AcDbEntity
  8
ShapeString002
100
AcDbLine
 10
-24.4134
 20
12.2583
 30
4
 11
-24.2599
 21
12.1047
 31
4
  0
LINE
  5
B5A
330
A02
100
AcDbEntity
  8
ShapeString002
100
AcDbLine
 10
-24.2599
 20
12.1047
 30
4
 11
-24.2071
 21
12.1047
 31
4
  0
LINE
  5
B5B
330
A02
100
AcDbEntity
  8
ShapeString002
100
AcDbLine
 10
-24.2071
 20
12.1047
 30
4
 11
-24.0404
 21
12.2583
 31
4
  0
LINE
  5
B5C
330
A02
100
AcDbEntity
  8
ShapeString002
100
AcDbLine
 10
-24.0404
 20
12.2583
 30
4
 11
-23.6016
 21
12.2583
 31
4
  0
LINE
  5
B5D
330
A02
100
AcDbEntity
  8
ShapeString002
100
AcDbLine
 10
-23.6016
 20
12.2583
 30
4
 11
-23.3294
 21
11.9864
 31
4
  0
LINE
  5
B5E
330
A02
100
AcDbEntity
  8
ShapeString002
100
AcDbLine
 10
-23.3294
 20
11.9864
 30
4
 11
-23.3294
 21
10
 31
4
  0
LINE
  5
B5F
330
A02
100
AcDbEntity
  8
ShapeString002
100
AcDbLine
 10
-23.3294
 20
10
 30
4
 11
-23.5664
 21
10
 31
4
  0
LINE
  5
B60
330
A02
100
AcDbEntity
  8
ShapeString002
100
AcDbLine
 10
-23.5664
 20
10
 30
4
 11
-23.5664
 21
11.8989
 31
4
  0
LINE
  5
B61
330
A02
100
AcDbEntity
  8
ShapeString002
100
AcDbLine
 10
-23.5664
 20
11.8989
 30
4
 11
-23.7113
 21
12.048
 31
4
  0
LINE
  5
B62
330
A02
100
AcDbEntity
  8
ShapeString002
100
AcDbLine
 10
-23.7113
 20
12.048
 30
4
 11
-23.9833
 21
12.048
 31
4
  0
LINE
  5
B63
330
A02
100
AcDbEntity
  8
ShapeString002
100
AcDbLine
 10
-23.9833
 20
12.048
 30
4
 11
-24.1413
 21
11.8989
 31
4
  0
LINE
  5
B64
330
A02
100
AcDbEntity
  8
ShapeString002
100
AcDbLine
 10
-24.1413
 20
11.8989
 30
4
 11
-24.1413
 21
10
 31
4
  0
LINE
  5
B65
330
A02
100
AcDbEntity
  8
ShapeString002
100
AcDbLine
 10
-24.1413
 20
10
 30
4
 11
-24.3783
 21
10
 31
4
  0
LINE
  5
B66
330
A02
100
AcDbEntity
  8
ShapeString002
100
AcDbLine
 10
-24.3783
 20
10
 30
4
 11
-24.3783
 21
11.8989
 31
4
  0
LINE
  5
B67
330
A02
100
AcDbEntity
  8
ShapeString002
100
AcDbLine
 10
-24.3783
 20
11.8989
 30
4
 11
-24.5231
 21
12.048
 31
4
  0
LINE
  5
B68
330
A02
100
AcDbEntity
  8
ShapeString002
100
AcDbLine
 10
-24.5231
 20
12.048
 30
4
 11
-24.7953
 21
12.048
 31
4
  0
LINE
  5
B69
330
A02
100
AcDbEntity
  8
ShapeString002
100
AcDbLine
 10
-24.7953
 20
12.048
 30
4
 11
-24.9533
 21
11.8989
 31
4
  0
LINE
  5
B6A
330
A02
100
AcDbEntity
  8
ShapeString002
100
AcDbLine
 10
-24.9533
 20
11.8989
 30
4
 11
-24.9533
 21
10
 31
4
  0
LINE
  5
B6B
330
A02
100
AcDbEntity
  8
ShapeString002
100
AcDbLine
 10
-24.9533
 20
10
 30
4
 11
-25.1901
 21
10
 31
4
  0
LINE
  5
B6C
330
A02
100
AcDbEntity
  8
ShapeString002
100
AcDbLine
 10
-22.9319
 20
10
 30
4
 11
-22.9319
 21
12.2583
 31
4
  0
LINE
  5
B6D
330
A02
100
AcDbEntity
  8
ShapeString002
100
AcDbLine
 10
-22.9319
 20
12.2583
 30
4
 11
-22.7607
 21
12.2583
 31
4
  0
LINE
  5
B6E
330
A02
100
AcDbEntity
  8
ShapeString002
100
AcDbLine
 10
-22.7607
 20
12.2583
 30
4
 11
-22.7607
 21
12.1486
 31
4
  0
LINE
  5
B6F
330
A02
100
AcDbEntity
  8
ShapeString002
100
AcDbLine
 10
-22.7607
 20
12.1486
 30
4
 11
-22.7081
 21
12.1486
 31
4
  0
LINE
  5
B70
330
A02
100
AcDbEntity
  8
ShapeString002
100
AcDbLine
 10
-22.7081
 20
12.1486
 30
4
 11
-22.594
 21
12.2583
 31
4
  0
LINE
  5
B71
330
A02
100
AcDbEntity
  8
ShapeString002
100
AcDbLine
 10
-22.594
 20
12.2583
 30
4
 11
-22.1551
 21
12.2583
 31
4
  0
LINE
  5
B72
330
A02
100
AcDbEntity
  8
ShapeString002
100
AcDbLine
 10
-22.1551
 20
12.2583
 30
4
 11
-22.0016
 21
12.1047
 31
4
  0
LINE
  5
B73
330
A02
100
AcDbEntity
  8
ShapeString002
100
AcDbLine
 10
-22.0016
 20
12.1047
 30
4
 11
-21.9489
 21
12.1047
 31
4
  0
LINE
  5
B74
330
A02
100
AcDbEntity
  8
ShapeString002
100
AcDbLine
 10
-21.9489
 20
12.1047
 30
4
 11
-21.7821
 21
12.2583
 31
4
  0
LINE
  5
B75
330
A02
100
AcDbEntity
  8
ShapeString002
100
AcDbLine
 10
-21.7821
 20
12.2583
 30
4
 11
-21.3433
 21
12.2583
 31
4
  0
LINE
  5
B76
330
A02
100
AcDbEntity
  8
ShapeString002
100
AcDbLine
 10
-21.3433
 20
12.2583
 30
4
 11
-21.0711
 21
11.9864
 31
4
  0
LINE
  5
B77
330
A02
100
AcDbEntity
  8
ShapeString002
100
AcDbLine
 10
-21.0711
 20
11.9864
 30
4
 11
-21.0711
 21
10
 31
4
  0
LINE
  5
B78
330
A02
100
AcDbEntity
  8
ShapeString002
100
AcDbLine
 10
-21.0711
 20
10
 30
4
 11
-21.3081
 21
10
 31
4
  0
LINE
  5
B79
330
A02
100
AcDbEntity
  8
ShapeString002
100
AcDbLine
 10
-21.3081
 20
10
 30
4
 11
-21.3081
 21
11.8989
 31
4
  0
LINE
  5
B7A
330
A02
100
AcDbEntity
  8
ShapeString002
100
AcDbLine
 10
-21.3081
 20
11.8989
 30
4
 11
-21.453
 21
12.048
 31
4
  0
LINE
  5
B7B
330
A02
100
AcDbEntity
  8
ShapeString002
100
AcDbLine
 10
-21.453
 20
12.048
 30
4
 11
-21.725
 21
12.048
 31
4
  0
LINE
  5
B7C
330
A02
100
AcDbEntity
  8
ShapeString002
100
AcDbLine
 10
-21.725
 20
12.048
 30
4
 11
-21.883
 21
11.8989
 31
4
  0
LINE
  5
B7D
330
A02
100
AcDbEntity
  8
ShapeString002
100
AcDbLine
 10
-21.883
 20
11.8989
 30
4
 11
-21.883
 21
10
 31
4
  0
LINE
  5
B7E
330
A02
100
AcDbEntity
  8
ShapeString002
100
AcDbLine
 10
-21.883
 20
10
 30
4
 11
-22.12
 21
10
 31
4
  0
LINE
  5
B7F
330
A02
100
AcDbEntity
  8
ShapeString002
100
AcDbLine
 10
-22.12
 20
10
 30
4
 11
-22.12
 21
11.8989
 31
4
  0
LINE
  5
B80
330
A02
100
AcDbEntity
  8
ShapeString002
100
AcDbLine
 10
-22.12
 20
11.8989
 30
4
 11
-22.2649
 21
12.048
 31
4
  0
LINE
  5
B81
330
A02
100
AcDbEntity
  8
ShapeString002
100
AcDbLine
 10
-22.2649
 20
12.048
 30
4
 11
-22.537
 21
12.048
 31
4
  0
LINE
  5
B82
330
A02
100
AcDbEntity
  8
ShapeString002
100
AcDbLine
 10
-22.537
 20
12.048
 30
4
 11
-22.695
 21
11.8989
 31
4
  0
LINE
  5
B83
330
A02
100
AcDbEntity
  8
ShapeString002
100
AcDbLine
 10
-22.695
 20
11.8989
 30
4
 11
-22.695
 21
10
 31
4
  0
LINE
  5
B84
330
A02
100
AcDbEntity
  8
ShapeString002
100
AcDbLine
 10
-22.695
 20
10
 30
4
 11
-22.9319
 21
10
 31
4
  0
LINE
  5
B85
330
A02
100
AcDbEntity
  8
ShapeString003
100
AcDbLine
 10
-13.069
 20
10
 30
4
 11
-13.069
 21
10.2103
 31
4
  0
LINE
  5
B86
330
A02
100
AcDbEntity
  8
ShapeString003
100
AcDbLine
 10
-13.069
 20
10.2103
 30
4
 11
-12.3669
 21
10.2103
 31
4
  0
LINE
  5
B87
330
A02
100
AcDbEntity
  8
ShapeString003
100
AcDbLine
 10
-12.3669
 20
10.2103
 30
4
 11
-12.1474
 21
10.4294
 31
4
  0
LINE
  5
B88
330
A02
100
AcDbEntity
  8
ShapeString003
100
AcDbLine
 10
-12.1474
 20
10.4294
 30
4
 11
-12.1474
 21
11.262
 31
4
  0
LINE
  5
B89
330
A02
100
AcDbEntity
  8
ShapeString003
100
AcDbLine
 10
-12.1474
 20
11.262
 30
4
 11
-12.3669
 21
11.4811
 31
4
  0
LINE
  5
B8A
330
A02
100
AcDbEntity
  8
ShapeString003
100
AcDbLine
 10
-12.3669
 20
11.4811
 30
4
 11
-12.8101
 21
11.4811
 31
4
  0
LINE
  5
B8B
330
A02
100
AcDbEntity
  8
ShapeString003
100
AcDbLine
 10
-12.8101
 20
11.4811
 30
4
 11
-12.8101
 21
11.7006
 31
4
  0
LINE
  5
B8C
330
A02
100
AcDbEntity
  8
ShapeString003
100
AcDbLine
 10
-12.8101
 20
11.7006
 30
4
 11
-12.3889
 21
11.7006
 31
4
  0
LINE
  5
B8D
330
A02
100
AcDbEntity
  8
ShapeString003
100
AcDbLine
 10
-12.3889
 20
11.7006
 30
4
 11
-12.1913
 21
11.8977
 31
4
  0
LINE
  5
B8E
330
A02
100
AcDbEntity
  8
ShapeString003
100
AcDbLine
 10
-12.1913
 20
11.8977
 30
4
 11
-12.1913
 21
12.6646
 31
4
  0
LINE
  5
B8F
330
A02
100
AcDbEntity
  8
ShapeString003
100
AcDbLine
 10
-12.1913
 20
12.6646
 30
4
 11
-12.3889
 21
12.8617
 31
4
  0
LINE
  5
B90
330
A02
100
AcDbEntity
  8
ShapeString003
100
AcDbLine
 10
-12.3889
 20
12.8617
 30
4
 11
-13.0471
 21
12.8617
 31
4
  0
LINE
  5
B91
330
A02
100
AcDbEntity
  8
ShapeString003
100
AcDbLine
 10
-13.0471
 20
12.8617
 30
4
 11
-13.0471
 21
13.072
 31
4
  0
LINE
  5
B92
330
A02
100
AcDbEntity
  8
ShapeString003
100
AcDbLine
 10
-13.0471
 20
13.072
 30
4
 11
-12.2703
 21
13.072
 31
4
  0
LINE
  5
B93
330
A02
100
AcDbEntity
  8
ShapeString003
100
AcDbLine
 10
-12.2703
 20
13.072
 30
4
 11
-11.95
 21
12.7517
 31
4
  0
LINE
  5
B94
330
A02
100
AcDbEntity
  8
ShapeString003
100
AcDbLine
 10
-11.95
 20
12.7517
 30
4
 11
-11.95
 21
11.8304
 31
4
  0
LINE
  5
B95
330
A02
100
AcDbEntity
  8
ShapeString003
100
AcDbLine
 10
-11.95
 20
11.8304
 30
4
 11
-12.165
 21
11.611
 31
4
  0
LINE
  5
B96
330
A02
100
AcDbEntity
  8
ShapeString003
100
AcDbLine
 10
-12.165
 20
11.611
 30
4
 11
-11.9061
 21
11.3476
 31
4
  0
LINE
  5
B97
330
A02
100
AcDbEntity
  8
ShapeString003
100
AcDbLine
 10
-11.9061
 20
11.3476
 30
4
 11
-11.9061
 21
10.3424
 31
4
  0
LINE
  5
B98
330
A02
100
AcDbEntity
  8
ShapeString003
100
AcDbLine
 10
-11.9061
 20
10.3424
 30
4
 11
-12.2484
 21
10
 31
4
  0
LINE
  5
B99
330
A02
100
AcDbEntity
  8
ShapeString003
100
AcDbLine
 10
-12.2484
 20
10
 30
4
 11
-13.069
 21
10
 31
4
  0
LINE
  5
B9A
330
A02
100
AcDbEntity
  8
ShapeString003
100
AcDbLine
 10
-11.4471
 20
10
 30
4
 11
-11.4471
 21
10.32
 31
4
  0
LINE
  5
B9B
330
A02
100
AcDbEntity
  8
ShapeString003
100
AcDbLine
 10
-11.4471
 20
10.32
 30
4
 11
-11.1443
 21
10.32
 31
4
  0
LINE
  5
B9C
330
A02
100
AcDbEntity
  8
ShapeString003
100
AcDbLine
 10
-11.1443
 20
10.32
 30
4
 11
-11.1443
 21
10
 31
4
  0
LINE
  5
B9D
330
A02
100
AcDbEntity
  8
ShapeString003
100
AcDbLine
 10
-11.1443
 20
10
 30
4
 11
-11.4471
 21
10
 31
4
  0
LINE
  5
B9E
330
A02
100
AcDbEntity
  8
ShapeString003
100
AcDbLine
 10
-10.3763
 20
10
 30
4
 11
-10.6791
 21
10.2986
 31
4
  0
LINE
  5
B9F
330
A02
100
AcDbEntity
  8
ShapeString003
100
AcDbLine
 10
-10.6791
 20
10.2986
 30
4
 11
-10.6791
 21
11.3917
 31
4
  0
LINE
  5
BA0
330
A02
100
AcDbEntity
  8
ShapeString003
100
AcDbLine
 10
-10.6791
 20
11.3917
 30
4
 11
-10.4509
 21
11.62
 31
4
  0
LINE
  5
BA1
330
A02
100
AcDbEntity
  8
ShapeString003
100
AcDbLine
 10
-10.4509
 20
11.62
 30
4
 11
-10.6353
 21
11.8086
 31
4
  0
LINE
  5
BA2
330
A02
100
AcDbEntity
  8
ShapeString003
100
AcDbLine
 10
-10.6353
 20
11.8086
 30
4
 11
-10.6353
 21
12.7956
 31
4
  0
LINE
  5
BA3
330
A02
100
AcDbEntity
  8
ShapeString003
100
AcDbLine
 10
-10.6353
 20
12.7956
 30
4
 11
-10.3544
 21
13.072
 31
4
  0
LINE
  5
BA4
330
A02
100
AcDbEntity
  8
ShapeString003
100
AcDbLine
 10
-10.3544
 20
13.072
 30
4
 11
-9.718
 21
13.072
 31
4
  0
LINE
  5
BA5
330
A02
100
AcDbEntity
  8
ShapeString003
100
AcDbLine
 10
-9.718
 20
13.072
 30
4
 11
-9.44157
 21
12.7956
 31
4
  0
LINE
  5
BA6
330
A02
100
AcDbEntity
  8
ShapeString003
100
AcDbLine
 10
-9.44157
 20
12.7956
 30
4
 11
-9.44157
 21
11.8086
 31
4
  0
LINE
  5
BA7
330
A02
100
AcDbEntity
  8
ShapeString003
100
AcDbLine
 10
-9.44157
 20
11.8086
 30
4
 11
-9.62586
 21
11.62
 31
4
  0
LINE
  5
BA8
330
A02
100
AcDbEntity
  8
ShapeString003
100
AcDbLine
 10
-9.62586
 20
11.62
 30
4
 11
-9.39771
 21
11.3917
 31
4
  0
LINE
  5
BA9
330
A02
100
AcDbEntity
  8
ShapeString003
100
AcDbLine
 10
-9.39771
 20
11.3917
 30
4
 11
-9.39771
 21
10.2986
 31
4
  0
LINE
  5
BAA
330
A02
100
AcDbEntity
  8
ShapeString003
100
AcDbLine
 10
-9.39771
 20
10.2986
 30
4
 11
-9.69614
 21
10
 31
4
  0
LINE
  5
BAB
330
A02
100
AcDbEntity
  8
ShapeString003
100
AcDbLine
 10
-9.69614
 20
10
 30
4
 11
-10.3763
 21
10
 31
4
  0
LINE
  5
BAC
330
A02
100
AcDbEntity
  8
ShapeString003
100
AcDbLine
 10
-10.2314
 20
11.7006
 30
4
 11
-9.84529
 21
11.7006
 31
4
  0
LINE
  5
BAD
330
A02
100
AcDbEntity
  8
ShapeString003
100
AcDbLine
 10
-9.84529
 20
11.7006
 30
4
 11
-9.68286
 21
11.8583
 31
4
  0
LINE
  5
BAE
330
A02
100
AcDbEntity
  8
ShapeString003
100
AcDbLine
 10
-9.68286
 20
11.8583
 30
4
 11
-9.68286
 21
12.7083
 31
4
  0
LINE
  5
BAF
330
A02
100
AcDbEntity
  8
ShapeString003
100
AcDbLine
 10
-9.68286
 20
12.7083
 30
4
 11
-9.83657
 21
12.8617
 31
4
  0
LINE
  5
BB0
330
A02
100
AcDbEntity
  8
ShapeString003
100
AcDbLine
 10
-9.83657
 20
12.8617
 30
4
 11
-10.2403
 21
12.8617
 31
4
  0
LINE
  5
BB1
330
A02
100
AcDbEntity
  8
ShapeString003
100
AcDbLine
 10
-10.2403
 20
12.8617
 30
4
 11
-10.3939
 21
12.7083
 31
4
  0
LINE
  5
BB2
330
A02
100
AcDbEntity
  8
ShapeString003
100
AcDbLine
 10
-10.3939
 20
12.7083
 30
4
 11
-10.3939
 21
11.8583
 31
4
  0
LINE
  5
BB3
330
A02
100
AcDbEntity
  8
ShapeString003
100
AcDbLine
 10
-10.3939
 20
11.8583
 30
4
 11
-10.2314
 21
11.7006
 31
4
  0
LINE
  5
BB4
330
A02
100
AcDbEntity
  8
ShapeString003
100
AcDbLine
 10
-10.2621
 20
10.2103
 30
4
 11
-9.81457
 21
10.2103
 31
4
  0
LINE
  5
BB5
330
A02
100
AcDbEntity
  8
ShapeString003
100
AcDbLine
 10
-9.81457
 20
10.2103
 30
4
 11
-9.639
 21
10.3856
 31
4
  0
LINE
  5
BB6
330
A02
100
AcDbEntity
  8
ShapeString003
100
AcDbLine
 10
-9.639
 20
10.3856
 30
4
 11
-9.639
 21
11.3059
 31
4
  0
LINE
  5
BB7
330
A02
100
AcDbEntity
  8
ShapeString003
100
AcDbLine
 10
-9.639
 20
11.3059
 30
4
 11
-9.81457
 21
11.4811
 31
4
  0
LINE
  5
BB8
330
A02
100
AcDbEntity
  8
ShapeString003
100
AcDbLine
 10
-9.81457
 20
11.4811
 30
4
 11
-10.2621
 21
11.4811
 31
4
  0
LINE
  5
BB9
330
A02
100
AcDbEntity
  8
ShapeString003
100
AcDbLine
 10
-10.2621
 20
11.4811
 30
4
 11
-10.4377
 21
11.3059
 31
4
  0
LINE
  5
BBA
330
A02
100
AcDbEntity
  8
ShapeString003
100
AcDbLine
 10
-10.4377
 20
11.3059
 30
4
 11
-10.4377
 21
10.3856
 31
4
  0
LINE
  5
BBB
330
A02
100
AcDbEntity
  8
ShapeString003
100
AcDbLine
 10
-10.4377
 20
10.3856
 30
4
 11
-10.2621
 21
10.2103
 31
4
  0
LINE
  5
BBC
330
A02
100
AcDbEntity
  8
ShapeString003
100
AcDbLine
 10
-8.56414
 20
10
 30
4
 11
-8.91086
 21
10.3423
 31
4
  0
LINE
  5
BBD
330
A02
100
AcDbEntity
  8
ShapeString003
100
AcDbLine
 10
-8.91086
 20
10.3423
 30
4
 11
-8.91086
 21
12.7297
 31
4
  0
LINE
  5
BBE
330
A02
100
AcDbEntity
  8
ShapeString003
100
AcDbLine
 10
-8.91086
 20
12.7297
 30
4
 11
-8.56414
 21
13.072
 31
4
  0
LINE
  5
BBF
330
A02
100
AcDbEntity
  8
ShapeString003
100
AcDbLine
 10
-8.56414
 20
13.072
 30
4
 11
-7.97171
 21
13.072
 31
4
  0
LINE
  5
BC0
330
A02
100
AcDbEntity
  8
ShapeString003
100
AcDbLine
 10
-7.97171
 20
13.072
 30
4
 11
-7.62943
 21
12.7297
 31
4
  0
LINE
  5
BC1
330
A02
100
AcDbEntity
  8
ShapeString003
100
AcDbLine
 10
-7.62943
 20
12.7297
 30
4
 11
-7.62943
 21
10.3423
 31
4
  0
LINE
  5
BC2
330
A02
100
AcDbEntity
  8
ShapeString003
100
AcDbLine
 10
-7.62943
 20
10.3423
 30
4
 11
-7.97171
 21
10
 31
4
  0
LINE
  5
BC3
330
A02
100
AcDbEntity
  8
ShapeString003
100
AcDbLine
 10
-7.97171
 20
10
 30
4
 11
-8.56414
 21
10
 31
4
  0
LINE
  5
BC4
330
A02
100
AcDbEntity
  8
ShapeString003
100
AcDbLine
 10
-8.45014
 20
10.2103
 30
4
 11
-8.09029
 21
10.2103
 31
4
  0
LINE
  5
BC5
330
A02
100
AcDbEntity
  8
ShapeString003
100
AcDbLine
 10
-8.09029
 20
10.2103
 30
4
 11
-7.87086
 21
10.4297
 31
4
  0
LINE
  5
BC6
330
A02
100
AcDbEntity
  8
ShapeString003
100
AcDbLine
 10
-7.87086
 20
10.4297
 30
4
 11
-7.87086
 21
12.6423
 31
4
  0
LINE
  5
BC7
330
A02
100
AcDbEntity
  8
ShapeString003
100
AcDbLine
 10
-7.87086
 20
12.6423
 30
4
 11
-8.09029
 21
12.8617
 31
4
  0
LINE
  5
BC8
330
A02
100
AcDbEntity
  8
ShapeString003
100
AcDbLine
 10
-8.09029
 20
12.8617
 30
4
 11
-8.45014
 21
12.8617
 31
4
  0
LINE
  5
BC9
330
A02
100
AcDbEntity
  8
ShapeString003
100
AcDbLine
 10
-8.45014
 20
12.8617
 30
4
 11
-8.66957
 21
12.6423
 31
4
  0
LINE
  5
BCA
330
A02
100
AcDbEntity
  8
ShapeString003
100
AcDbLine
 10
-8.66957
 20
12.6423
 30
4
 11
-8.66957
 21
10.4297
 31
4
  0
LINE
  5
BCB
330
A02
100
AcDbEntity
  8
ShapeString003
100
AcDbLine
 10
-8.66957
 20
10.4297
 30
4
 11
-8.45014
 21
10.2103
 31
4
  0
LINE
  5
BCC
330
A02
100
AcDbEntity
  8
ShapeString003
100
AcDbLine
 10
-7.16271
 20
10
 30
4
 11
-7.16271
 21
12.2583
 31
4
  0
LINE
  5
BCD
330
A02
100
AcDbEntity
  8
ShapeString003
100
AcDbLine
 10
-7.16271
 20
12.2583
 30
4
 11
-6.99157
 21
12.2583
 31
4
  0
LINE
  5
BCE
330
A02
100
AcDbEntity
  8
ShapeString003
100
AcDbLine
 10
-6.99157
 20
12.2583
 30
4
 11
-6.99157
 21
12.1486
 31
4
  0
LINE
  5
BCF
330
A02
100
AcDbEntity
  8
ShapeString003
100
AcDbLine
 10
-6.99157
 20
12.1486
 30
4
 11
-6.939
 21
12.1486
 31
4
  0
LINE
  5
BD0
330
A02
100
AcDbEntity
  8
ShapeString003
100
AcDbLine
 10
-6.939
 20
12.1486
 30
4
 11
-6.82486
 21
12.2583
 31
4
  0
LINE
  5
BD1
330
A02
100
AcDbEntity
  8
ShapeString003
100
AcDbLine
 10
-6.82486
 20
12.2583
 30
4
 11
-6.386
 21
12.2583
 31
4
  0
LINE
  5
BD2
330
A02
100
AcDbEntity
  8
ShapeString003
100
AcDbLine
 10
-6.386
 20
12.2583
 30
4
 11
-6.23243
 21
12.1047
 31
4
  0
LINE
  5
BD3
330
A02
100
AcDbEntity
  8
ShapeString003
100
AcDbLine
 10
-6.23243
 20
12.1047
 30
4
 11
-6.17971
 21
12.1047
 31
4
  0
LINE
  5
BD4
330
A02
100
AcDbEntity
  8
ShapeString003
100
AcDbLine
 10
-6.17971
 20
12.1047
 30
4
 11
-6.013
 21
12.2583
 31
4
  0
LINE
  5
BD5
330
A02
100
AcDbEntity
  8
ShapeString003
100
AcDbLine
 10
-6.013
 20
12.2583
 30
4
 11
-5.57414
 21
12.2583
 31
4
  0
LINE
  5
BD6
330
A02
100
AcDbEntity
  8
ShapeString003
100
AcDbLine
 10
-5.57414
 20
12.2583
 30
4
 11
-5.302
 21
11.9864
 31
4
  0
LINE
  5
BD7
330
A02
100
AcDbEntity
  8
ShapeString003
100
AcDbLine
 10
-5.302
 20
11.9864
 30
4
 11
-5.302
 21
10
 31
4
  0
LINE
  5
BD8
330
A02
100
AcDbEntity
  8
ShapeString003
100
AcDbLine
 10
-5.302
 20
10
 30
4
 11
-5.539
 21
10
 31
4
  0
LINE
  5
BD9
330
A02
100
AcDbEntity
  8
ShapeString003
100
AcDbLine
 10
-5.539
 20
10
 30
4
 11
-5.539
 21
11.8989
 31
4
  0
LINE
  5
BDA
330
A02
100
AcDbEntity
  8
ShapeString003
100
AcDbLine
 10
-5.539
 20
11.8989
 30
4
 11
-5.68386
 21
12.048
 31
4
  0
LINE
  5
BDB
330
A02
100
AcDbEntity
  8
ShapeString003
100
AcDbLine
 10
-5.68386
 20
12.048
 30
4
 11
-5.95586
 21
12.048
 31
4
  0
LINE
  5
BDC
330
A02
100
AcDbEntity
  8
ShapeString003
100
AcDbLine
 10
-5.95586
 20
12.048
 30
4
 11
-6.11386
 21
11.8989
 31
4
  0
LINE
  5
BDD
330
A02
100
AcDbEntity
  8
ShapeString003
100
AcDbLine
 10
-6.11386
 20
11.8989
 30
4
 11
-6.11386
 21
10
 31
4
  0
LINE
  5
BDE
330
A02
100
AcDbEntity
  8
ShapeString003
100
AcDbLine
 10
-6.11386
 20
10
 30
4
 11
-6.35086
 21
10
 31
4
  0
LINE
  5
BDF
330
A02
100
AcDbEntity
  8
ShapeString003
100
AcDbLine
 10
-6.35086
 20
10
 30
4
 11
-6.35086
 21
11.8989
 31
4
  0
LINE
  5
BE0
330
A02
100
AcDbEntity
  8
ShapeString003
100
AcDbLine
 10
-6.35086
 20
11.8989
 30
4
 11
-6.49571
 21
12.048
 31
4
  0
LINE
  5
BE1
330
A02
100
AcDbEntity
  8
ShapeString003
100
AcDbLine
 10
-6.49571
 20
12.048
 30
4
 11
-6.76786
 21
12.048
 31
4
  0
LINE
  5
BE2
330
A02
100
AcDbEntity
  8
ShapeString003
100
AcDbLine
 10
-6.76786
 20
12.048
 30
4
 11
-6.92586
 21
11.8989
 31
4
  0
LINE
  5
BE3
330
A02
100
AcDbEntity
  8
ShapeString003
100
AcDbLine
 10
-6.92586
 20
11.8989
 30
4
 11
-6.92586
 21
10
 31
4
  0
LINE
  5
BE4
330
A02
100
AcDbEntity
  8
ShapeString003
100
AcDbLine
 10
-6.92586
 20
10
 30
4
 11
-7.16271
 21
10
 31
4
  0
LINE
  5
BE5
330
A02
100
AcDbEntity
  8
ShapeString003
100
AcDbLine
 10
-4.90443
 20
10
 30
4
 11
-4.90443
 21
12.2583
 31
4
  0
LINE
  5
BE6
330
A02
100
AcDbEntity
  8
ShapeString003
100
AcDbLine
 10
-4.90443
 20
12.2583
 30
4
 11
-4.73329
 21
12.2583
 31
4
  0
LINE
  5
BE7
330
A02
100
AcDbEntity
  8
ShapeString003
100
AcDbLine
 10
-4.73329
 20
12.2583
 30
4
 11
-4.73329
 21
12.1486
 31
4
  0
LINE
  5
BE8
330
A02
100
AcDbEntity
  8
ShapeString003
100
AcDbLine
 10
-4.73329
 20
12.1486
 30
4
 11
-4.68071
 21
12.1486
 31
4
  0
LINE
  5
BE9
330
A02
100
AcDbEntity
  8
ShapeString003
100
AcDbLine
 10
-4.68071
 20
12.1486
 30
4
 11
-4.56657
 21
12.2583
 31
4
  0
LINE
  5
BEA
330
A02
100
AcDbEntity
  8
ShapeString003
100
AcDbLine
 10
-4.56657
 20
12.2583
 30
4
 11
-4.12771
 21
12.2583
 31
4
  0
LINE
  5
BEB
330
A02
100
AcDbEntity
  8
ShapeString003
100
AcDbLine
 10
-4.12771
 20
12.2583
 30
4
 11
-3.97414
 21
12.1047
 31
4
  0
LINE
  5
BEC
330
A02
100
AcDbEntity
  8
ShapeString003
100
AcDbLine
 10
-3.97414
 20
12.1047
 30
4
 11
-3.92143
 21
12.1047
 31
4
  0
LINE
  5
BED
330
A02
100
AcDbEntity
  8
ShapeString003
100
AcDbLine
 10
-3.92143
 20
12.1047
 30
4
 11
-3.75471
 21
12.2583
 31
4
  0
LINE
  5
BEE
330
A02
100
AcDbEntity
  8
ShapeString003
100
AcDbLine
 10
-3.75471
 20
12.2583
 30
4
 11
-3.31586
 21
12.2583
 31
4
  0
LINE
  5
BEF
330
A02
100
AcDbEntity
  8
ShapeString003
100
AcDbLine
 10
-3.31586
 20
12.2583
 30
4
 11
-3.04371
 21
11.9864
 31
4
  0
LINE
  5
BF0
330
A02
100
AcDbEntity
  8
ShapeString003
100
AcDbLine
 10
-3.04371
 20
11.9864
 30
4
 11
-3.04371
 21
10
 31
4
  0
LINE
  5
BF1
330
A02
100
AcDbEntity
  8
ShapeString003
100
AcDbLine
 10
-3.04371
 20
10
 30
4
 11
-3.28071
 21
10
 31
4
  0
LINE
  5
BF2
330
A02
100
AcDbEntity
  8
ShapeString003
100
AcDbLine
 10
-3.28071
 20
10
 30
4
 11
-3.28071
 21
11.8989
 31
4
  0
LINE
  5
BF3
330
A02
100
AcDbEntity
  8
ShapeString003
100
AcDbLine
 10
-3.28071
 20
11.8989
 30
4
 11
-3.42557
 21
12.048
 31
4
  0
LINE
  5
BF4
330
A02
100
AcDbEntity
  8
ShapeString003
100
AcDbLine
 10
-3.42557
 20
12.048
 30
4
 11
-3.69757
 21
12.048
 31
4
  0
LINE
  5
BF5
330
A02
100
AcDbEntity
  8
ShapeString003
100
AcDbLine
 10
-3.69757
 20
12.048
 30
4
 11
-3.85557
 21
11.8989
 31
4
  0
LINE
  5
BF6
330
A02
100
AcDbEntity
  8
ShapeString003
100
AcDbLine
 10
-3.85557
 20
11.8989
 30
4
 11
-3.85557
 21
10
 31
4
  0
LINE
  5
BF7
330
A02
100
AcDbEntity
  8
ShapeString003
100
AcDbLine
 10
-3.85557
 20
10
 30
4
 11
-4.09257
 21
10
 31
4
  0
LINE
  5
BF8
330
A02
100
AcDbEntity
  8
ShapeString003
100
AcDbLine
 10
-4.09257
 20
10
 30
4
 11
-4.09257
 21
11.8989
 31
4
  0
LINE
  5
BF9
330
A02
100
AcDbEntity
  8
ShapeString003
100
AcDbLine
 10
-4.09257
 20
11.8989
 30
4
 11
-4.23743
 21
12.048
 31
4
  0
LINE
  5
BFA
330
A02
100
AcDbEntity
  8
ShapeString003
100
AcDbLine
 10
-4.23743
 20
12.048
 30
4
 11
-4.50957
 21
12.048
 31
4
  0
LINE
  5
BFB
330
A02
100
AcDbEntity
  8
ShapeString003
100
AcDbLine
 10
-4.50957
 20
12.048
 30
4
 11
-4.66757
 21
11.8989
 31
4
  0
LINE
  5
BFC
330
A02
100
AcDbEntity
  8
ShapeString003
100
AcDbLine
 10
-4.66757
 20
11.8989
 30
4
 11
-4.66757
 21
10
 31
4
  0
LINE
  5
BFD
330
A02
100
AcDbEntity
  8
ShapeString003
100
AcDbLine
 10
-4.66757
 20
10
 30
4
 11
-4.90443
 21
10
 31
4
  0
LINE
  5
BFE
330
A02
100
AcDbEntity
  8
ShapeString004
100
AcDbLine
 10
3.931
 20
10
 30
4
 11
3.931
 21
10.2103
 31
4
  0
LINE
  5
BFF
330
A02
100
AcDbEntity
  8
ShapeString004
100
AcDbLine
 10
3.931
 20
10.2103
 30
4
 11
4.63314
 21
10.2103
 31
4
  0
LINE
  5
C00
330
A02
100
AcDbEntity
  8
ShapeString004
100
AcDbLine
 10
4.63314
 20
10.2103
 30
4
 11
4.85257
 21
10.4294
 31
4
  0
LINE
  5
C01
330
A02
100
AcDbEntity
  8
ShapeString004
100
AcDbLine
 10
4.85257
 20
10.4294
 30
4
 11
4.85257
 21
11.262
 31
4
  0
LINE
  5
C02
330
A02
100
AcDbEntity
  8
ShapeString004
100
AcDbLine
 10
4.85257
 20
11.262
 30
4
 11
4.63314
 21
11.4811
 31
4
  0
LINE
  5
C03
330
A02
100
AcDbEntity
  8
ShapeString004
100
AcDbLine
 10
4.63314
 20
11.4811
 30
4
 11
4.18986
 21
11.4811
 31
4
  0
LINE
  5
C04
330
A02
100
AcDbEntity
  8
ShapeString004
100
AcDbLine
 10
4.18986
 20
11.4811
 30
4
 11
4.18986
 21
11.7006
 31
4
  0
LINE
  5
C05
330
A02
100
AcDbEntity
  8
ShapeString004
100
AcDbLine
 10
4.18986
 20
11.7006
 30
4
 11
4.61114
 21
11.7006
 31
4
  0
LINE
  5
C06
330
A02
100
AcDbEntity
  8
ShapeString004
100
AcDbLine
 10
4.61114
 20
11.7006
 30
4
 11
4.80871
 21
11.8977
 31
4
  0
LINE
  5
C07
330
A02
100
AcDbEntity
  8
ShapeString004
100
AcDbLine
 10
4.80871
 20
11.8977
 30
4
 11
4.80871
 21
12.6646
 31
4
  0
LINE
  5
C08
330
A02
100
AcDbEntity
  8
ShapeString004
100
AcDbLine
 10
4.80871
 20
12.6646
 30
4
 11
4.61114
 21
12.8617
 31
4
  0
LINE
  5
C09
330
A02
100
AcDbEntity
  8
ShapeString004
100
AcDbLine
 10
4.61114
 20
12.8617
 30
4
 11
3.95286
 21
12.8617
 31
4
  0
LINE
  5
C0A
330
A02
100
AcDbEntity
  8
ShapeString004
100
AcDbLine
 10
3.95286
 20
12.8617
 30
4
 11
3.95286
 21
13.072
 31
4
  0
LINE
  5
C0B
330
A02
100
AcDbEntity
  8
ShapeString004
100
AcDbLine
 10
3.95286
 20
13.072
 30
4
 11
4.72971
 21
13.072
 31
4
  0
LINE
  5
C0C
330
A02
100
AcDbEntity
  8
ShapeString004
100
AcDbLine
 10
4.72971
 20
13.072
 30
4
 11
5.05
 21
12.7517
 31
4
  0
LINE
  5
C0D
330
A02
100
AcDbEntity
  8
ShapeString004
100
AcDbLine
 10
5.05
 20
12.7517
 30
4
 11
5.05
 21
11.8304
 31
4
  0
LINE
  5
C0E
330
A02
100
AcDbEntity
  8
ShapeString004
100
AcDbLine
 10
5.05
 20
11.8304
 30
4
 11
4.835
 21
11.611
 31
4
  0
LINE
  5
C0F
330
A02
100
AcDbEntity
  8
ShapeString004
100
AcDbLine
 10
4.835
 20
11.611
 30
4
 11
5.09386
 21
11.3476
 31
4
  0
LINE
  5
C10
330
A02
100
AcDbEntity
  8
ShapeString004
100
AcDbLine
 10
5.09386
 20
11.3476
 30
4
 11
5.09386
 21
10.3424
 31
4
  0
LINE
  5
C11
330
A02
100
AcDbEntity
  8
ShapeString004
100
AcDbLine
 10
5.09386
 20
10.3424
 30
4
 11
4.75157
 21
10
 31
4
  0
LINE
  5
C12
330
A02
100
AcDbEntity
  8
ShapeString004
100
AcDbLine
 10
4.75157
 20
10
 30
4
 11
3.931
 21
10
 31
4
  0
LINE
  5
C13
330
A02
100
AcDbEntity
  8
ShapeString004
100
AcDbLine
 10
5.55286
 20
10
 30
4
 11
5.55286
 21
10.32
 31
4
  0
LINE
  5
C14
330
A02
100
AcDbEntity
  8
ShapeString004
100
AcDbLine
 10
5.55286
 20
10.32
 30
4
 11
5.85571
 21
10.32
 31
4
  0
LINE
  5
C15
330
A02
100
AcDbEntity
  8
ShapeString004
100
AcDbLine
 10
5.85571
 20
10.32
 30
4
 11
5.85571
 21
10
 31
4
  0
LINE
  5
C16
330
A02
100
AcDbEntity
  8
ShapeString004
100
AcDbLine
 10
5.85571
 20
10
 30
4
 11
5.55286
 21
10
 31
4
  0
LINE
  5
C17
330
A02
100
AcDbEntity
  8
ShapeString004
100
AcDbLine
 10
6.45257
 20
10
 30
4
 11
6.45257
 21
10.9304
 31
4
  0
LINE
  5
C18
330
A02
100
AcDbEntity
  8
ShapeString004
100
AcDbLine
 10
6.45257
 20
10.9304
 30
4
 11
7.07571
 21
12.304
 31
4
  0
LINE
  5
C19
330
A02
100
AcDbEntity
  8
ShapeString004
100
AcDbLine
 10
7.07571
 20
12.304
 30
4
 11
7.07571
 21
12.8526
 31
4
  0
LINE
  5
C1A
330
A02
100
AcDbEntity
  8
ShapeString004
100
AcDbLine
 10
7.07571
 20
12.8526
 30
4
 11
6.14529
 21
12.8526
 31
4
  0
LINE
  5
C1B
330
A02
100
AcDbEntity
  8
ShapeString004
100
AcDbLine
 10
6.14529
 20
12.8526
 30
4
 11
6.14529
 21
13.072
 31
4
  0
LINE
  5
C1C
330
A02
100
AcDbEntity
  8
ShapeString004
100
AcDbLine
 10
6.14529
 20
13.072
 30
4
 11
7.31714
 21
13.072
 31
4
  0
LINE
  5
C1D
330
A02
100
AcDbEntity
  8
ShapeString004
100
AcDbLine
 10
7.31714
 20
13.072
 30
4
 11
7.31714
 21
12.2777
 31
4
  0
LINE
  5
C1E
330
A02
100
AcDbEntity
  8
ShapeString004
100
AcDbLine
 10
7.31714
 20
12.2777
 30
4
 11
6.69386
 21
10.904
 31
4
  0
LINE
  5
C1F
330
A02
100
AcDbEntity
  8
ShapeString004
100
AcDbLine
 10
6.69386
 20
10.904
 30
4
 11
6.69386
 21
10
 31
4
  0
LINE
  5
C20
330
A02
100
AcDbEntity
  8
ShapeString004
100
AcDbLine
 10
6.69386
 20
10
 30
4
 11
6.45257
 21
10
 31
4
  0
LINE
  5
C21
330
A02
100
AcDbEntity
  8
ShapeString004
100
AcDbLine
 10
8.061
 20
10
 30
4
 11
7.71429
 21
10.3423
 31
4
  0
LINE
  5
C22
330
A02
100
AcDbEntity
  8
ShapeString004
100
AcDbLine
 10
7.71429
 20
10.3423
 30
4
 11
7.71429
 21
12.7297
 31
4
  0
LINE
  5
C23
330
A02
100
AcDbEntity
  8
ShapeString004
100
AcDbLine
 10
7.71429
 20
12.7297
 30
4
 11
8.061
 21
13.072
 31
4
  0
LINE
  5
C24
330
A02
100
AcDbEntity
  8
ShapeString004
100
AcDbLine
 10
8.061
 20
13.072
 30
4
 11
8.65343
 21
13.072
 31
4
  0
LINE
  5
C25
330
A02
100
AcDbEntity
  8
ShapeString004
100
AcDbLine
 10
8.65343
 20
13.072
 30
4
 11
8.99571
 21
12.7297
 31
4
  0
LINE
  5
C26
330
A02
100
AcDbEntity
  8
ShapeString004
100
AcDbLine
 10
8.99571
 20
12.7297
 30
4
 11
8.99571
 21
10.3423
 31
4
  0
LINE
  5
C27
330
A02
100
AcDbEntity
  8
ShapeString004
100
AcDbLine
 10
8.99571
 20
10.3423
 30
4
 11
8.65343
 21
10
 31
4
  0
LINE
  5
C28
330
A02
100
AcDbEntity
  8
ShapeString004
100
AcDbLine
 10
8.65343
 20
10
 30
4
 11
8.061
 21
10
 31
4
  0
LINE
  5
C29
330
A02
100
AcDbEntity
  8
ShapeString004
100
AcDbLine
 10
8.175
 20
10.2103
 30
4
 11
8.53486
 21
10.2103
 31
4
  0
LINE
  5
C2A
330
A02
100
AcDbEntity
  8
ShapeString004
100
AcDbLine
 10
8.53486
 20
10.2103
 30
4
 11
8.75429
 21
10.4297
 31
4
  0
LINE
  5
C2B
330
A02
100
AcDbEntity
  8
ShapeString004
100
AcDbLine
 10
8.75429
 20
10.4297
 30
4
 11
8.75429
 21
12.6423
 31
4
  0
LINE
  5
C2C
330
A02
100
AcDbEntity
  8
ShapeString004
100
AcDbLine
 10
8.75429
 20
12.6423
 30
4
 11
8.53486
 21
12.8617
 31
4
  0
LINE
  5
C2D
330
A02
100
AcDbEntity
  8
ShapeString004
100
AcDbLine
 10
8.53486
 20
12.8617
 30
4
 11
8.175
 21
12.8617
 31
4
  0
LINE
  5
C2E
330
A02
100
AcDbEntity
  8
ShapeString004
100
AcDbLine
 10
8.175
 20
12.8617
 30
4
 11
7.95557
 21
12.6423
 31
4
  0
LINE
  5
C2F
330
A02
100
AcDbEntity
  8
ShapeString004
100
AcDbLine
 10
7.95557
 20
12.6423
 30
4
 11
7.95557
 21
10.4297
 31
4
  0
LINE
  5
C30
330
A02
100
AcDbEntity
  8
ShapeString004
100
AcDbLine
 10
7.95557
 20
10.4297
 30
4
 11
8.175
 21
10.2103
 31
4
  0
LINE
  5
C31
330
A02
100
AcDbEntity
  8
ShapeString004
100
AcDbLine
 10
9.46243
 20
10
 30
4
 11
9.46243
 21
12.2583
 31
4
  0
LINE
  5
C32
330
A02
100
AcDbEntity
  8
ShapeString004
100
AcDbLine
 10
9.46243
 20
12.2583
 30
4
 11
9.63357
 21
12.2583
 31
4
  0
LINE
  5
C33
330
A02
100
AcDbEntity
  8
ShapeString004
100
AcDbLine
 10
9.63357
 20
12.2583
 30
4
 11
9.63357
 21
12.1486
 31
4
  0
LINE
  5
C34
330
A02
100
AcDbEntity
  8
ShapeString004
100
AcDbLine
 10
9.63357
 20
12.1486
 30
4
 11
9.68614
 21
12.1486
 31
4
  0
LINE
  5
C35
330
A02
100
AcDbEntity
  8
ShapeString004
100
AcDbLine
 10
9.68614
 20
12.1486
 30
4
 11
9.80029
 21
12.2583
 31
4
  0
LINE
  5
C36
330
A02
100
AcDbEntity
  8
ShapeString004
100
AcDbLine
 10
9.80029
 20
12.2583
 30
4
 11
10.2391
 21
12.2583
 31
4
  0
LINE
  5
C37
330
A02
100
AcDbEntity
  8
ShapeString004
100
AcDbLine
 10
10.2391
 20
12.2583
 30
4
 11
10.3927
 21
12.1047
 31
4
  0
LINE
  5
C38
330
A02
100
AcDbEntity
  8
ShapeString004
100
AcDbLine
 10
10.3927
 20
12.1047
 30
4
 11
10.4454
 21
12.1047
 31
4
  0
LINE
  5
C39
330
A02
100
AcDbEntity
  8
ShapeString004
100
AcDbLine
 10
10.4454
 20
12.1047
 30
4
 11
10.6121
 21
12.2583
 31
4
  0
LINE
  5
C3A
330
A02
100
AcDbEntity
  8
ShapeString004
100
AcDbLine
 10
10.6121
 20
12.2583
 30
4
 11
11.051
 21
12.2583
 31
4
  0
LINE
  5
C3B
330
A02
100
AcDbEntity
  8
ShapeString004
100
AcDbLine
 10
11.051
 20
12.2583
 30
4
 11
11.3231
 21
11.9864
 31
4
  0
LINE
  5
C3C
330
A02
100
AcDbEntity
  8
ShapeString004
100
AcDbLine
 10
11.3231
 20
11.9864
 30
4
 11
11.3231
 21
10
 31
4
  0
LINE
  5
C3D
330
A02
100
AcDbEntity
  8
ShapeString004
100
AcDbLine
 10
11.3231
 20
10
 30
4
 11
11.0861
 21
10
 31
4
  0
LINE
  5
C3E
330
A02
100
AcDbEntity
  8
ShapeString004
100
AcDbLine
 10
11.0861
 20
10
 30
4
 11
11.0861
 21
11.8989
 31
4
  0
LINE
  5
C3F
330
A02
100
AcDbEntity
  8
ShapeString004
100
AcDbLine
 10
11.0861
 20
11.8989
 30
4
 11
10.9413
 21
12.048
 31
4
  0
LINE
  5
C40
330
A02
100
AcDbEntity
  8
ShapeString004
100
AcDbLine
 10
10.9413
 20
12.048
 30
4
 11
10.6693
 21
12.048
 31
4
  0
LINE
  5
C41
330
A02
100
AcDbEntity
  8
ShapeString004
100
AcDbLine
 10
10.6693
 20
12.048
 30
4
 11
10.5113
 21
11.8989
 31
4
  0
LINE
  5
C42
330
A02
100
AcDbEntity
  8
ShapeString004
100
AcDbLine
 10
10.5113
 20
11.8989
 30
4
 11
10.5113
 21
10
 31
4
  0
LINE
  5
C43
330
A02
100
AcDbEntity
  8
ShapeString004
100
AcDbLine
 10
10.5113
 20
10
 30
4
 11
10.2743
 21
10
 31
4
  0
LINE
  5
C44
330
A02
100
AcDbEntity
  8
ShapeString004
100
AcDbLine
 10
10.2743
 20
10
 30
4
 11
10.2743
 21
11.8989
 31
4
  0
LINE
  5
C45
330
A02
100
AcDbEntity
  8
ShapeString004
100
AcDbLine
 10
10.2743
 20
11.8989
 30
4
 11
10.1294
 21
12.048
 31
4
  0
LINE
  5
C46
330
A02
100
AcDbEntity
  8
ShapeString004
100
AcDbLine
 10
10.1294
 20
12.048
 30
4
 11
9.85729
 21
12.048
 31
4
  0
LINE
  5
C47
330
A02
100
AcDbEntity
  8
ShapeString004
100
AcDbLine
 10
9.85729
 20
12.048
 30
4
 11
9.69929
 21
11.8989
 31
4
  0
LINE
  5
C48
330
A02
100
AcDbEntity
  8
ShapeString004
100
AcDbLine
 10
9.69929
 20
11.8989
 30
4
 11
9.69929
 21
10
 31
4
  0
LINE
  5
C49
330
A02
100
AcDbEntity
  8
ShapeString004
100
AcDbLine
 10
9.69929
 20
10
 30
4
 11
9.46243
 21
10
 31
4
  0
LINE
  5
C4A
330
A02
100
AcDbEntity
  8
ShapeString004
100
AcDbLine
 10
11.7207
 20
10
 30
4
 11
11.7207
 21
12.2583
 31
4
  0
LINE
  5
C4B
330
A02
100
AcDbEntity
  8
ShapeString004
100
AcDbLine
 10
11.7207
 20
12.2583
 30
4
 11
11.8919
 21
12.2583
 31
4
  0
LINE
  5
C4C
330
A02
100
AcDbEntity
  8
ShapeString004
100
AcDbLine
 10
11.8919
 20
12.2583
 30
4
 11
11.8919
 21
12.1486
 31
4
  0
LINE
  5
C4D
330
A02
100
AcDbEntity
  8
ShapeString004
100
AcDbLine
 10
11.8919
 20
12.1486
 30
4
 11
11.9444
 21
12.1486
 31
4
  0
LINE
  5
C4E
330
A02
100
AcDbEntity
  8
ShapeString004
100
AcDbLine
 10
11.9444
 20
12.1486
 30
4
 11
12.0586
 21
12.2583
 31
4
  0
LINE
  5
C4F
330
A02
100
AcDbEntity
  8
ShapeString004
100
AcDbLine
 10
12.0586
 20
12.2583
 30
4
 11
12.4974
 21
12.2583
 31
4
  0
LINE
  5
C50
330
A02
100
AcDbEntity
  8
ShapeString004
100
AcDbLine
 10
12.4974
 20
12.2583
 30
4
 11
12.651
 21
12.1047
 31
4
  0
LINE
  5
C51
330
A02
100
AcDbEntity
  8
ShapeString004
100
AcDbLine
 10
12.651
 20
12.1047
 30
4
 11
12.7037
 21
12.1047
 31
4
  0
LINE
  5
C52
330
A02
100
AcDbEntity
  8
ShapeString004
100
AcDbLine
 10
12.7037
 20
12.1047
 30
4
 11
12.8704
 21
12.2583
 31
4
  0
LINE
  5
C53
330
A02
100
AcDbEntity
  8
ShapeString004
100
AcDbLine
 10
12.8704
 20
12.2583
 30
4
 11
13.3093
 21
12.2583
 31
4
  0
LINE
  5
C54
330
A02
100
AcDbEntity
  8
ShapeString004
100
AcDbLine
 10
13.3093
 20
12.2583
 30
4
 11
13.5814
 21
11.9864
 31
4
  0
LINE
  5
C55
330
A02
100
AcDbEntity
  8
ShapeString004
100
AcDbLine
 10
13.5814
 20
11.9864
 30
4
 11
13.5814
 21
10
 31
4
  0
LINE
  5
C56
330
A02
100
AcDbEntity
  8
ShapeString004
100
AcDbLine
 10
13.5814
 20
10
 30
4
 11
13.3444
 21
10
 31
4
  0
LINE
  5
C57
330
A02
100
AcDbEntity
  8
ShapeString004
100
AcDbLine
 10
13.3444
 20
10
 30
4
 11
13.3444
 21
11.8989
 31
4
  0
LINE
  5
C58
330
A02
100
AcDbEntity
  8
ShapeString004
100
AcDbLine
 10
13.3444
 20
11.8989
 30
4
 11
13.1996
 21
12.048
 31
4
  0
LINE
  5
C59
330
A02
100
AcDbEntity
  8
ShapeString004
100
AcDbLine
 10
13.1996
 20
12.048
 30
4
 11
12.9276
 21
12.048
 31
4
  0
LINE
  5
C5A
330
A02
100
AcDbEntity
  8
ShapeString004
100
AcDbLine
 10
12.9276
 20
12.048
 30
4
 11
12.7696
 21
11.8989
 31
4
  0
LINE
  5
C5B
330
A02
100
AcDbEntity
  8
ShapeString004
100
AcDbLine
 10
12.7696
 20
11.8989
 30
4
 11
12.7696
 21
10
 31
4
  0
LINE
  5
C5C
330
A02
100
AcDbEntity
  8
ShapeString004
100
AcDbLine
 10
12.7696
 20
10
 30
4
 11
12.5326
 21
10
 31
4
  0
LINE
  5
C5D
330
A02
100
AcDbEntity
  8
ShapeString004
100
AcDbLine
 10
12.5326
 20
10
 30
4
 11
12.5326
 21
11.8989
 31
4
  0
LINE
  5
C5E
330
A02
100
AcDbEntity
  8
ShapeString004
100
AcDbLine
 10
12.5326
 20
11.8989
 30
4
 11
12.3877
 21
12.048
 31
4
  0
LINE
  5
C5F
330
A02
100
AcDbEntity
  8
ShapeString004
100
AcDbLine
 10
12.3877
 20
12.048
 30
4
 11
12.1156
 21
12.048
 31
4
  0
LINE
  5
C60
330
A02
100
AcDbEntity
  8
ShapeString004
100
AcDbLine
 10
12.1156
 20
12.048
 30
4
 11
11.9576
 21
11.8989
 31
4
  0
LINE
  5
C61
330
A02
100
AcDbEntity
  8
ShapeString004
100
AcDbLine
 10
11.9576
 20
11.8989
 30
4
 11
11.9576
 21
10
 31
4
  0
LINE
  5
C62
330
A02
100
AcDbEntity
  8
ShapeString004
100
AcDbLine
 10
11.9576
 20
10
 30
4
 11
11.7207
 21
10
 31
4
  0
LINE
  5
C63
330
A02
100
AcDbEntity
  8
ShapeString005
100
AcDbLine
 10
20.931
 20
10
 30
4
 11
20.931
 21
10.2103
 31
4
  0
LINE
  5
C64
330
A02
100
AcDbEntity
  8
ShapeString005
100
AcDbLine
 10
20.931
 20
10.2103
 30
4
 11
21.6331
 21
10.2103
 31
4
  0
LINE
  5
C65
330
A02
100
AcDbEntity
  8
ShapeString005
100
AcDbLine
 10
21.6331
 20
10.2103
 30
4
 11
21.8526
 21
10.4294
 31
4
  0
LINE
  5
C66
330
A02
100
AcDbEntity
  8
ShapeString005
100
AcDbLine
 10
21.8526
 20
10.4294
 30
4
 11
21.8526
 21
11.262
 31
4
  0
LINE
  5
C67
330
A02
100
AcDbEntity
  8
ShapeString005
100
AcDbLine
 10
21.8526
 20
11.262
 30
4
 11
21.6331
 21
11.4811
 31
4
  0
LINE
  5
C68
330
A02
100
AcDbEntity
  8
ShapeString005
100
AcDbLine
 10
21.6331
 20
11.4811
 30
4
 11
21.1899
 21
11.4811
 31
4
  0
LINE
  5
C69
330
A02
100
AcDbEntity
  8
ShapeString005
100
AcDbLine
 10
21.1899
 20
11.4811
 30
4
 11
21.1899
 21
11.7006
 31
4
  0
LINE
  5
C6A
330
A02
100
AcDbEntity
  8
ShapeString005
100
AcDbLine
 10
21.1899
 20
11.7006
 30
4
 11
21.6111
 21
11.7006
 31
4
  0
LINE
  5
C6B
330
A02
100
AcDbEntity
  8
ShapeString005
100
AcDbLine
 10
21.6111
 20
11.7006
 30
4
 11
21.8087
 21
11.8977
 31
4
  0
LINE
  5
C6C
330
A02
100
AcDbEntity
  8
ShapeString005
100
AcDbLine
 10
21.8087
 20
11.8977
 30
4
 11
21.8087
 21
12.6646
 31
4
  0
LINE
  5
C6D
330
A02
100
AcDbEntity
  8
ShapeString005
100
AcDbLine
 10
21.8087
 20
12.6646
 30
4
 11
21.6111
 21
12.8617
 31
4
  0
LINE
  5
C6E
330
A02
100
AcDbEntity
  8
ShapeString005
100
AcDbLine
 10
21.6111
 20
12.8617
 30
4
 11
20.9529
 21
12.8617
 31
4
  0
LINE
  5
C6F
330
A02
100
AcDbEntity
  8
ShapeString005
100
AcDbLine
 10
20.9529
 20
12.8617
 30
4
 11
20.9529
 21
13.072
 31
4
  0
LINE
  5
C70
330
A02
100
AcDbEntity
  8
ShapeString005
100
AcDbLine
 10
20.9529
 20
13.072
 30
4
 11
21.7297
 21
13.072
 31
4
  0
LINE
  5
C71
330
A02
100
AcDbEntity
  8
ShapeString005
100
AcDbLine
 10
21.7297
 20
13.072
 30
4
 11
22.05
 21
12.7517
 31
4
  0
LINE
  5
C72
330
A02
100
AcDbEntity
  8
ShapeString005
100
AcDbLine
 10
22.05
 20
12.7517
 30
4
 11
22.05
 21
11.8304
 31
4
  0
LINE
  5
C73
330
A02
100
AcDbEntity
  8
ShapeString005
100
AcDbLine
 10
22.05
 20
11.8304
 30
4
 11
21.835
 21
11.611
 31
4
  0
LINE
  5
C74
330
A02
100
AcDbEntity
  8
ShapeString005
100
AcDbLine
 10
21.835
 20
11.611
 30
4
 11
22.0939
 21
11.3476
 31
4
  0
LINE
  5
C75
330
A02
100
AcDbEntity
  8
ShapeString005
100
AcDbLine
 10
22.0939
 20
11.3476
 30
4
 11
22.0939
 21
10.3424
 31
4
  0
LINE
  5
C76
330
A02
100
AcDbEntity
  8
ShapeString005
100
AcDbLine
 10
22.0939
 20
10.3424
 30
4
 11
21.7516
 21
10
 31
4
  0
LINE
  5
C77
330
A02
100
AcDbEntity
  8
ShapeString005
100
AcDbLine
 10
21.7516
 20
10
 30
4
 11
20.931
 21
10
 31
4
  0
LINE
  5
C78
330
A02
100
AcDbEntity
  8
ShapeString005
100
AcDbLine
 10
22.5529
 20
10
 30
4
 11
22.5529
 21
10.32
 31
4
  0
LINE
  5
C79
330
A02
100
AcDbEntity
  8
ShapeString005
100
AcDbLine
 10
22.5529
 20
10.32
 30
4
 11
22.8557
 21
10.32
 31
4
  0
LINE
  5
C7A
330
A02
100
AcDbEntity
  8
ShapeString005
100
AcDbLine
 10
22.8557
 20
10.32
 30
4
 11
22.8557
 21
10
 31
4
  0
LINE
  5
C7B
330
A02
100
AcDbEntity
  8
ShapeString005
100
AcDbLine
 10
22.8557
 20
10
 30
4
 11
22.5529
 21
10
 31
4
  0
LINE
  5
C7C
330
A02
100
AcDbEntity
  8
ShapeString005
100
AcDbLine
 10
23.6456
 20
10
 30
4
 11
23.3429
 21
10.2984
 31
4
  0
LINE
  5
C7D
330
A02
100
AcDbEntity
  8
ShapeString005
100
AcDbLine
 10
23.3429
 20
10.2984
 30
4
 11
23.3429
 21
12.7429
 31
4
  0
LINE
  5
C7E
330
A02
100
AcDbEntity
  8
ShapeString005
100
AcDbLine
 10
23.3429
 20
12.7429
 30
4
 11
23.672
 21
13.072
 31
4
  0
LINE
  5
C7F
330
A02
100
AcDbEntity
  8
ShapeString005
100
AcDbLine
 10
23.672
 20
13.072
 30
4
 11
24.4926
 21
13.072
 31
4
  0
LINE
  5
C80
330
A02
100
AcDbEntity
  8
ShapeString005
100
AcDbLine
 10
24.4926
 20
13.072
 30
4
 11
24.4926
 21
12.8617
 31
4
  0
LINE
  5
C81
330
A02
100
AcDbEntity
  8
ShapeString005
100
AcDbLine
 10
24.4926
 20
12.8617
 30
4
 11
23.7904
 21
12.8617
 31
4
  0
LINE
  5
C82
330
A02
100
AcDbEntity
  8
ShapeString005
100
AcDbLine
 10
23.7904
 20
12.8617
 30
4
 11
23.5841
 21
12.6554
 31
4
  0
LINE
  5
C83
330
A02
100
AcDbEntity
  8
ShapeString005
100
AcDbLine
 10
23.5841
 20
12.6554
 30
4
 11
23.5841
 21
11.8651
 31
4
  0
LINE
  5
C84
330
A02
100
AcDbEntity
  8
ShapeString005
100
AcDbLine
 10
23.5841
 20
11.8651
 30
4
 11
24.282
 21
11.8651
 31
4
  0
LINE
  5
C85
330
A02
100
AcDbEntity
  8
ShapeString005
100
AcDbLine
 10
24.282
 20
11.8651
 30
4
 11
24.5804
 21
11.5667
 31
4
  0
LINE
  5
C86
330
A02
100
AcDbEntity
  8
ShapeString005
100
AcDbLine
 10
24.5804
 20
11.5667
 30
4
 11
24.5804
 21
10.2984
 31
4
  0
LINE
  5
C87
330
A02
100
AcDbEntity
  8
ShapeString005
100
AcDbLine
 10
24.5804
 20
10.2984
 30
4
 11
24.282
 21
10
 31
4
  0
LINE
  5
C88
330
A02
100
AcDbEntity
  8
ShapeString005
100
AcDbLine
 10
24.282
 20
10
 30
4
 11
23.6456
 21
10
 31
4
  0
LINE
  5
C89
330
A02
100
AcDbEntity
  8
ShapeString005
100
AcDbLine
 10
23.7597
 20
10.2103
 30
4
 11
24.1634
 21
10.2103
 31
4
  0
LINE
  5
C8A
330
A02
100
AcDbEntity
  8
ShapeString005
100
AcDbLine
 10
24.1634
 20
10.2103
 30
4
 11
24.339
 21
10.3859
 31
4
  0
LINE
  5
C8B
330
A02
100
AcDbEntity
  8
ShapeString005
100
AcDbLine
 10
24.339
 20
10.3859
 30
4
 11
24.339
 21
11.4793
 31
4
  0
LINE
  5
C8C
330
A02
100
AcDbEntity
  8
ShapeString005
100
AcDbLine
 10
24.339
 20
11.4793
 30
4
 11
24.1634
 21
11.6549
 31
4
  0
LINE
  5
C8D
330
A02
100
AcDbEntity
  8
ShapeString005
100
AcDbLine
 10
24.1634
 20
11.6549
 30
4
 11
23.5841
 21
11.6549
 31
4
  0
LINE
  5
C8E
330
A02
100
AcDbEntity
  8
ShapeString005
100
AcDbLine
 10
23.5841
 20
11.6549
 30
4
 11
23.5841
 21
10.3859
 31
4
  0
LINE
  5
C8F
330
A02
100
AcDbEntity
  8
ShapeString005
100
AcDbLine
 10
23.5841
 20
10.3859
 30
4
 11
23.7597
 21
10.2103
 31
4
  0
LINE
  5
C90
330
A02
100
AcDbEntity
  8
ShapeString005
100
AcDbLine
 10
25.4084
 20
10
 30
4
 11
25.0617
 21
10.3423
 31
4
  0
LINE
  5
C91
330
A02
100
AcDbEntity
  8
ShapeString005
100
AcDbLine
 10
25.0617
 20
10.3423
 30
4
 11
25.0617
 21
12.7297
 31
4
  0
LINE
  5
C92
330
A02
100
AcDbEntity
  8
ShapeString005
100
AcDbLine
 10
25.0617
 20
12.7297
 30
4
 11
25.4084
 21
13.072
 31
4
  0
LINE
  5
C93
330
A02
100
AcDbEntity
  8
ShapeString005
100
AcDbLine
 10
25.4084
 20
13.072
 30
4
 11
26.0009
 21
13.072
 31
4
  0
LINE
  5
C94
330
A02
100
AcDbEntity
  8
ShapeString005
100
AcDbLine
 10
26.0009
 20
13.072
 30
4
 11
26.3431
 21
12.7297
 31
4
  0
LINE
  5
C95
330
A02
100
AcDbEntity
  8
ShapeString005
100
AcDbLine
 10
26.3431
 20
12.7297
 30
4
 11
26.3431
 21
10.3423
 31
4
  0
LINE
  5
C96
330
A02
100
AcDbEntity
  8
ShapeString005
100
AcDbLine
 10
26.3431
 20
10.3423
 30
4
 11
26.0009
 21
10
 31
4
  0
LINE
  5
C97
330
A02
100
AcDbEntity
  8
ShapeString005
100
AcDbLine
 10
26.0009
 20
10
 30
4
 11
25.4084
 21
10
 31
4
  0
LINE
  5
C98
330
A02
100
AcDbEntity
  8
ShapeString005
100
AcDbLine
 10
25.5224
 20
10.2103
 30
4
 11
25.8823
 21
10.2103
 31
4
  0
LINE
  5
C99
330
A02
100
AcDbEntity
  8
ShapeString005
100
AcDbLine
 10
25.8823
 20
10.2103
 30
4
 11
26.1017
 21
10.4297
 31
4
  0
LINE
  5
C9A
330
A02
100
AcDbEntity
  8
ShapeString005
100
AcDbLine
 10
26.1017
 20
10.4297
 30
4
 11
26.1017
 21
12.6423
 31
4
  0
LINE
  5
C9B
330
A02
100
AcDbEntity
  8
ShapeString005
100
AcDbLine
 10
26.1017
 20
12.6423
 30
4
 11
25.8823
 21
12.8617
 31
4
  0
LINE
  5
C9C
330
A02
100
AcDbEntity
  8
ShapeString005
100
AcDbLine
 10
25.8823
 20
12.8617
 30
4
 11
25.5224
 21
12.8617
 31
4
  0
LINE
  5
C9D
330
A02
100
AcDbEntity
  8
ShapeString005
100
AcDbLine
 10
25.5224
 20
12.8617
 30
4
 11
25.303
 21
12.6423
 31
4
  0
LINE
  5
C9E
330
A02
100
AcDbEntity
  8
ShapeString005
100
AcDbLine
 10
25.303
 20
12.6423
 30
4
 11
25.303
 21
10.4297
 31
4
  0
LINE
  5
C9F
330
A02
100
AcDbEntity
  8
ShapeString005
100
AcDbLine
 10
25.303
 20
10.4297
 30
4
 11
25.5224
 21
10.2103
 31
4
  0
LINE
  5
CA0
330
A02
100
AcDbEntity
  8
ShapeString005
100
AcDbLine
 10
26.8099
 20
10
 30
4
 11
26.8099
 21
12.2583
 31
4
  0
LINE
  5
CA1
330
A02
100
AcDbEntity
  8
ShapeString005
100
AcDbLine
 10
26.8099
 20
12.2583
 30
4
 11
26.981
 21
12.2583
 31
4
  0
LINE
  5
CA2
330
A02
100
AcDbEntity
  8
ShapeString005
100
AcDbLine
 10
26.981
 20
12.2583
 30
4
 11
26.981
 21
12.1486
 31
4
  0
LINE
  5
CA3
330
A02
100
AcDbEntity
  8
ShapeString005
100
AcDbLine
 10
26.981
 20
12.1486
 30
4
 11
27.0336
 21
12.1486
 31
4
  0
LINE
  5
CA4
330
A02
100
AcDbEntity
  8
ShapeString005
100
AcDbLine
 10
27.0336
 20
12.1486
 30
4
 11
27.1477
 21
12.2583
 31
4
  0
LINE
  5
CA5
330
A02
100
AcDbEntity
  8
ShapeString005
100
AcDbLine
 10
27.1477
 20
12.2583
 30
4
 11
27.5866
 21
12.2583
 31
4
  0
LINE
  5
CA6
330
A02
100
AcDbEntity
  8
ShapeString005
100
AcDbLine
 10
27.5866
 20
12.2583
 30
4
 11
27.7401
 21
12.1047
 31
4
  0
LINE
  5
CA7
330
A02
100
AcDbEntity
  8
ShapeString005
100
AcDbLine
 10
27.7401
 20
12.1047
 30
4
 11
27.7929
 21
12.1047
 31
4
  0
LINE
  5
CA8
330
A02
100
AcDbEntity
  8
ShapeString005
100
AcDbLine
 10
27.7929
 20
12.1047
 30
4
 11
27.9596
 21
12.2583
 31
4
  0
LINE
  5
CA9
330
A02
100
AcDbEntity
  8
ShapeString005
100
AcDbLine
 10
27.9596
 20
12.2583
 30
4
 11
28.3984
 21
12.2583
 31
4
  0
LINE
  5
CAA
330
A02
100
AcDbEntity
  8
ShapeString005
100
AcDbLine
 10
28.3984
 20
12.2583
 30
4
 11
28.6706
 21
11.9864
 31
4
  0
LINE
  5
CAB
330
A02
100
AcDbEntity
  8
ShapeString005
100
AcDbLine
 10
28.6706
 20
11.9864
 30
4
 11
28.6706
 21
10
 31
4
  0
LINE
  5
CAC
330
A02
100
AcDbEntity
  8
ShapeString005
100
AcDbLine
 10
28.6706
 20
10
 30
4
 11
28.4336
 21
10
 31
4
  0
LINE
  5
CAD
330
A02
100
AcDbEntity
  8
ShapeString005
100
AcDbLine
 10
28.4336
 20
10
 30
4
 11
28.4336
 21
11.8989
 31
4
  0
LINE
  5
CAE
330
A02
100
AcDbEntity
  8
ShapeString005
100
AcDbLine
 10
28.4336
 20
11.8989
 30
4
 11
28.2887
 21
12.048
 31
4
  0
LINE
  5
CAF
330
A02
100
AcDbEntity
  8
ShapeString005
100
AcDbLine
 10
28.2887
 20
12.048
 30
4
 11
28.0167
 21
12.048
 31
4
  0
LINE
  5
CB0
330
A02
100
AcDbEntity
  8
ShapeString005
100
AcDbLine
 10
28.0167
 20
12.048
 30
4
 11
27.8587
 21
11.8989
 31
4
  0
LINE
  5
CB1
330
A02
100
AcDbEntity
  8
ShapeString005
100
AcDbLine
 10
27.8587
 20
11.8989
 30
4
 11
27.8587
 21
10
 31
4
  0
LINE
  5
CB2
330
A02
100
AcDbEntity
  8
ShapeString005
100
AcDbLine
 10
27.8587
 20
10
 30
4
 11
27.6217
 21
10
 31
4
  0
LINE
  5
CB3
330
A02
100
AcDbEntity
  8
ShapeString005
100
AcDbLine
 10
27.6217
 20
10
 30
4
 11
27.6217
 21
11.8989
 31
4
  0
LINE
  5
CB4
330
A02
100
AcDbEntity
  8
ShapeString005
100
AcDbLine
 10
27.6217
 20
11.8989
 30
4
 11
27.4769
 21
12.048
 31
4
  0
LINE
  5
CB5
330
A02
100
AcDbEntity
  8
ShapeString005
100
AcDbLine
 10
27.4769
 20
12.048
 30
4
 11
27.2047
 21
12.048
 31
4
  0
LINE
  5
CB6
330
A02
100
AcDbEntity
  8
ShapeString005
100
AcDbLine
 10
27.2047
 20
12.048
 30
4
 11
27.0467
 21
11.8989
 31
4
  0
LINE
  5
CB7
330
A02
100
AcDbEntity
  8
ShapeString005
100
AcDbLine
 10
27.0467
 20
11.8989
 30
4
 11
27.0467
 21
10
 31
4
  0
LINE
  5
CB8
330
A02
100
AcDbEntity
  8
ShapeString005
100
AcDbLine
 10
27.0467
 20
10
 30
4
 11
26.8099
 21
10
 31
4
  0
LINE
  5
CB9
330
A02
100
AcDbEntity
  8
ShapeString005
100
AcDbLine
 10
29.0681
 20
10
 30
4
 11
29.0681
 21
12.2583
 31
4
  0
LINE
  5
CBA
330
A02
100
AcDbEntity
  8
ShapeString005
100
AcDbLine
 10
29.0681
 20
12.2583
 30
4
 11
29.2393
 21
12.2583
 31
4
  0
LINE
  5
CBB
330
A02
100
AcDbEntity
  8
ShapeString005
100
AcDbLine
 10
29.2393
 20
12.2583
 30
4
 11
29.2393
 21
12.1486
 31
4
  0
LINE
  5
CBC
330
A02
100
AcDbEntity
  8
ShapeString005
100
AcDbLine
 10
29.2393
 20
12.1486
 30
4
 11
29.2919
 21
12.1486
 31
4
  0
LINE
  5
CBD
330
A02
100
AcDbEntity
  8
ShapeString005
100
AcDbLine
 10
29.2919
 20
12.1486
 30
4
 11
29.406
 21
12.2583
 31
4
  0
LINE
  5
CBE
330
A02
100
AcDbEntity
  8
ShapeString005
100
AcDbLine
 10
29.406
 20
12.2583
 30
4
 11
29.8449
 21
12.2583
 31
4
  0
LINE
  5
CBF
330
A02
100
AcDbEntity
  8
ShapeString005
100
AcDbLine
 10
29.8449
 20
12.2583
 30
4
 11
29.9984
 21
12.1047
 31
4
  0
LINE
  5
CC0
330
A02
100
AcDbEntity
  8
ShapeString005
100
AcDbLine
 10
29.9984
 20
12.1047
 30
4
 11
30.0511
 21
12.1047
 31
4
  0
LINE
  5
CC1
330
A02
100
AcDbEntity
  8
ShapeString005
100
AcDbLine
 10
30.0511
 20
12.1047
 30
4
 11
30.2179
 21
12.2583
 31
4
  0
LINE
  5
CC2
330
A02
100
AcDbEntity
  8
ShapeString005
100
AcDbLine
 10
30.2179
 20
12.2583
 30
4
 11
30.6567
 21
12.2583
 31
4
  0
LINE
  5
CC3
330
A02
100
AcDbEntity
  8
ShapeString005
100
AcDbLine
 10
30.6567
 20
12.2583
 30
4
 11
30.9289
 21
11.9864
 31
4
  0
LINE
  5
CC4
330
A02
100
AcDbEntity
  8
ShapeString005
100
AcDbLine
 10
30.9289
 20
11.9864
 30
4
 11
30.9289
 21
10
 31
4
  0
LINE
  5
CC5
330
A02
100
AcDbEntity
  8
ShapeString005
100
AcDbLine
 10
30.9289
 20
10
 30
4
 11
30.6919
 21
10
 31
4
  0
LINE
  5
CC6
330
A02
100
AcDbEntity
  8
ShapeString005
100
AcDbLine
 10
30.6919
 20
10
 30
4
 11
30.6919
 21
11.8989
 31
4
  0
LINE
  5
CC7
330
A02
100
AcDbEntity
  8
ShapeString005
100
AcDbLine
 10
30.6919
 20
11.8989
 30
4
 11
30.547
 21
12.048
 31
4
  0
LINE
  5
CC8
330
A02
100
AcDbEntity
  8
ShapeString005
100
AcDbLine
 10
30.547
 20
12.048
 30
4
 11
30.275
 21
12.048
 31
4
  0
LINE
  5
CC9
330
A02
100
AcDbEntity
  8
ShapeString005
100
AcDbLine
 10
30.275
 20
12.048
 30
4
 11
30.117
 21
11.8989
 31
4
  0
LINE
  5
CCA
330
A02
100
AcDbEntity
  8
ShapeString005
100
AcDbLine
 10
30.117
 20
11.8989
 30
4
 11
30.117
 21
10
 31
4
  0
LINE
  5
CCB
330
A02
100
AcDbEntity
  8
ShapeString005
100
AcDbLine
 10
30.117
 20
10
 30
4
 11
29.88
 21
10
 31
4
  0
LINE
  5
CCC
330
A02
100
AcDbEntity
  8
ShapeString005
100
AcDbLine
 10
29.88
 20
10
 30
4
 11
29.88
 21
11.8989
 31
4
  0
LINE
  5
CCD
330
A02
100
AcDbEntity
  8
ShapeString005
100
AcDbLine
 10
29.88
 20
11.8989
 30
4
 11
29.7351
 21
12.048
 31
4
  0
LINE
  5
CCE
330
A02
100
AcDbEntity
  8
ShapeString005
100
AcDbLine
 10
29.7351
 20
12.048
 30
4
 11
29.463
 21
12.048
 31
4
  0
LINE
  5
CCF
330
A02
100
AcDbEntity
  8
ShapeString005
100
AcDbLine
 10
29.463
 20
12.048
 30
4
 11
29.305
 21
11.8989
 31
4
  0
LINE
  5
CD0
330
A02
100
AcDbEntity
  8
ShapeString005
100
AcDbLine
 10
29.305
 20
11.8989
 30
4
 11
29.305
 21
10
 31
4
  0
LINE
  5
CD1
330
A02
100
AcDbEntity
  8
ShapeString005
100
AcDbLine
 10
29.305
 20
10
 30
4
 11
29.0681
 21
10
 31
4
  0
LINE
  5
CD2
330
A02
100
AcDbEntity
  8
ShapeString006
100
AcDbLine
 10
37.931
 20
10
 30
4
 11
37.931
 21
10.2103
 31
4
  0
LINE
  5
CD3
330
A02
100
AcDbEntity
  8
ShapeString006
100
AcDbLine
 10
37.931
 20
10.2103
 30
4
 11
38.6331
 21
10.2103
 31
4
  0
LINE
  5
CD4
330
A02
100
AcDbEntity
  8
ShapeString006
100
AcDbLine
 10
38.6331
 20
10.2103
 30
4
 11
38.8526
 21
10.4294
 31
4
  0
LINE
  5
CD5
330
A02
100
AcDbEntity
  8
ShapeString006
100
AcDbLine
 10
38.8526
 20
10.4294
 30
4
 11
38.8526
 21
11.262
 31
4
  0
LINE
  5
CD6
330
A02
100
AcDbEntity
  8
ShapeString006
100
AcDbLine
 10
38.8526
 20
11.262
 30
4
 11
38.6331
 21
11.4811
 31
4
  0
LINE
  5
CD7
330
A02
100
AcDbEntity
  8
ShapeString006
100
AcDbLine
 10
38.6331
 20
11.4811
 30
4
 11
38.1899
 21
11.4811
 31
4
  0
LINE
  5
CD8
330
A02
100
AcDbEntity
  8
ShapeString006
100
AcDbLine
 10
38.1899
 20
11.4811
 30
4
 11
38.1899
 21
11.7006
 31
4
  0
LINE
  5
CD9
330
A02
100
AcDbEntity
  8
ShapeString006
100
AcDbLine
 10
38.1899
 20
11.7006
 30
4
 11
38.6111
 21
11.7006
 31
4
  0
LINE
  5
CDA
330
A02
100
AcDbEntity
  8
ShapeString006
100
AcDbLine
 10
38.6111
 20
11.7006
 30
4
 11
38.8087
 21
11.8977
 31
4
  0
LINE
  5
CDB
330
A02
100
AcDbEntity
  8
ShapeString006
100
AcDbLine
 10
38.8087
 20
11.8977
 30
4
 11
38.8087
 21
12.6646
 31
4
  0
LINE
  5
CDC
330
A02
100
AcDbEntity
  8
ShapeString006
100
AcDbLine
 10
38.8087
 20
12.6646
 30
4
 11
38.6111
 21
12.8617
 31
4
  0
LINE
  5
CDD
330
A02
100
AcDbEntity
  8
ShapeString006
100
AcDbLine
 10
38.6111
 20
12.8617
 30
4
 11
37.9529
 21
12.8617
 31
4
  0
LINE
  5
CDE
330
A02
100
AcDbEntity
  8
ShapeString006
100
AcDbLine
 10
37.9529
 20
12.8617
 30
4
 11
37.9529
 21
13.072
 31
4
  0
LINE
  5
CDF
330
A02
100
AcDbEntity
  8
ShapeString006
100
AcDbLine
 10
37.9529
 20
13.072
 30
4
 11
38.7297
 21
13.072
 31
4
  0
LINE
  5
CE0
330
A02
100
AcDbEntity
  8
ShapeString006
100
AcDbLine
 10
38.7297
 20
13.072
 30
4
 11
39.05
 21
12.7517
 31
4
  0
LINE
  5
CE1
330
A02
100
AcDbEntity
  8
ShapeString006
100
AcDbLine
 10
39.05
 20
12.7517
 30
4
 11
39.05
 21
11.8304
 31
4
  0
LINE
  5
CE2
330
A02
100
AcDbEntity
  8
ShapeString006
100
AcDbLine
 10
39.05
 20
11.8304
 30
4
 11
38.835
 21
11.611
 31
4
  0
LINE
  5
CE3
330
A02
100
AcDbEntity
  8
ShapeString006
100
AcDbLine
 10
38.835
 20
11.611
 30
4
 11
39.0939
 21
11.3476
 31
4
  0
LINE
  5
CE4
330
A02
100
AcDbEntity
  8
ShapeString006
100
AcDbLine
 10
39.0939
 20
11.3476
 30
4
 11
39.0939
 21
10.3424
 31
4
  0
LINE
  5
CE5
330
A02
100
AcDbEntity
  8
ShapeString006
100
AcDbLine
 10
39.0939
 20
10.3424
 30
4
 11
38.7516
 21
10
 31
4
  0
LINE
  5
CE6
330
A02
100
AcDbEntity
  8
ShapeString006
100
AcDbLine
 10
38.7516
 20
10
 30
4
 11
37.931
 21
10
 31
4
  0
LINE
  5
CE7
330
A02
100
AcDbEntity
  8
ShapeString006
100
AcDbLine
 10
39.5529
 20
10
 30
4
 11
39.5529
 21
10.32
 31
4
  0
LINE
  5
CE8
330
A02
100
AcDbEntity
  8
ShapeString006
100
AcDbLine
 10
39.5529
 20
10.32
 30
4
 11
39.8557
 21
10.32
 31
4
  0
LINE
  5
CE9
330
A02
100
AcDbEntity
  8
ShapeString006
100
AcDbLine
 10
39.8557
 20
10.32
 30
4
 11
39.8557
 21
10
 31
4
  0
LINE
  5
CEA
330
A02
100
AcDbEntity
  8
ShapeString006
100
AcDbLine
 10
39.8557
 20
10
 30
4
 11
39.5529
 21
10
 31
4
  0
LINE
  5
CEB
330
A02
100
AcDbEntity
  8
ShapeString006
100
AcDbLine
 10
40.299
 20
10
 30
4
 11
40.299
 21
10.2103
 31
4
  0
LINE
  5
CEC
330
A02
100
AcDbEntity
  8
ShapeString006
100
AcDbLine
 10
40.299
 20
10.2103
 30
4
 11
41.0011
 21
10.2103
 31
4
  0
LINE
  5
CED
330
A02
100
AcDbEntity
  8
ShapeString006
100
AcDbLine
 10
41.0011
 20
10.2103
 30
4
 11
41.2206
 21
10.4294
 31
4
  0
LINE
  5
CEE
330
A02
100
AcDbEntity
  8
ShapeString006
100
AcDbLine
 10
41.2206
 20
10.4294
 30
4
 11
41.2206
 21
11.3809
 31
4
  0
LINE
  5
CEF
330
A02
100
AcDbEntity
  8
ShapeString006
100
AcDbLine
 10
41.2206
 20
11.3809
 30
4
 11
41.0011
 21
11.6
 31
4
  0
LINE
  5
CF0
330
A02
100
AcDbEntity
  8
ShapeString006
100
AcDbLine
 10
41.0011
 20
11.6
 30
4
 11
40.3736
 21
11.6
 31
4
  0
LINE
  5
CF1
330
A02
100
AcDbEntity
  8
ShapeString006
100
AcDbLine
 10
40.3736
 20
11.6
 30
4
 11
40.3736
 21
13.072
 31
4
  0
LINE
  5
CF2
330
A02
100
AcDbEntity
  8
ShapeString006
100
AcDbLine
 10
40.3736
 20
13.072
 30
4
 11
41.3961
 21
13.072
 31
4
  0
LINE
  5
CF3
330
A02
100
AcDbEntity
  8
ShapeString006
100
AcDbLine
 10
41.3961
 20
13.072
 30
4
 11
41.3961
 21
12.8617
 31
4
  0
LINE
  5
CF4
330
A02
100
AcDbEntity
  8
ShapeString006
100
AcDbLine
 10
41.3961
 20
12.8617
 30
4
 11
40.6149
 21
12.8617
 31
4
  0
LINE
  5
CF5
330
A02
100
AcDbEntity
  8
ShapeString006
100
AcDbLine
 10
40.6149
 20
12.8617
 30
4
 11
40.6149
 21
11.8103
 31
4
  0
LINE
  5
CF6
330
A02
100
AcDbEntity
  8
ShapeString006
100
AcDbLine
 10
40.6149
 20
11.8103
 30
4
 11
41.1196
 21
11.8103
 31
4
  0
LINE
  5
CF7
330
A02
100
AcDbEntity
  8
ShapeString006
100
AcDbLine
 10
41.1196
 20
11.8103
 30
4
 11
41.4619
 21
11.4684
 31
4
  0
LINE
  5
CF8
330
A02
100
AcDbEntity
  8
ShapeString006
100
AcDbLine
 10
41.4619
 20
11.4684
 30
4
 11
41.4619
 21
10.3419
 31
4
  0
LINE
  5
CF9
330
A02
100
AcDbEntity
  8
ShapeString006
100
AcDbLine
 10
41.4619
 20
10.3419
 30
4
 11
41.1196
 21
10
 31
4
  0
LINE
  5
CFA
330
A02
100
AcDbEntity
  8
ShapeString006
100
AcDbLine
 10
41.1196
 20
10
 30
4
 11
40.299
 21
10
 31
4
  0
LINE
  5
CFB
330
A02
100
AcDbEntity
  8
ShapeString006
100
AcDbLine
 10
42.2804
 20
10
 30
4
 11
41.9337
 21
10.3423
 31
4
  0
LINE
  5
CFC
330
A02
100
AcDbEntity
  8
ShapeString006
100
AcDbLine
 10
41.9337
 20
10.3423
 30
4
 11
41.9337
 21
12.7297
 31
4
  0
LINE
  5
CFD
330
A02
100
AcDbEntity
  8
ShapeString006
100
AcDbLine
 10
41.9337
 20
12.7297
 30
4
 11
42.2804
 21
13.072
 31
4
  0
LINE
  5
CFE
330
A02
100
AcDbEntity
  8
ShapeString006
100
AcDbLine
 10
42.2804
 20
13.072
 30
4
 11
42.8729
 21
13.072
 31
4
  0
LINE
  5
CFF
330
A02
100
AcDbEntity
  8
ShapeString006
100
AcDbLine
 10
42.8729
 20
13.072
 30
4
 11
43.2151
 21
12.7297
 31
4
  0
LINE
  5
D00
330
A02
100
AcDbEntity
  8
ShapeString006
100
AcDbLine
 10
43.2151
 20
12.7297
 30
4
 11
43.2151
 21
10.3423
 31
4
  0
LINE
  5
D01
330
A02
100
AcDbEntity
  8
ShapeString006
100
AcDbLine
 10
43.2151
 20
10.3423
 30
4
 11
42.8729
 21
10
 31
4
  0
LINE
  5
D02
330
A02
100
AcDbEntity
  8
ShapeString006
100
AcDbLine
 10
42.8729
 20
10
 30
4
 11
42.2804
 21
10
 31
4
  0
LINE
  5
D03
330
A02
100
AcDbEntity
  8
ShapeString006
100
AcDbLine
 10
42.3944
 20
10.2103
 30
4
 11
42.7543
 21
10.2103
 31
4
  0
LINE
  5
D04
330
A02
100
AcDbEntity
  8
ShapeString006
100
AcDbLine
 10
42.7543
 20
10.2103
 30
4
 11
42.9737
 21
10.4297
 31
4
  0
LINE
  5
D05
330
A02
100
AcDbEntity
  8
ShapeString006
100
AcDbLine
 10
42.9737
 20
10.4297
 30
4
 11
42.9737
 21
12.6423
 31
4
  0
LINE
  5
D06
330
A02
100
AcDbEntity
  8
ShapeString006
100
AcDbLine
 10
42.9737
 20
12.6423
 30
4
 11
42.7543
 21
12.8617
 31
4
  0
LINE
  5
D07
330
A02
100
AcDbEntity
  8
ShapeString006
100
AcDbLine
 10
42.7543
 20
12.8617
 30
4
 11
42.3944
 21
12.8617
 31
4
  0
LINE
  5
D08
330
A02
100
AcDbEntity
  8
ShapeString006
100
AcDbLine
 10
42.3944
 20
12.8617
 30
4
 11
42.175
 21
12.6423
 31
4
  0
LINE
  5
D09
330
A02
100
AcDbEntity
  8
ShapeString006
100
AcDbLine
 10
42.175
 20
12.6423
 30
4
 11
42.175
 21
10.4297
 31
4
  0
LINE
  5
D0A
330
A02
100
AcDbEntity
  8
ShapeString006
100
AcDbLine
 10
42.175
 20
10.4297
 30
4
 11
42.3944
 21
10.2103
 31
4
  0
LINE
  5
D0B
330
A02
100
AcDbEntity
  8
ShapeString006
100
AcDbLine
 10
43.6819
 20
10
 30
4
 11
43.6819
 21
12.2583
 31
4
  0
LINE
  5
D0C
330
A02
100
AcDbEntity
  8
ShapeString006
100
AcDbLine
 10
43.6819
 20
12.2583
 30
4
 11
43.853
 21
12.2583
 31
4
  0
LINE
  5
D0D
330
A02
100
AcDbEntity
  8
ShapeString006
100
AcDbLine
 10
43.853
 20
12.2583
 30
4
 11
43.853
 21
12.1486
 31
4
  0
LINE
  5
D0E
330
A02
100
AcDbEntity
  8
ShapeString006
100
AcDbLine
 10
43.853
 20
12.1486
 30
4
 11
43.9056
 21
12.1486
 31
4
  0
LINE
  5
D0F
330
A02
100
AcDbEntity
  8
ShapeString006
100
AcDbLine
 10
43.9056
 20
12.1486
 30
4
 11
44.0197
 21
12.2583
 31
4
  0
LINE
  5
D10
330
A02
100
AcDbEntity
  8
ShapeString006
100
AcDbLine
 10
44.0197
 20
12.2583
 30
4
 11
44.4586
 21
12.2583
 31
4
  0
LINE
  5
D11
330
A02
100
AcDbEntity
  8
ShapeString006
100
AcDbLine
 10
44.4586
 20
12.2583
 30
4
 11
44.6121
 21
12.1047
 31
4
  0
LINE
  5
D12
330
A02
100
AcDbEntity
  8
ShapeString006
100
AcDbLine
 10
44.6121
 20
12.1047
 30
4
 11
44.6649
 21
12.1047
 31
4
  0
LINE
  5
D13
330
A02
100
AcDbEntity
  8
ShapeString006
100
AcDbLine
 10
44.6649
 20
12.1047
 30
4
 11
44.8316
 21
12.2583
 31
4
  0
LINE
  5
D14
330
A02
100
AcDbEntity
  8
ShapeString006
100
AcDbLine
 10
44.8316
 20
12.2583
 30
4
 11
45.2704
 21
12.2583
 31
4
  0
LINE
  5
D15
330
A02
100
AcDbEntity
  8
ShapeString006
100
AcDbLine
 10
45.2704
 20
12.2583
 30
4
 11
45.5426
 21
11.9864
 31
4
  0
LINE
  5
D16
330
A02
100
AcDbEntity
  8
ShapeString006
100
AcDbLine
 10
45.5426
 20
11.9864
 30
4
 11
45.5426
 21
10
 31
4
  0
LINE
  5
D17
330
A02
100
AcDbEntity
  8
ShapeString006
100
AcDbLine
 10
45.5426
 20
10
 30
4
 11
45.3056
 21
10
 31
4
  0
LINE
  5
D18
330
A02
100
AcDbEntity
  8
ShapeString006
100
AcDbLine
 10
45.3056
 20
10
 30
4
 11
45.3056
 21
11.8989
 31
4
  0
LINE
  5
D19
330
A02
100
AcDbEntity
  8
ShapeString006
100
AcDbLine
 10
45.3056
 20
11.8989
 30
4
 11
45.1607
 21
12.048
 31
4
  0
LINE
  5
D1A
330
A02
100
AcDbEntity
  8
ShapeString006
100
AcDbLine
 10
45.1607
 20
12.048
 30
4
 11
44.8887
 21
12.048
 31
4
  0
LINE
  5
D1B
330
A02
100
AcDbEntity
  8
ShapeString006
100
AcDbLine
 10
44.8887
 20
12.048
 30
4
 11
44.7307
 21
11.8989
 31
4
  0
LINE
  5
D1C
330
A02
100
AcDbEntity
  8
ShapeString006
100
AcDbLine
 10
44.7307
 20
11.8989
 30
4
 11
44.7307
 21
10
 31
4
  0
LINE
  5
D1D
330
A02
100
AcDbEntity
  8
ShapeString006
100
AcDbLine
 10
44.7307
 20
10
 30
4
 11
44.4937
 21
10
 31
4
  0
LINE
  5
D1E
330
A02
100
AcDbEntity
  8
ShapeString006
100
AcDbLine
 10
44.4937
 20
10
 30
4
 11
44.4937
 21
11.8989
 31
4
  0
LINE
  5
D1F
330
A02
100
AcDbEntity
  8
ShapeString006
100
AcDbLine
 10
44.4937
 20
11.8989
 30
4
 11
44.3489
 21
12.048
 31
4
  0
LINE
  5
D20
330
A02
100
AcDbEntity
  8
ShapeString006
100
AcDbLine
 10
44.3489
 20
12.048
 30
4
 11
44.0767
 21
12.048
 31
4
  0
LINE
  5
D21
330
A02
100
AcDbEntity
  8
ShapeString006
100
AcDbLine
 10
44.0767
 20
12.048
 30
4
 11
43.9187
 21
11.8989
 31
4
  0
LINE
  5
D22
330
A02
100
AcDbEntity
  8
ShapeString006
100
AcDbLine
 10
43.9187
 20
11.8989
 30
4
 11
43.9187
 21
10
 31
4
  0
LINE
  5
D23
330
A02
100
AcDbEntity
  8
ShapeString006
100
AcDbLine
 10
43.9187
 20
10
 30
4
 11
43.6819
 21
10
 31
4
  0
LINE
  5
D24
330
A02
100
AcDbEntity
  8
ShapeString006
100
AcDbLine
 10
45.9401
 20
10
 30
4
 11
45.9401
 21
12.2583
 31
4
  0
LINE
  5
D25
330
A02
100
AcDbEntity
  8
ShapeString006
100
AcDbLine
 10
45.9401
 20
12.2583
 30
4
 11
46.1113
 21
12.2583
 31
4
  0
LINE
  5
D26
330
A02
100
AcDbEntity
  8
ShapeString006
100
AcDbLine
 10
46.1113
 20
12.2583
 30
4
 11
46.1113
 21
12.1486
 31
4
  0
LINE
  5
D27
330
A02
100
AcDbEntity
  8
ShapeString006
100
AcDbLine
 10
46.1113
 20
12.1486
 30
4
 11
46.1639
 21
12.1486
 31
4
  0
LINE
  5
D28
330
A02
100
AcDbEntity
  8
ShapeString006
100
AcDbLine
 10
46.1639
 20
12.1486
 30
4
 11
46.278
 21
12.2583
 31
4
  0
LINE
  5
D29
330
A02
100
AcDbEntity
  8
ShapeString006
100
AcDbLine
 10
46.278
 20
12.2583
 30
4
 11
46.7169
 21
12.2583
 31
4
  0
LINE
  5
D2A
330
A02
100
AcDbEntity
  8
ShapeString006
100
AcDbLine
 10
46.7169
 20
12.2583
 30
4
 11
46.8704
 21
12.1047
 31
4
  0
LINE
  5
D2B
330
A02
100
AcDbEntity
  8
ShapeString006
100
AcDbLine
 10
46.8704
 20
12.1047
 30
4
 11
46.9231
 21
12.1047
 31
4
  0
LINE
  5
D2C
330
A02
100
AcDbEntity
  8
ShapeString006
100
AcDbLine
 10
46.9231
 20
12.1047
 30
4
 11
47.0899
 21
12.2583
 31
4
  0
LINE
  5
D2D
330
A02
100
AcDbEntity
  8
ShapeString006
100
AcDbLine
 10
47.0899
 20
12.2583
 30
4
 11
47.5287
 21
12.2583
 31
4
  0
LINE
  5
D2E
330
A02
100
AcDbEntity
  8
ShapeString006
100
AcDbLine
 10
47.5287
 20
12.2583
 30
4
 11
47.8009
 21
11.9864
 31
4
  0
LINE
  5
D2F
330
A02
100
AcDbEntity
  8
ShapeString006
100
AcDbLine
 10
47.8009
 20
11.9864
 30
4
 11
47.8009
 21
10
 31
4
  0
LINE
  5
D30
330
A02
100
AcDbEntity
  8
ShapeString006
100
AcDbLine
 10
47.8009
 20
10
 30
4
 11
47.5639
 21
10
 31
4
  0
LINE
  5
D31
330
A02
100
AcDbEntity
  8
ShapeString006
100
AcDbLine
 10
47.5639
 20
10
 30
4
 11
47.5639
 21
11.8989
 31
4
  0
LINE
  5
D32
330
A02
100
AcDbEntity
  8
ShapeString006
100
AcDbLine
 10
47.5639
 20
11.8989
 30
4
 11
47.419
 21
12.048
 31
4
  0
LINE
  5
D33
330
A02
100
AcDbEntity
  8
ShapeString006
100
AcDbLine
 10
47.419
 20
12.048
 30
4
 11
47.147
 21
12.048
 31
4
  0
LINE
  5
D34
330
A02
100
AcDbEntity
  8
ShapeString006
100
AcDbLine
 10
47.147
 20
12.048
 30
4
 11
46.989
 21
11.8989
 31
4
  0
LINE
  5
D35
330
A02
100
AcDbEntity
  8
ShapeString006
100
AcDbLine
 10
46.989
 20
11.8989
 30
4
 11
46.989
 21
10
 31
4
  0
LINE
  5
D36
330
A02
100
AcDbEntity
  8
ShapeString006
100
AcDbLine
 10
46.989
 20
10
 30
4
 11
46.752
 21
10
 31
4
  0
LINE
  5
D37
330
A02
100
AcDbEntity
  8
ShapeString006
100
AcDbLine
 10
46.752
 20
10
 30
4
 11
46.752
 21
11.8989
 31
4
  0
LINE
  5
D38
330
A02
100
AcDbEntity
  8
ShapeString006
100
AcDbLine
 10
46.752
 20
11.8989
 30
4
 11
46.6071
 21
12.048
 31
4
  0
LINE
  5
D39
330
A02
100
AcDbEntity
  8
ShapeString006
100
AcDbLine
 10
46.6071
 20
12.048
 30
4
 11
46.335
 21
12.048
 31
4
  0
LINE
  5
D3A
330
A02
100
AcDbEntity
  8
ShapeString006
100
AcDbLine
 10
46.335
 20
12.048
 30
4
 11
46.177
 21
11.8989
 31
4
  0
LINE
  5
D3B
330
A02
100
AcDbEntity
  8
ShapeString006
100
AcDbLine
 10
46.177
 20
11.8989
 30
4
 11
46.177
 21
10
 31
4
  0
LINE
  5
D3C
330
A02
100
AcDbEntity
  8
ShapeString006
100
AcDbLine
 10
46.177
 20
10
 30
4
 11
45.9401
 21
10
 31
4
  0
LINE
  5
D3D
330
A02
100
AcDbEntity
  8
ShapeString007
100
AcDbLine
 10
35.0011
 20
3
 30
4
 11
35.0011
 21
3.15771
 31
4
  0
LINE
  5
D3E
330
A02
100
AcDbEntity
  8
ShapeString007
100
AcDbLine
 10
35.0011
 20
3.15771
 30
4
 11
35.5442
 21
3.15771
 31
4
  0
LINE
  5
D3F
330
A02
100
AcDbEntity
  8
ShapeString007
100
AcDbLine
 10
35.5442
 20
3.15771
 30
4
 11
35.6924
 21
3.30611
 31
4
  0
LINE
  5
D40
330
A02
100
AcDbEntity
  8
ShapeString007
100
AcDbLine
 10
35.6924
 20
3.30611
 30
4
 11
35.6924
 21
3.96246
 31
4
  0
LINE
  5
D41
330
A02
100
AcDbEntity
  8
ShapeString007
100
AcDbLine
 10
35.6924
 20
3.96246
 30
4
 11
35.5442
 21
4.11086
 31
4
  0
LINE
  5
D42
330
A02
100
AcDbEntity
  8
ShapeString007
100
AcDbLine
 10
35.5442
 20
4.11086
 30
4
 11
35.2151
 21
4.11086
 31
4
  0
LINE
  5
D43
330
A02
100
AcDbEntity
  8
ShapeString007
100
AcDbLine
 10
35.2151
 20
4.11086
 30
4
 11
34.9715
 21
4.35075
 31
4
  0
LINE
  5
D44
330
A02
100
AcDbEntity
  8
ShapeString007
100
AcDbLine
 10
34.9715
 20
4.35075
 30
4
 11
34.9715
 21
5.06411
 31
4
  0
LINE
  5
D45
330
A02
100
AcDbEntity
  8
ShapeString007
100
AcDbLine
 10
34.9715
 20
5.06411
 30
4
 11
35.2151
 21
5.304
 31
4
  0
LINE
  5
D46
330
A02
100
AcDbEntity
  8
ShapeString007
100
AcDbLine
 10
35.2151
 20
5.304
 30
4
 11
35.8405
 21
5.304
 31
4
  0
LINE
  5
D47
330
A02
100
AcDbEntity
  8
ShapeString007
100
AcDbLine
 10
35.8405
 20
5.304
 30
4
 11
35.8405
 21
5.14629
 31
4
  0
LINE
  5
D48
330
A02
100
AcDbEntity
  8
ShapeString007
100
AcDbLine
 10
35.8405
 20
5.14629
 30
4
 11
35.3007
 21
5.14629
 31
4
  0
LINE
  5
D49
330
A02
100
AcDbEntity
  8
ShapeString007
100
AcDbLine
 10
35.3007
 20
5.14629
 30
4
 11
35.1526
 21
4.99832
 31
4
  0
LINE
  5
D4A
330
A02
100
AcDbEntity
  8
ShapeString007
100
AcDbLine
 10
35.1526
 20
4.99832
 30
4
 11
35.1526
 21
4.41654
 31
4
  0
LINE
  5
D4B
330
A02
100
AcDbEntity
  8
ShapeString007
100
AcDbLine
 10
35.1526
 20
4.41654
 30
4
 11
35.3007
 21
4.26857
 31
4
  0
LINE
  5
D4C
330
A02
100
AcDbEntity
  8
ShapeString007
100
AcDbLine
 10
35.3007
 20
4.26857
 30
4
 11
35.6298
 21
4.26857
 31
4
  0
LINE
  5
D4D
330
A02
100
AcDbEntity
  8
ShapeString007
100
AcDbLine
 10
35.6298
 20
4.26857
 30
4
 11
35.8734
 21
4.02804
 31
4
  0
LINE
  5
D4E
330
A02
100
AcDbEntity
  8
ShapeString007
100
AcDbLine
 10
35.8734
 20
4.02804
 30
4
 11
35.8734
 21
3.24054
 31
4
  0
LINE
  5
D4F
330
A02
100
AcDbEntity
  8
ShapeString007
100
AcDbLine
 10
35.8734
 20
3.24054
 30
4
 11
35.6298
 21
3
 31
4
  0
LINE
  5
D50
330
A02
100
AcDbEntity
  8
ShapeString007
100
AcDbLine
 10
35.6298
 20
3
 30
4
 11
35.0011
 21
3
 31
4
  0
LINE
  5
D51
330
A02
100
AcDbEntity
  8
ShapeString007
100
AcDbLine
 10
36.1907
 20
2.34171
 30
4
 11
36.1907
 21
2.49943
 31
4
  0
LINE
  5
D52
330
A02
100
AcDbEntity
  8
ShapeString007
100
AcDbLine
 10
36.1907
 20
2.49943
 30
4
 11
36.6746
 21
2.49943
 31
4
  0
LINE
  5
D53
330
A02
100
AcDbEntity
  8
ShapeString007
100
AcDbLine
 10
36.6746
 20
2.49943
 30
4
 11
36.7503
 21
2.5785
 31
4
  0
LINE
  5
D54
330
A02
100
AcDbEntity
  8
ShapeString007
100
AcDbLine
 10
36.7503
 20
2.5785
 30
4
 11
36.7503
 21
3.06579
 31
4
  0
LINE
  5
D55
330
A02
100
AcDbEntity
  8
ShapeString007
100
AcDbLine
 10
36.7503
 20
3.06579
 30
4
 11
36.724
 21
3.06579
 31
4
  0
LINE
  5
D56
330
A02
100
AcDbEntity
  8
ShapeString007
100
AcDbLine
 10
36.724
 20
3.06579
 30
4
 11
36.6482
 21
3
 31
4
  0
LINE
  5
D57
330
A02
100
AcDbEntity
  8
ShapeString007
100
AcDbLine
 10
36.6482
 20
3
 30
4
 11
36.3619
 21
3
 31
4
  0
LINE
  5
D58
330
A02
100
AcDbEntity
  8
ShapeString007
100
AcDbLine
 10
36.3619
 20
3
 30
4
 11
36.1578
 21
3.20389
 31
4
  0
LINE
  5
D59
330
A02
100
AcDbEntity
  8
ShapeString007
100
AcDbLine
 10
36.1578
 20
3.20389
 30
4
 11
36.1578
 21
4.69371
 31
4
  0
LINE
  5
D5A
330
A02
100
AcDbEntity
  8
ShapeString007
100
AcDbLine
 10
36.1578
 20
4.69371
 30
4
 11
36.3356
 21
4.69371
 31
4
  0
LINE
  5
D5B
330
A02
100
AcDbEntity
  8
ShapeString007
100
AcDbLine
 10
36.3356
 20
4.69371
 30
4
 11
36.3356
 21
3.26957
 31
4
  0
LINE
  5
D5C
330
A02
100
AcDbEntity
  8
ShapeString007
100
AcDbLine
 10
36.3356
 20
3.26957
 30
4
 11
36.4442
 21
3.15771
 31
4
  0
LINE
  5
D5D
330
A02
100
AcDbEntity
  8
ShapeString007
100
AcDbLine
 10
36.4442
 20
3.15771
 30
4
 11
36.6186
 21
3.15771
 31
4
  0
LINE
  5
D5E
330
A02
100
AcDbEntity
  8
ShapeString007
100
AcDbLine
 10
36.6186
 20
3.15771
 30
4
 11
36.7503
 21
3.27943
 31
4
  0
LINE
  5
D5F
330
A02
100
AcDbEntity
  8
ShapeString007
100
AcDbLine
 10
36.7503
 20
3.27943
 30
4
 11
36.7503
 21
4.69371
 31
4
  0
LINE
  5
D60
330
A02
100
AcDbEntity
  8
ShapeString007
100
AcDbLine
 10
36.7503
 20
4.69371
 30
4
 11
36.928
 21
4.69371
 31
4
  0
LINE
  5
D61
330
A02
100
AcDbEntity
  8
ShapeString007
100
AcDbLine
 10
36.928
 20
4.69371
 30
4
 11
36.928
 21
2.51282
 31
4
  0
LINE
  5
D62
330
A02
100
AcDbEntity
  8
ShapeString007
100
AcDbLine
 10
36.928
 20
2.51282
 30
4
 11
36.7569
 21
2.34171
 31
4
  0
LINE
  5
D63
330
A02
100
AcDbEntity
  8
ShapeString007
100
AcDbLine
 10
36.7569
 20
2.34171
 30
4
 11
36.1907
 21
2.34171
 31
4
  0
LINE
  5
D64
330
A02
100
AcDbEntity
  8
ShapeString007
100
AcDbLine
 10
37.2933
 20
3
 30
4
 11
37.2933
 21
5.14629
 31
4
  0
LINE
  5
D65
330
A02
100
AcDbEntity
  8
ShapeString007
100
AcDbLine
 10
37.2933
 20
5.14629
 30
4
 11
37.1025
 21
5.14629
 31
4
  0
LINE
  5
D66
330
A02
100
AcDbEntity
  8
ShapeString007
100
AcDbLine
 10
37.1025
 20
5.14629
 30
4
 11
37.1025
 21
5.304
 31
4
  0
LINE
  5
D67
330
A02
100
AcDbEntity
  8
ShapeString007
100
AcDbLine
 10
37.1025
 20
5.304
 30
4
 11
37.4711
 21
5.304
 31
4
  0
LINE
  5
D68
330
A02
100
AcDbEntity
  8
ShapeString007
100
AcDbLine
 10
37.4711
 20
5.304
 30
4
 11
37.4711
 21
3
 31
4
  0
LINE
  5
D69
330
A02
100
AcDbEntity
  8
ShapeString007
100
AcDbLine
 10
37.4711
 20
3
 30
4
 11
37.2933
 21
3
 31
4
  0
LINE
  5
D6A
330
A02
100
AcDbEntity
  8
ShapeString007
100
AcDbLine
 10
37.9906
 20
3
 30
4
 11
37.7207
 21
4.61807
 31
4
  0
LINE
  5
D6B
330
A02
100
AcDbEntity
  8
ShapeString007
100
AcDbLine
 10
37.7207
 20
4.61807
 30
4
 11
37.7207
 21
4.69371
 31
4
  0
LINE
  5
D6C
330
A02
100
AcDbEntity
  8
ShapeString007
100
AcDbLine
 10
37.7207
 20
4.69371
 30
4
 11
37.8786
 21
4.69371
 31
4
  0
LINE
  5
D6D
330
A02
100
AcDbEntity
  8
ShapeString007
100
AcDbLine
 10
37.8786
 20
4.69371
 30
4
 11
38.119
 21
3.20571
 31
4
  0
LINE
  5
D6E
330
A02
100
AcDbEntity
  8
ShapeString007
100
AcDbLine
 10
38.119
 20
3.20571
 30
4
 11
38.1617
 21
3.20571
 31
4
  0
LINE
  5
D6F
330
A02
100
AcDbEntity
  8
ShapeString007
100
AcDbLine
 10
38.1617
 20
3.20571
 30
4
 11
38.4119
 21
4.69371
 31
4
  0
LINE
  5
D70
330
A02
100
AcDbEntity
  8
ShapeString007
100
AcDbLine
 10
38.4119
 20
4.69371
 30
4
 11
38.5666
 21
4.69371
 31
4
  0
LINE
  5
D71
330
A02
100
AcDbEntity
  8
ShapeString007
100
AcDbLine
 10
38.5666
 20
4.69371
 30
4
 11
38.5666
 21
4.61807
 31
4
  0
LINE
  5
D72
330
A02
100
AcDbEntity
  8
ShapeString007
100
AcDbLine
 10
38.5666
 20
4.61807
 30
4
 11
38.2869
 21
3
 31
4
  0
LINE
  5
D73
330
A02
100
AcDbEntity
  8
ShapeString007
100
AcDbLine
 10
38.2869
 20
3
 30
4
 11
37.9906
 21
3
 31
4
  0
LINE
  5
D74
330
A02
100
AcDbEntity
  8
ShapeString007
100
AcDbLine
 10
38.9649
 20
3
 30
4
 11
38.7608
 21
3.20379
 31
4
  0
LINE
  5
D75
330
A02
100
AcDbEntity
  8
ShapeString007
100
AcDbLine
 10
38.7608
 20
3.20379
 30
4
 11
38.7608
 21
3.91061
 31
4
  0
LINE
  5
D76
330
A02
100
AcDbEntity
  8
ShapeString007
100
AcDbLine
 10
38.7608
 20
3.91061
 30
4
 11
38.9714
 21
4.11771
 31
4
  0
LINE
  5
D77
330
A02
100
AcDbEntity
  8
ShapeString007
100
AcDbLine
 10
38.9714
 20
4.11771
 30
4
 11
39.3533
 21
4.11771
 31
4
  0
LINE
  5
D78
330
A02
100
AcDbEntity
  8
ShapeString007
100
AcDbLine
 10
39.3533
 20
4.11771
 30
4
 11
39.3533
 21
4.43721
 31
4
  0
LINE
  5
D79
330
A02
100
AcDbEntity
  8
ShapeString007
100
AcDbLine
 10
39.3533
 20
4.43721
 30
4
 11
39.2545
 21
4.536
 31
4
  0
LINE
  5
D7A
330
A02
100
AcDbEntity
  8
ShapeString007
100
AcDbLine
 10
39.2545
 20
4.536
 30
4
 11
38.8661
 21
4.536
 31
4
  0
LINE
  5
D7B
330
A02
100
AcDbEntity
  8
ShapeString007
100
AcDbLine
 10
38.8661
 20
4.536
 30
4
 11
38.8661
 21
4.69371
 31
4
  0
LINE
  5
D7C
330
A02
100
AcDbEntity
  8
ShapeString007
100
AcDbLine
 10
38.8661
 20
4.69371
 30
4
 11
39.3367
 21
4.69371
 31
4
  0
LINE
  5
D7D
330
A02
100
AcDbEntity
  8
ShapeString007
100
AcDbLine
 10
39.3367
 20
4.69371
 30
4
 11
39.531
 21
4.503
 31
4
  0
LINE
  5
D7E
330
A02
100
AcDbEntity
  8
ShapeString007
100
AcDbLine
 10
39.531
 20
4.503
 30
4
 11
39.531
 21
3
 31
4
  0
LINE
  5
D7F
330
A02
100
AcDbEntity
  8
ShapeString007
100
AcDbLine
 10
39.531
 20
3
 30
4
 11
39.4026
 21
3
 31
4
  0
LINE
  5
D80
330
A02
100
AcDbEntity
  8
ShapeString007
100
AcDbLine
 10
39.4026
 20
3
 30
4
 11
39.4026
 21
3.09879
 31
4
  0
LINE
  5
D81
330
A02
100
AcDbEntity
  8
ShapeString007
100
AcDbLine
 10
39.4026
 20
3.09879
 30
4
 11
39.3631
 21
3.09879
 31
4
  0
LINE
  5
D82
330
A02
100
AcDbEntity
  8
ShapeString007
100
AcDbLine
 10
39.3631
 20
3.09879
 30
4
 11
39.2545
 21
3
 31
4
  0
LINE
  5
D83
330
A02
100
AcDbEntity
  8
ShapeString007
100
AcDbLine
 10
39.2545
 20
3
 30
4
 11
38.9649
 21
3
 31
4
  0
LINE
  5
D84
330
A02
100
AcDbEntity
  8
ShapeString007
100
AcDbLine
 10
39.0471
 20
3.15771
 30
4
 11
39.2216
 21
3.15771
 31
4
  0
LINE
  5
D85
330
A02
100
AcDbEntity
  8
ShapeString007
100
AcDbLine
 10
39.2216
 20
3.15771
 30
4
 11
39.3532
 21
3.28264
 31
4
  0
LINE
  5
D86
330
A02
100
AcDbEntity
  8
ShapeString007
100
AcDbLine
 10
39.3533
 20
3.28264
 30
4
 11
39.3533
 21
3.96
 31
4
  0
LINE
  5
D87
330
A02
100
AcDbEntity
  8
ShapeString007
100
AcDbLine
 10
39.3533
 20
3.96
 30
4
 11
39.0537
 21
3.96
 31
4
  0
LINE
  5
D88
330
A02
100
AcDbEntity
  8
ShapeString007
100
AcDbLine
 10
39.0537
 20
3.96
 30
4
 11
38.9385
 21
3.84493
 31
4
  0
LINE
  5
D89
330
A02
100
AcDbEntity
  8
ShapeString007
100
AcDbLine
 10
38.9385
 20
3.84493
 30
4
 11
38.9385
 21
3.26946
 31
4
  0
LINE
  5
D8A
330
A02
100
AcDbEntity
  8
ShapeString007
100
AcDbLine
 10
38.9385
 20
3.26946
 30
4
 11
39.0471
 21
3.15771
 31
4
  0
LINE
  5
D8B
330
A02
100
AcDbEntity
  8
ShapeString007
100
AcDbLine
 10
39.8292
 20
3
 30
4
 11
39.8292
 21
4.69371
 31
4
  0
LINE
  5
D8C
330
A02
100
AcDbEntity
  8
ShapeString007
100
AcDbLine
 10
39.8292
 20
4.69371
 30
4
 11
40.0068
 21
4.69371
 31
4
  0
LINE
  5
D8D
330
A02
100
AcDbEntity
  8
ShapeString007
100
AcDbLine
 10
40.0068
 20
4.69371
 30
4
 11
40.0068
 21
3
 31
4
  0
LINE
  5
D8E
330
A02
100
AcDbEntity
  8
ShapeString007
100
AcDbLine
 10
40.0068
 20
3
 30
4
 11
39.8292
 21
3
 31
4
  0
LINE
  5
D8F
330
A02
100
AcDbEntity
  8
ShapeString007
100
AcDbLine
 10
39.8192
 20
5.07257
 30
4
 11
39.8192
 21
5.30571
 31
4
  0
LINE
  5
D90
330
A02
100
AcDbEntity
  8
ShapeString007
100
AcDbLine
 10
39.8192
 20
5.30571
 30
4
 11
40.0167
 21
5.30571
 31
4
  0
LINE
  5
D91
330
A02
100
AcDbEntity
  8
ShapeString007
100
AcDbLine
 10
40.0167
 20
5.30571
 30
4
 11
40.0167
 21
5.07257
 31
4
  0
LINE
  5
D92
330
A02
100
AcDbEntity
  8
ShapeString007
100
AcDbLine
 10
40.0167
 20
5.07257
 30
4
 11
39.8192
 21
5.07257
 31
4
  0
LINE
  5
D93
330
A02
100
AcDbEntity
  8
ShapeString007
100
AcDbLine
 10
40.3229
 20
3
 30
4
 11
40.3229
 21
4.69371
 31
4
  0
LINE
  5
D94
330
A02
100
AcDbEntity
  8
ShapeString007
100
AcDbLine
 10
40.3229
 20
4.69371
 30
4
 11
40.4513
 21
4.69371
 31
4
  0
LINE
  5
D95
330
A02
100
AcDbEntity
  8
ShapeString007
100
AcDbLine
 10
40.4513
 20
4.69371
 30
4
 11
40.4513
 21
4.60157
 31
4
  0
LINE
  5
D96
330
A02
100
AcDbEntity
  8
ShapeString007
100
AcDbLine
 10
40.4513
 20
4.60157
 30
4
 11
40.4907
 21
4.60157
 31
4
  0
LINE
  5
D97
330
A02
100
AcDbEntity
  8
ShapeString007
100
AcDbLine
 10
40.4907
 20
4.60157
 30
4
 11
40.5895
 21
4.69371
 31
4
  0
LINE
  5
D98
330
A02
100
AcDbEntity
  8
ShapeString007
100
AcDbLine
 10
40.5895
 20
4.69371
 30
4
 11
40.9153
 21
4.69371
 31
4
  0
LINE
  5
D99
330
A02
100
AcDbEntity
  8
ShapeString007
100
AcDbLine
 10
40.9153
 20
4.69371
 30
4
 11
41.1194
 21
4.48982
 31
4
  0
LINE
  5
D9A
330
A02
100
AcDbEntity
  8
ShapeString007
100
AcDbLine
 10
41.1194
 20
4.48982
 30
4
 11
41.1194
 21
3
 31
4
  0
LINE
  5
D9B
330
A02
100
AcDbEntity
  8
ShapeString007
100
AcDbLine
 10
41.1194
 20
3
 30
4
 11
40.945
 21
3
 31
4
  0
LINE
  5
D9C
330
A02
100
AcDbEntity
  8
ShapeString007
100
AcDbLine
 10
40.945
 20
3
 30
4
 11
40.945
 21
4.42414
 31
4
  0
LINE
  5
D9D
330
A02
100
AcDbEntity
  8
ShapeString007
100
AcDbLine
 10
40.945
 20
4.42414
 30
4
 11
40.833
 21
4.536
 31
4
  0
LINE
  5
D9E
330
A02
100
AcDbEntity
  8
ShapeString007
100
AcDbLine
 10
40.833
 20
4.536
 30
4
 11
40.6322
 21
4.536
 31
4
  0
LINE
  5
D9F
330
A02
100
AcDbEntity
  8
ShapeString007
100
AcDbLine
 10
40.6322
 20
4.536
 30
4
 11
40.5005
 21
4.41429
 31
4
  0
LINE
  5
DA0
330
A02
100
AcDbEntity
  8
ShapeString007
100
AcDbLine
 10
40.5005
 20
4.41429
 30
4
 11
40.5005
 21
3
 31
4
  0
LINE
  5
DA1
330
A02
100
AcDbEntity
  8
ShapeString007
100
AcDbLine
 10
40.5005
 20
3
 30
4
 11
40.3229
 21
3
 31
4
  0
LINE
  5
DA2
330
A02
100
AcDbEntity
  8
ShapeString007
100
AcDbLine
 10
42.0933
 20
3
 30
4
 11
42.0933
 21
5.304
 31
4
  0
LINE
  5
DA3
330
A02
100
AcDbEntity
  8
ShapeString007
100
AcDbLine
 10
42.0933
 20
5.304
 30
4
 11
42.8142
 21
5.304
 31
4
  0
LINE
  5
DA4
330
A02
100
AcDbEntity
  8
ShapeString007
100
AcDbLine
 10
42.8142
 20
5.304
 30
4
 11
43.0709
 21
5.04729
 31
4
  0
LINE
  5
DA5
330
A02
100
AcDbEntity
  8
ShapeString007
100
AcDbLine
 10
43.0709
 20
5.04729
 30
4
 11
43.0709
 21
3.25671
 31
4
  0
LINE
  5
DA6
330
A02
100
AcDbEntity
  8
ShapeString007
100
AcDbLine
 10
43.0709
 20
3.25671
 30
4
 11
42.8142
 21
3
 31
4
  0
LINE
  5
DA7
330
A02
100
AcDbEntity
  8
ShapeString007
100
AcDbLine
 10
42.8142
 20
3
 30
4
 11
42.0933
 21
3
 31
4
  0
LINE
  5
DA8
330
A02
100
AcDbEntity
  8
ShapeString007
100
AcDbLine
 10
42.2744
 20
3.15771
 30
4
 11
42.7254
 21
3.15771
 31
4
  0
LINE
  5
DA9
330
A02
100
AcDbEntity
  8
ShapeString007
100
AcDbLine
 10
42.7254
 20
3.15771
 30
4
 11
42.8899
 21
3.32229
 31
4
  0
LINE
  5
DAA
330
A02
100
AcDbEntity
  8
ShapeString007
100
AcDbLine
 10
42.8899
 20
3.32229
 30
4
 11
42.8899
 21
4.98171
 31
4
  0
LINE
  5
DAB
330
A02
100
AcDbEntity
  8
ShapeString007
100
AcDbLine
 10
42.8899
 20
4.98171
 30
4
 11
42.7254
 21
5.14629
 31
4
  0
LINE
  5
DAC
330
A02
100
AcDbEntity
  8
ShapeString007
100
AcDbLine
 10
42.7254
 20
5.14629
 30
4
 11
42.2744
 21
5.14629
 31
4
  0
LINE
  5
DAD
330
A02
100
AcDbEntity
  8
ShapeString007
100
AcDbLine
 10
42.2744
 20
5.14629
 30
4
 11
42.2744
 21
3.15771
 31
4
  0
LINE
  5
DAE
330
A02
100
AcDbEntity
  8
ShapeString007
100
AcDbLine
 10
43.4716
 20
3
 30
4
 11
43.4716
 21
5.304
 31
4
  0
LINE
  5
DAF
330
A02
100
AcDbEntity
  8
ShapeString007
100
AcDbLine
 10
43.4716
 20
5.304
 30
4
 11
44.3076
 21
5.304
 31
4
  0
LINE
  5
DB0
330
A02
100
AcDbEntity
  8
ShapeString007
100
AcDbLine
 10
44.3076
 20
5.304
 30
4
 11
44.3076
 21
5.14629
 31
4
  0
LINE
  5
DB1
330
A02
100
AcDbEntity
  8
ShapeString007
100
AcDbLine
 10
44.3076
 20
5.14629
 30
4
 11
43.6527
 21
5.14629
 31
4
  0
LINE
  5
DB2
330
A02
100
AcDbEntity
  8
ShapeString007
100
AcDbLine
 10
43.6527
 20
5.14629
 30
4
 11
43.6527
 21
4.24114
 31
4
  0
LINE
  5
DB3
330
A02
100
AcDbEntity
  8
ShapeString007
100
AcDbLine
 10
43.6527
 20
4.24114
 30
4
 11
44.1529
 21
4.24114
 31
4
  0
LINE
  5
DB4
330
A02
100
AcDbEntity
  8
ShapeString007
100
AcDbLine
 10
44.1529
 20
4.24114
 30
4
 11
44.1529
 21
4.07657
 31
4
  0
LINE
  5
DB5
330
A02
100
AcDbEntity
  8
ShapeString007
100
AcDbLine
 10
44.1529
 20
4.07657
 30
4
 11
43.6527
 21
4.07657
 31
4
  0
LINE
  5
DB6
330
A02
100
AcDbEntity
  8
ShapeString007
100
AcDbLine
 10
43.6527
 20
4.07657
 30
4
 11
43.6527
 21
3.15771
 31
4
  0
LINE
  5
DB7
330
A02
100
AcDbEntity
  8
ShapeString007
100
AcDbLine
 10
43.6527
 20
3.15771
 30
4
 11
44.3241
 21
3.15771
 31
4
  0
LINE
  5
DB8
330
A02
100
AcDbEntity
  8
ShapeString007
100
AcDbLine
 10
44.3241
 20
3.15771
 30
4
 11
44.3241
 21
3
 31
4
  0
LINE
  5
DB9
330
A02
100
AcDbEntity
  8
ShapeString007
100
AcDbLine
 10
44.3241
 20
3
 30
4
 11
43.4716
 21
3
 31
4
  0
LINE
  5
DBA
330
A02
100
AcDbEntity
  8
ShapeString007
100
AcDbLine
 10
44.5962
 20
3
 30
4
 11
44.5962
 21
5.304
 31
4
  0
LINE
  5
DBB
330
A02
100
AcDbEntity
  8
ShapeString007
100
AcDbLine
 10
44.5962
 20
5.304
 30
4
 11
44.9253
 21
5.304
 31
4
  0
LINE
  5
DBC
330
A02
100
AcDbEntity
  8
ShapeString007
100
AcDbLine
 10
44.9253
 20
5.304
 30
4
 11
45.4421
 21
3.20743
 31
4
  0
LINE
  5
DBD
330
A02
100
AcDbEntity
  8
ShapeString007
100
AcDbLine
 10
45.4421
 20
3.20743
 30
4
 11
45.4881
 21
3.20743
 31
4
  0
LINE
  5
DBE
330
A02
100
AcDbEntity
  8
ShapeString007
100
AcDbLine
 10
45.4881
 20
3.20743
 30
4
 11
45.4881
 21
5.304
 31
4
  0
LINE
  5
DBF
330
A02
100
AcDbEntity
  8
ShapeString007
100
AcDbLine
 10
45.4881
 20
5.304
 30
4
 11
45.6527
 21
5.304
 31
4
  0
LINE
  5
DC0
330
A02
100
AcDbEntity
  8
ShapeString007
100
AcDbLine
 10
45.6527
 20
5.304
 30
4
 11
45.6527
 21
3
 31
4
  0
LINE
  5
DC1
330
A02
100
AcDbEntity
  8
ShapeString007
100
AcDbLine
 10
45.6527
 20
3
 30
4
 11
45.3269
 21
3
 31
4
  0
LINE
  5
DC2
330
A02
100
AcDbEntity
  8
ShapeString007
100
AcDbLine
 10
45.3269
 20
3
 30
4
 11
44.8101
 21
5.09657
 31
4
  0
LINE
  5
DC3
330
A02
100
AcDbEntity
  8
ShapeString007
100
AcDbLine
 10
44.8101
 20
5.09657
 30
4
 11
44.7641
 21
5.09657
 31
4
  0
LINE
  5
DC4
330
A02
100
AcDbEntity
  8
ShapeString007
100
AcDbLine
 10
44.7641
 20
5.09657
 30
4
 11
44.7641
 21
3
 31
4
  0
LINE
  5
DC5
330
A02
100
AcDbEntity
  8
ShapeString007
100
AcDbLine
 10
44.7641
 20
3
 30
4
 11
44.5962
 21
3
 31
4
  0
LINE
  5
DC6
330
A02
100
AcDbEntity
  8
ShapeString007
100
AcDbLine
 10
45.9882
 20
3
 30
4
 11
45.9882
 21
3.15771
 31
4
  0
LINE
  5
DC7
330
A02
100
AcDbEntity
  8
ShapeString007
100
AcDbLine
 10
45.9882
 20
3.15771
 30
4
 11
46.1594
 21
3.15771
 31
4
  0
LINE
  5
DC8
330
A02
100
AcDbEntity
  8
ShapeString007
100
AcDbLine
 10
46.1594
 20
3.15771
 30
4
 11
46.1594
 21
5.14629
 31
4
  0
LINE
  5
DC9
330
A02
100
AcDbEntity
  8
ShapeString007
100
AcDbLine
 10
46.1594
 20
5.14629
 30
4
 11
45.9882
 21
5.14629
 31
4
  0
LINE
  5
DCA
330
A02
100
AcDbEntity
  8
ShapeString007
100
AcDbLine
 10
45.9882
 20
5.14629
 30
4
 11
45.9882
 21
5.304
 31
4
  0
LINE
  5
DCB
330
A02
100
AcDbEntity
  8
ShapeString007
100
AcDbLine
 10
45.9882
 20
5.304
 30
4
 11
46.5116
 21
5.304
 31
4
  0
LINE
  5
DCC
330
A02
100
AcDbEntity
  8
ShapeString007
100
AcDbLine
 10
46.5116
 20
5.304
 30
4
 11
46.5116
 21
5.14629
 31
4
  0
LINE
  5
DCD
330
A02
100
AcDbEntity
  8
ShapeString007
100
AcDbLine
 10
46.5116
 20
5.14629
 30
4
 11
46.3404
 21
5.14629
 31
4
  0
LINE
  5
DCE
330
A02
100
AcDbEntity
  8
ShapeString007
100
AcDbLine
 10
46.3404
 20
5.14629
 30
4
 11
46.3404
 21
3.15771
 31
4
  0
LINE
  5
DCF
330
A02
100
AcDbEntity
  8
ShapeString007
100
AcDbLine
 10
46.3404
 20
3.15771
 30
4
 11
46.5116
 21
3.15771
 31
4
  0
LINE
  5
DD0
330
A02
100
AcDbEntity
  8
ShapeString007
100
AcDbLine
 10
46.5116
 20
3.15771
 30
4
 11
46.5116
 21
3
 31
4
  0
LINE
  5
DD1
330
A02
100
AcDbEntity
  8
ShapeString007
100
AcDbLine
 10
46.5116
 20
3
 30
4
 11
45.9882
 21
3
 31
4
  0
LINE
  5
DD2
330
A02
100
AcDbEntity
  8
ShapeString007
100
AcDbLine
 10
46.8091
 20
3
 30
4
 11
46.8091
 21
3.15771
 31
4
  0
LINE
  5
DD3
330
A02
100
AcDbEntity
  8
ShapeString007
100
AcDbLine
 10
46.8091
 20
3.15771
 30
4
 11
47.3522
 21
3.15771
 31
4
  0
LINE
  5
DD4
330
A02
100
AcDbEntity
  8
ShapeString007
100
AcDbLine
 10
47.3522
 20
3.15771
 30
4
 11
47.5004
 21
3.30611
 31
4
  0
LINE
  5
DD5
330
A02
100
AcDbEntity
  8
ShapeString007
100
AcDbLine
 10
47.5004
 20
3.30611
 30
4
 11
47.5004
 21
3.96246
 31
4
  0
LINE
  5
DD6
330
A02
100
AcDbEntity
  8
ShapeString007
100
AcDbLine
 10
47.5004
 20
3.96246
 30
4
 11
47.3522
 21
4.11086
 31
4
  0
LINE
  5
DD7
330
A02
100
AcDbEntity
  8
ShapeString007
100
AcDbLine
 10
47.3522
 20
4.11086
 30
4
 11
47.0231
 21
4.11086
 31
4
  0
LINE
  5
DD8
330
A02
100
AcDbEntity
  8
ShapeString007
100
AcDbLine
 10
47.0231
 20
4.11086
 30
4
 11
46.7795
 21
4.35075
 31
4
  0
LINE
  5
DD9
330
A02
100
AcDbEntity
  8
ShapeString007
100
AcDbLine
 10
46.7795
 20
4.35075
 30
4
 11
46.7795
 21
5.06411
 31
4
  0
LINE
  5
DDA
330
A02
100
AcDbEntity
  8
ShapeString007
100
AcDbLine
 10
46.7795
 20
5.06411
 30
4
 11
47.0231
 21
5.304
 31
4
  0
LINE
  5
DDB
330
A02
100
AcDbEntity
  8
ShapeString007
100
AcDbLine
 10
47.0231
 20
5.304
 30
4
 11
47.6485
 21
5.304
 31
4
  0
LINE
  5
DDC
330
A02
100
AcDbEntity
  8
ShapeString007
100
AcDbLine
 10
47.6485
 20
5.304
 30
4
 11
47.6485
 21
5.14629
 31
4
  0
LINE
  5
DDD
330
A02
100
AcDbEntity
  8
ShapeString007
100
AcDbLine
 10
47.6485
 20
5.14629
 30
4
 11
47.1087
 21
5.14629
 31
4
  0
LINE
  5
DDE
330
A02
100
AcDbEntity
  8
ShapeString007
100
AcDbLine
 10
47.1087
 20
5.14629
 30
4
 11
46.9606
 21
4.99832
 31
4
  0
LINE
  5
DDF
330
A02
100
AcDbEntity
  8
ShapeString007
100
AcDbLine
 10
46.9606
 20
4.99832
 30
4
 11
46.9606
 21
4.41654
 31
4
  0
LINE
  5
DE0
330
A02
100
AcDbEntity
  8
ShapeString007
100
AcDbLine
 10
46.9606
 20
4.41654
 30
4
 11
47.1087
 21
4.26857
 31
4
  0
LINE
  5
DE1
330
A02
100
AcDbEntity
  8
ShapeString007
100
AcDbLine
 10
47.1087
 20
4.26857
 30
4
 11
47.4378
 21
4.26857
 31
4
  0
LINE
  5
DE2
330
A02
100
AcDbEntity
  8
ShapeString007
100
AcDbLine
 10
47.4378
 20
4.26857
 30
4
 11
47.6814
 21
4.02804
 31
4
  0
LINE
  5
DE3
330
A02
100
AcDbEntity
  8
ShapeString007
100
AcDbLine
 10
47.6814
 20
4.02804
 30
4
 11
47.6814
 21
3.24054
 31
4
  0
LINE
  5
DE4
330
A02
100
AcDbEntity
  8
ShapeString007
100
AcDbLine
 10
47.6814
 20
3.24054
 30
4
 11
47.4378
 21
3
 31
4
  0
LINE
  5
DE5
330
A02
100
AcDbEntity
  8
ShapeString007
100
AcDbLine
 10
47.4378
 20
3
 30
4
 11
46.8091
 21
3
 31
4
  0
LINE
  5
DE6
330
A02
100
AcDbEntity
  8
ShapeString008
100
AcDbLine
 10
-47.7651
 20
3
 30
4
 11
-47.7651
 21
5.14629
 31
4
  0
LINE
  5
DE7
330
A02
100
AcDbEntity
  8
ShapeString008
100
AcDbLine
 10
-47.7651
 20
5.14629
 30
4
 11
-48.1535
 21
5.14629
 31
4
  0
LINE
  5
DE8
330
A02
100
AcDbEntity
  8
ShapeString008
100
AcDbLine
 10
-48.1535
 20
5.14629
 30
4
 11
-48.1535
 21
5.304
 31
4
  0
LINE
  5
DE9
330
A02
100
AcDbEntity
  8
ShapeString008
100
AcDbLine
 10
-48.1535
 20
5.304
 30
4
 11
-47.1924
 21
5.304
 31
4
  0
LINE
  5
DEA
330
A02
100
AcDbEntity
  8
ShapeString008
100
AcDbLine
 10
-47.1924
 20
5.304
 30
4
 11
-47.1924
 21
5.14629
 31
4
  0
LINE
  5
DEB
330
A02
100
AcDbEntity
  8
ShapeString008
100
AcDbLine
 10
-47.1924
 20
5.14629
 30
4
 11
-47.5841
 21
5.14629
 31
4
  0
LINE
  5
DEC
330
A02
100
AcDbEntity
  8
ShapeString008
100
AcDbLine
 10
-47.5841
 20
5.14629
 30
4
 11
-47.5841
 21
3
 31
4
  0
LINE
  5
DED
330
A02
100
AcDbEntity
  8
ShapeString008
100
AcDbLine
 10
-47.5841
 20
3
 30
4
 11
-47.7651
 21
3
 31
4
  0
LINE
  5
DEE
330
A02
100
AcDbEntity
  8
ShapeString008
100
AcDbLine
 10
-46.8235
 20
3
 30
4
 11
-47.0342
 21
3.20721
 31
4
  0
LINE
  5
DEF
330
A02
100
AcDbEntity
  8
ShapeString008
100
AcDbLine
 10
-47.0342
 20
3.20721
 30
4
 11
-47.0342
 21
4.4865
 31
4
  0
LINE
  5
DF0
330
A02
100
AcDbEntity
  8
ShapeString008
100
AcDbLine
 10
-47.0342
 20
4.4865
 30
4
 11
-46.8235
 21
4.69371
 31
4
  0
LINE
  5
DF1
330
A02
100
AcDbEntity
  8
ShapeString008
100
AcDbLine
 10
-46.8235
 20
4.69371
 30
4
 11
-46.4286
 21
4.69371
 31
4
  0
LINE
  5
DF2
330
A02
100
AcDbEntity
  8
ShapeString008
100
AcDbLine
 10
-46.4286
 20
4.69371
 30
4
 11
-46.2212
 21
4.48671
 31
4
  0
LINE
  5
DF3
330
A02
100
AcDbEntity
  8
ShapeString008
100
AcDbLine
 10
-46.2212
 20
4.48671
 30
4
 11
-46.2212
 21
3.74743
 31
4
  0
LINE
  5
DF4
330
A02
100
AcDbEntity
  8
ShapeString008
100
AcDbLine
 10
-46.2212
 20
3.74743
 30
4
 11
-46.8564
 21
3.74743
 31
4
  0
LINE
  5
DF5
330
A02
100
AcDbEntity
  8
ShapeString008
100
AcDbLine
 10
-46.8564
 20
3.74743
 30
4
 11
-46.8564
 21
3.273
 31
4
  0
LINE
  5
DF6
330
A02
100
AcDbEntity
  8
ShapeString008
100
AcDbLine
 10
-46.8564
 20
3.273
 30
4
 11
-46.7413
 21
3.15771
 31
4
  0
LINE
  5
DF7
330
A02
100
AcDbEntity
  8
ShapeString008
100
AcDbLine
 10
-46.7413
 20
3.15771
 30
4
 11
-46.2969
 21
3.15771
 31
4
  0
LINE
  5
DF8
330
A02
100
AcDbEntity
  8
ShapeString008
100
AcDbLine
 10
-46.2969
 20
3.15771
 30
4
 11
-46.2969
 21
3
 31
4
  0
LINE
  5
DF9
330
A02
100
AcDbEntity
  8
ShapeString008
100
AcDbLine
 10
-46.2969
 20
3
 30
4
 11
-46.8235
 21
3
 31
4
  0
LINE
  5
DFA
330
A02
100
AcDbEntity
  8
ShapeString008
100
AcDbLine
 10
-46.8564
 20
3.90514
 30
4
 11
-46.3956
 21
3.90514
 31
4
  0
LINE
  5
DFB
330
A02
100
AcDbEntity
  8
ShapeString008
100
AcDbLine
 10
-46.3956
 20
3.90514
 30
4
 11
-46.3956
 21
4.42104
 31
4
  0
LINE
  5
DFC
330
A02
100
AcDbEntity
  8
ShapeString008
100
AcDbLine
 10
-46.3956
 20
4.42104
 30
4
 11
-46.5109
 21
4.536
 31
4
  0
LINE
  5
DFD
330
A02
100
AcDbEntity
  8
ShapeString008
100
AcDbLine
 10
-46.5109
 20
4.536
 30
4
 11
-46.7413
 21
4.536
 31
4
  0
LINE
  5
DFE
330
A02
100
AcDbEntity
  8
ShapeString008
100
AcDbLine
 10
-46.7413
 20
4.536
 30
4
 11
-46.8564
 21
4.42104
 31
4
  0
LINE
  5
DFF
330
A02
100
AcDbEntity
  8
ShapeString008
100
AcDbLine
 10
-46.8564
 20
4.42104
 30
4
 11
-46.8564
 21
3.90514
 31
4
  0
LINE
  5
E00
330
A02
100
AcDbEntity
  8
ShapeString008
100
AcDbLine
 10
-45.9878
 20
3
 30
4
 11
-45.9878
 21
3.15771
 31
4
  0
LINE
  5
E01
330
A02
100
AcDbEntity
  8
ShapeString008
100
AcDbLine
 10
-45.9878
 20
3.15771
 30
4
 11
-45.5862
 21
3.15771
 31
4
  0
LINE
  5
E02
330
A02
100
AcDbEntity
  8
ShapeString008
100
AcDbLine
 10
-45.5862
 20
3.15771
 30
4
 11
-45.4776
 21
3.26946
 31
4
  0
LINE
  5
E03
330
A02
100
AcDbEntity
  8
ShapeString008
100
AcDbLine
 10
-45.4776
 20
3.26946
 30
4
 11
-45.4776
 21
3.68368
 31
4
  0
LINE
  5
E04
330
A02
100
AcDbEntity
  8
ShapeString008
100
AcDbLine
 10
-45.4776
 20
3.68368
 30
4
 11
-45.5862
 21
3.79543
 31
4
  0
LINE
  5
E05
330
A02
100
AcDbEntity
  8
ShapeString008
100
AcDbLine
 10
-45.5862
 20
3.79543
 30
4
 11
-45.8002
 21
3.79543
 31
4
  0
LINE
  5
E06
330
A02
100
AcDbEntity
  8
ShapeString008
100
AcDbLine
 10
-45.8002
 20
3.79543
 30
4
 11
-46.0042
 21
3.99611
 31
4
  0
LINE
  5
E07
330
A02
100
AcDbEntity
  8
ShapeString008
100
AcDbLine
 10
-46.0042
 20
3.99611
 30
4
 11
-46.0042
 21
4.48971
 31
4
  0
LINE
  5
E08
330
A02
100
AcDbEntity
  8
ShapeString008
100
AcDbLine
 10
-46.0042
 20
4.48971
 30
4
 11
-45.8002
 21
4.69371
 31
4
  0
LINE
  5
E09
330
A02
100
AcDbEntity
  8
ShapeString008
100
AcDbLine
 10
-45.8002
 20
4.69371
 30
4
 11
-45.3459
 21
4.69371
 31
4
  0
LINE
  5
E0A
330
A02
100
AcDbEntity
  8
ShapeString008
100
AcDbLine
 10
-45.3459
 20
4.69371
 30
4
 11
-45.3459
 21
4.536
 31
4
  0
LINE
  5
E0B
330
A02
100
AcDbEntity
  8
ShapeString008
100
AcDbLine
 10
-45.3459
 20
4.536
 30
4
 11
-45.7179
 21
4.536
 31
4
  0
LINE
  5
E0C
330
A02
100
AcDbEntity
  8
ShapeString008
100
AcDbLine
 10
-45.7179
 20
4.536
 30
4
 11
-45.8265
 21
4.42404
 31
4
  0
LINE
  5
E0D
330
A02
100
AcDbEntity
  8
ShapeString008
100
AcDbLine
 10
-45.8265
 20
4.42404
 30
4
 11
-45.8265
 21
4.06179
 31
4
  0
LINE
  5
E0E
330
A02
100
AcDbEntity
  8
ShapeString008
100
AcDbLine
 10
-45.8265
 20
4.06179
 30
4
 11
-45.7179
 21
3.95314
 31
4
  0
LINE
  5
E0F
330
A02
100
AcDbEntity
  8
ShapeString008
100
AcDbLine
 10
-45.7179
 20
3.95314
 30
4
 11
-45.504
 21
3.95314
 31
4
  0
LINE
  5
E10
330
A02
100
AcDbEntity
  8
ShapeString008
100
AcDbLine
 10
-45.504
 20
3.95314
 30
4
 11
-45.2999
 21
3.74936
 31
4
  0
LINE
  5
E11
330
A02
100
AcDbEntity
  8
ShapeString008
100
AcDbLine
 10
-45.2999
 20
3.74936
 30
4
 11
-45.2999
 21
3.20379
 31
4
  0
LINE
  5
E12
330
A02
100
AcDbEntity
  8
ShapeString008
100
AcDbLine
 10
-45.2999
 20
3.20379
 30
4
 11
-45.504
 21
3
 31
4
  0
LINE
  5
E13
330
A02
100
AcDbEntity
  8
ShapeString008
100
AcDbLine
 10
-45.504
 20
3
 30
4
 11
-45.9878
 21
3
 31
4
  0
LINE
  5
E14
330
A02
100
AcDbEntity
  8
ShapeString008
100
AcDbLine
 10
-44.8056
 20
3
 30
4
 11
-44.9537
 21
3.14796
 31
4
  0
LINE
  5
E15
330
A02
100
AcDbEntity
  8
ShapeString008
100
AcDbLine
 10
-44.9537
 20
3.14796
 30
4
 11
-44.9537
 21
4.536
 31
4
  0
LINE
  5
E16
330
A02
100
AcDbEntity
  8
ShapeString008
100
AcDbLine
 10
-44.9537
 20
4.536
 30
4
 11
-45.1513
 21
4.536
 31
4
  0
LINE
  5
E17
330
A02
100
AcDbEntity
  8
ShapeString008
100
AcDbLine
 10
-45.1513
 20
4.536
 30
4
 11
-45.1513
 21
4.69371
 31
4
  0
LINE
  5
E18
330
A02
100
AcDbEntity
  8
ShapeString008
100
AcDbLine
 10
-45.1513
 20
4.69371
 30
4
 11
-44.9537
 21
4.69371
 31
4
  0
LINE
  5
E19
330
A02
100
AcDbEntity
  8
ShapeString008
100
AcDbLine
 10
-44.9537
 20
4.69371
 30
4
 11
-44.9537
 21
5.07086
 31
4
  0
LINE
  5
E1A
330
A02
100
AcDbEntity
  8
ShapeString008
100
AcDbLine
 10
-44.9537
 20
5.07086
 30
4
 11
-44.776
 21
5.07086
 31
4
  0
LINE
  5
E1B
330
A02
100
AcDbEntity
  8
ShapeString008
100
AcDbLine
 10
-44.776
 20
5.07086
 30
4
 11
-44.776
 21
4.69371
 31
4
  0
LINE
  5
E1C
330
A02
100
AcDbEntity
  8
ShapeString008
100
AcDbLine
 10
-44.776
 20
4.69371
 30
4
 11
-44.3975
 21
4.69371
 31
4
  0
LINE
  5
E1D
330
A02
100
AcDbEntity
  8
ShapeString008
100
AcDbLine
 10
-44.3975
 20
4.69371
 30
4
 11
-44.3975
 21
4.536
 31
4
  0
LINE
  5
E1E
330
A02
100
AcDbEntity
  8
ShapeString008
100
AcDbLine
 10
-44.3975
 20
4.536
 30
4
 11
-44.776
 21
4.536
 31
4
  0
LINE
  5
E1F
330
A02
100
AcDbEntity
  8
ShapeString008
100
AcDbLine
 10
-44.776
 20
4.536
 30
4
 11
-44.776
 21
3.21364
 31
4
  0
LINE
  5
E20
330
A02
100
AcDbEntity
  8
ShapeString008
100
AcDbLine
 10
-44.776
 20
3.21364
 30
4
 11
-44.7233
 21
3.15771
 31
4
  0
LINE
  5
E21
330
A02
100
AcDbEntity
  8
ShapeString008
100
AcDbLine
 10
-44.7233
 20
3.15771
 30
4
 11
-44.381
 21
3.15771
 31
4
  0
LINE
  5
E22
330
A02
100
AcDbEntity
  8
ShapeString008
100
AcDbLine
 10
-44.381
 20
3.15771
 30
4
 11
-44.381
 21
3
 31
4
  0
LINE
  5
E23
330
A02
100
AcDbEntity
  8
ShapeString008
100
AcDbLine
 10
-44.381
 20
3
 30
4
 11
-44.8056
 21
3
 31
4
  0
LINE
  5
E24
330
A02
100
AcDbEntity
  8
ShapeString008
100
AcDbLine
 10
-43.2825
 20
3
 30
4
 11
-43.5425
 21
3.25671
 31
4
  0
LINE
  5
E25
330
A02
100
AcDbEntity
  8
ShapeString008
100
AcDbLine
 10
-43.5425
 20
3.25671
 30
4
 11
-43.5425
 21
5.04729
 31
4
  0
LINE
  5
E26
330
A02
100
AcDbEntity
  8
ShapeString008
100
AcDbLine
 10
-43.5425
 20
5.04729
 30
4
 11
-43.2825
 21
5.304
 31
4
  0
LINE
  5
E27
330
A02
100
AcDbEntity
  8
ShapeString008
100
AcDbLine
 10
-43.2825
 20
5.304
 30
4
 11
-42.7295
 21
5.304
 31
4
  0
LINE
  5
E28
330
A02
100
AcDbEntity
  8
ShapeString008
100
AcDbLine
 10
-42.7295
 20
5.304
 30
4
 11
-42.7295
 21
5.14629
 31
4
  0
LINE
  5
E29
330
A02
100
AcDbEntity
  8
ShapeString008
100
AcDbLine
 10
-42.7295
 20
5.14629
 30
4
 11
-43.197
 21
5.14629
 31
4
  0
LINE
  5
E2A
330
A02
100
AcDbEntity
  8
ShapeString008
100
AcDbLine
 10
-43.197
 20
5.14629
 30
4
 11
-43.3615
 21
4.98171
 31
4
  0
LINE
  5
E2B
330
A02
100
AcDbEntity
  8
ShapeString008
100
AcDbLine
 10
-43.3615
 20
4.98171
 30
4
 11
-43.3615
 21
3.32229
 31
4
  0
LINE
  5
E2C
330
A02
100
AcDbEntity
  8
ShapeString008
100
AcDbLine
 10
-43.3615
 20
3.32229
 30
4
 11
-43.197
 21
3.15771
 31
4
  0
LINE
  5
E2D
330
A02
100
AcDbEntity
  8
ShapeString008
100
AcDbLine
 10
-43.197
 20
3.15771
 30
4
 11
-42.7295
 21
3.15771
 31
4
  0
LINE
  5
E2E
330
A02
100
AcDbEntity
  8
ShapeString008
100
AcDbLine
 10
-42.7295
 20
3.15771
 30
4
 11
-42.7295
 21
3
 31
4
  0
LINE
  5
E2F
330
A02
100
AcDbEntity
  8
ShapeString008
100
AcDbLine
 10
-42.7295
 20
3
 30
4
 11
-43.2825
 21
3
 31
4
  0
LINE
  5
E30
330
A02
100
AcDbEntity
  8
ShapeString008
100
AcDbLine
 10
-42.3047
 20
3
 30
4
 11
-42.5153
 21
3.20721
 31
4
  0
LINE
  5
E31
330
A02
100
AcDbEntity
  8
ShapeString008
100
AcDbLine
 10
-42.5153
 20
3.20721
 30
4
 11
-42.5153
 21
4.4865
 31
4
  0
LINE
  5
E32
330
A02
100
AcDbEntity
  8
ShapeString008
100
AcDbLine
 10
-42.5153
 20
4.4865
 30
4
 11
-42.3047
 21
4.69371
 31
4
  0
LINE
  5
E33
330
A02
100
AcDbEntity
  8
ShapeString008
100
AcDbLine
 10
-42.3047
 20
4.69371
 30
4
 11
-41.8834
 21
4.69371
 31
4
  0
LINE
  5
E34
330
A02
100
AcDbEntity
  8
ShapeString008
100
AcDbLine
 10
-41.8834
 20
4.69371
 30
4
 11
-41.676
 21
4.4865
 31
4
  0
LINE
  5
E35
330
A02
100
AcDbEntity
  8
ShapeString008
100
AcDbLine
 10
-41.676
 20
4.4865
 30
4
 11
-41.676
 21
3.20721
 31
4
  0
LINE
  5
E36
330
A02
100
AcDbEntity
  8
ShapeString008
100
AcDbLine
 10
-41.676
 20
3.20721
 30
4
 11
-41.8834
 21
3
 31
4
  0
LINE
  5
E37
330
A02
100
AcDbEntity
  8
ShapeString008
100
AcDbLine
 10
-41.8834
 20
3
 30
4
 11
-42.3047
 21
3
 31
4
  0
LINE
  5
E38
330
A02
100
AcDbEntity
  8
ShapeString008
100
AcDbLine
 10
-42.2224
 20
3.15771
 30
4
 11
-41.9657
 21
3.15771
 31
4
  0
LINE
  5
E39
330
A02
100
AcDbEntity
  8
ShapeString008
100
AcDbLine
 10
-41.9657
 20
3.15771
 30
4
 11
-41.8505
 21
3.27289
 31
4
  0
LINE
  5
E3A
330
A02
100
AcDbEntity
  8
ShapeString008
100
AcDbLine
 10
-41.8505
 20
3.27289
 30
4
 11
-41.8505
 21
4.42082
 31
4
  0
LINE
  5
E3B
330
A02
100
AcDbEntity
  8
ShapeString008
100
AcDbLine
 10
-41.8505
 20
4.42082
 30
4
 11
-41.9657
 21
4.536
 31
4
  0
LINE
  5
E3C
330
A02
100
AcDbEntity
  8
ShapeString008
100
AcDbLine
 10
-41.9657
 20
4.536
 30
4
 11
-42.2224
 21
4.536
 31
4
  0
LINE
  5
E3D
330
A02
100
AcDbEntity
  8
ShapeString008
100
AcDbLine
 10
-42.2224
 20
4.536
 30
4
 11
-42.3376
 21
4.42082
 31
4
  0
LINE
  5
E3E
330
A02
100
AcDbEntity
  8
ShapeString008
100
AcDbLine
 10
-42.3376
 20
4.42082
 30
4
 11
-42.3376
 21
3.27289
 31
4
  0
LINE
  5
E3F
330
A02
100
AcDbEntity
  8
ShapeString008
100
AcDbLine
 10
-42.3376
 20
3.27289
 30
4
 11
-42.2224
 21
3.15771
 31
4
  0
LINE
  5
E40
330
A02
100
AcDbEntity
  8
ShapeString008
100
AcDbLine
 10
-41.3743
 20
3
 30
4
 11
-41.3743
 21
4.69371
 31
4
  0
LINE
  5
E41
330
A02
100
AcDbEntity
  8
ShapeString008
100
AcDbLine
 10
-41.3743
 20
4.69371
 30
4
 11
-41.2459
 21
4.69371
 31
4
  0
LINE
  5
E42
330
A02
100
AcDbEntity
  8
ShapeString008
100
AcDbLine
 10
-41.2459
 20
4.69371
 30
4
 11
-41.2459
 21
4.61143
 31
4
  0
LINE
  5
E43
330
A02
100
AcDbEntity
  8
ShapeString008
100
AcDbLine
 10
-41.2459
 20
4.61143
 30
4
 11
-41.2065
 21
4.61143
 31
4
  0
LINE
  5
E44
330
A02
100
AcDbEntity
  8
ShapeString008
100
AcDbLine
 10
-41.2065
 20
4.61143
 30
4
 11
-41.1209
 21
4.69371
 31
4
  0
LINE
  5
E45
330
A02
100
AcDbEntity
  8
ShapeString008
100
AcDbLine
 10
-41.1209
 20
4.69371
 30
4
 11
-40.7917
 21
4.69371
 31
4
  0
LINE
  5
E46
330
A02
100
AcDbEntity
  8
ShapeString008
100
AcDbLine
 10
-40.7917
 20
4.69371
 30
4
 11
-40.6765
 21
4.57854
 31
4
  0
LINE
  5
E47
330
A02
100
AcDbEntity
  8
ShapeString008
100
AcDbLine
 10
-40.6765
 20
4.57854
 30
4
 11
-40.637
 21
4.57854
 31
4
  0
LINE
  5
E48
330
A02
100
AcDbEntity
  8
ShapeString008
100
AcDbLine
 10
-40.637
 20
4.57854
 30
4
 11
-40.512
 21
4.69371
 31
4
  0
LINE
  5
E49
330
A02
100
AcDbEntity
  8
ShapeString008
100
AcDbLine
 10
-40.512
 20
4.69371
 30
4
 11
-40.1828
 21
4.69371
 31
4
  0
LINE
  5
E4A
330
A02
100
AcDbEntity
  8
ShapeString008
100
AcDbLine
 10
-40.1828
 20
4.69371
 30
4
 11
-39.9787
 21
4.48982
 31
4
  0
LINE
  5
E4B
330
A02
100
AcDbEntity
  8
ShapeString008
100
AcDbLine
 10
-39.9787
 20
4.48982
 30
4
 11
-39.9787
 21
3
 31
4
  0
LINE
  5
E4C
330
A02
100
AcDbEntity
  8
ShapeString008
100
AcDbLine
 10
-39.9787
 20
3
 30
4
 11
-40.1565
 21
3
 31
4
  0
LINE
  5
E4D
330
A02
100
AcDbEntity
  8
ShapeString008
100
AcDbLine
 10
-40.1565
 20
3
 30
4
 11
-40.1565
 21
4.42414
 31
4
  0
LINE
  5
E4E
330
A02
100
AcDbEntity
  8
ShapeString008
100
AcDbLine
 10
-40.1565
 20
4.42414
 30
4
 11
-40.2651
 21
4.536
 31
4
  0
LINE
  5
E4F
330
A02
100
AcDbEntity
  8
ShapeString008
100
AcDbLine
 10
-40.2651
 20
4.536
 30
4
 11
-40.4691
 21
4.536
 31
4
  0
LINE
  5
E50
330
A02
100
AcDbEntity
  8
ShapeString008
100
AcDbLine
 10
-40.4691
 20
4.536
 30
4
 11
-40.5876
 21
4.42414
 31
4
  0
LINE
  5
E51
330
A02
100
AcDbEntity
  8
ShapeString008
100
AcDbLine
 10
-40.5876
 20
4.42414
 30
4
 11
-40.5876
 21
3
 31
4
  0
LINE
  5
E52
330
A02
100
AcDbEntity
  8
ShapeString008
100
AcDbLine
 10
-40.5876
 20
3
 30
4
 11
-40.7654
 21
3
 31
4
  0
LINE
  5
E53
330
A02
100
AcDbEntity
  8
ShapeString008
100
AcDbLine
 10
-40.7654
 20
3
 30
4
 11
-40.7654
 21
4.42414
 31
4
  0
LINE
  5
E54
330
A02
100
AcDbEntity
  8
ShapeString008
100
AcDbLine
 10
-40.7654
 20
4.42414
 30
4
 11
-40.874
 21
4.536
 31
4
  0
LINE
  5
E55
330
A02
100
AcDbEntity
  8
ShapeString008
100
AcDbLine
 10
-40.874
 20
4.536
 30
4
 11
-41.0781
 21
4.536
 31
4
  0
LINE
  5
E56
330
A02
100
AcDbEntity
  8
ShapeString008
100
AcDbLine
 10
-41.0781
 20
4.536
 30
4
 11
-41.1966
 21
4.42414
 31
4
  0
LINE
  5
E57
330
A02
100
AcDbEntity
  8
ShapeString008
100
AcDbLine
 10
-41.1966
 20
4.42414
 30
4
 11
-41.1966
 21
3
 31
4
  0
LINE
  5
E58
330
A02
100
AcDbEntity
  8
ShapeString008
100
AcDbLine
 10
-41.1966
 20
3
 30
4
 11
-41.3743
 21
3
 31
4
  0
LINE
  5
E59
330
A02
100
AcDbEntity
  8
ShapeString008
100
AcDbLine
 10
-39.6641
 20
3
 30
4
 11
-39.6641
 21
5.304
 31
4
  0
LINE
  5
E5A
330
A02
100
AcDbEntity
  8
ShapeString008
100
AcDbLine
 10
-39.6641
 20
5.304
 30
4
 11
-39.4864
 21
5.304
 31
4
  0
LINE
  5
E5B
330
A02
100
AcDbEntity
  8
ShapeString008
100
AcDbLine
 10
-39.4864
 20
5.304
 30
4
 11
-39.4864
 21
4.61143
 31
4
  0
LINE
  5
E5C
330
A02
100
AcDbEntity
  8
ShapeString008
100
AcDbLine
 10
-39.4864
 20
4.61143
 30
4
 11
-39.4567
 21
4.61143
 31
4
  0
LINE
  5
E5D
330
A02
100
AcDbEntity
  8
ShapeString008
100
AcDbLine
 10
-39.4567
 20
4.61143
 30
4
 11
-39.3712
 21
4.69371
 31
4
  0
LINE
  5
E5E
330
A02
100
AcDbEntity
  8
ShapeString008
100
AcDbLine
 10
-39.3712
 20
4.69371
 30
4
 11
-39.0585
 21
4.69371
 31
4
  0
LINE
  5
E5F
330
A02
100
AcDbEntity
  8
ShapeString008
100
AcDbLine
 10
-39.0585
 20
4.69371
 30
4
 11
-38.8511
 21
4.4865
 31
4
  0
LINE
  5
E60
330
A02
100
AcDbEntity
  8
ShapeString008
100
AcDbLine
 10
-38.8511
 20
4.4865
 30
4
 11
-38.8511
 21
3.20721
 31
4
  0
LINE
  5
E61
330
A02
100
AcDbEntity
  8
ShapeString008
100
AcDbLine
 10
-38.8511
 20
3.20721
 30
4
 11
-39.0585
 21
3
 31
4
  0
LINE
  5
E62
330
A02
100
AcDbEntity
  8
ShapeString008
100
AcDbLine
 10
-39.0585
 20
3
 30
4
 11
-39.6641
 21
3
 31
4
  0
LINE
  5
E63
330
A02
100
AcDbEntity
  8
ShapeString008
100
AcDbLine
 10
-39.4864
 20
3.15771
 30
4
 11
-39.1407
 21
3.15771
 31
4
  0
LINE
  5
E64
330
A02
100
AcDbEntity
  8
ShapeString008
100
AcDbLine
 10
-39.1407
 20
3.15771
 30
4
 11
-39.0256
 21
3.27289
 31
4
  0
LINE
  5
E65
330
A02
100
AcDbEntity
  8
ShapeString008
100
AcDbLine
 10
-39.0256
 20
3.27289
 30
4
 11
-39.0256
 21
4.42082
 31
4
  0
LINE
  5
E66
330
A02
100
AcDbEntity
  8
ShapeString008
100
AcDbLine
 10
-39.0256
 20
4.42082
 30
4
 11
-39.1407
 21
4.536
 31
4
  0
LINE
  5
E67
330
A02
100
AcDbEntity
  8
ShapeString008
100
AcDbLine
 10
-39.1407
 20
4.536
 30
4
 11
-39.3383
 21
4.536
 31
4
  0
LINE
  5
E68
330
A02
100
AcDbEntity
  8
ShapeString008
100
AcDbLine
 10
-39.3383
 20
4.536
 30
4
 11
-39.4864
 21
4.39457
 31
4
  0
LINE
  5
E69
330
A02
100
AcDbEntity
  8
ShapeString008
100
AcDbLine
 10
-39.4864
 20
4.39457
 30
4
 11
-39.4864
 21
3.15771
 31
4
  0
ENDSEC
  0
SECTION
  2
OBJECTS
  0
DICTIONARY
  5
F000
330
0
100
AcDbDictionary
  3
ACAD_GROUP
350
F001
  0
DICTIONARY
  5
F001
330
F000
100
AcDbDictionary
  0
ENDSEC
  0
EOF