  0
SECTION
  2
HEADER
  9
$ACADVER
  1
AC1009
  9
$INSBASE
 10
0.0
 20
0.0
 30
0.0
  9
$EXTMIN
 10
0.0
 20
0.0
 30
0.0
  9
$EXTMAX
 10
0.0
 20
0.0
 30
0.0
  0
ENDSEC
  0
SECTION
  2
TABLES
  0
TABLE
  2
VPORT
 70
0
  0
ENDTAB
  0
TABLE
  2
LTYPE
 70
1
  0
LTYPE
  2
CONTINUOUS
 70
0
  3
Solid line
 72
65
 73
0
 40
0.0
  0
ENDTAB
  0
TABLE
  2
LAYER
 70
1
  0
LAYER
  2
0
 70
64
 62
7
  6
continuous
  0
ENDTAB
  0
TABLE
  2
STYLE
 70
1
  0
STYLE
  2
STANDARD
 70
0
 40
0
 41
1.0
 50
0.0
 71
0
 42
1
 3
ARIAL.TTF
 4

  0
ENDTAB
  0
TABLE
  2
VIEW
 70
0
  0
ENDTAB
  0
ENDSEC
  0
SECTION
  2
BLOCKS
  0
BLOCK
  8
0
  2
POLARPATTERN
 70
0
 10
0.0
 20
0.0
 30
0.0
  3
POLARPATTERN
  0
ARC
  8
0
 62
0
 10
4.440892098500626e-16
 20
0.0
 30
0.0
 40
55.0
 50
91.87546949845782
 51
133.12453050154113
  0
LINE
  8
0
 62
0
 10
-37.59724767035516
 20
40.14283208262674
 30
0.0
 11
-30.547012947258843
 21
33.09259735953043
 31
0.0
  0
LINE
  8
0
 62
0
 10
33.09259735953043
 20
30.54701294725885
 30
0.0
 11
30.54701294725886
 21
33.09259735953042
 31
0.0
  0
LINE
  8
0
 62
0
 10
40.14283208262674
 20
37.59724767035516
 30
0.0
 11
33.09259735953043
 21
30.54701294725885
 31
0.0
  0
ARC
  8
0
 62
0
 10
4.440892098500626e-16
 20
0.0
 30
0.0
 40
55.0
 50
1.8754694984577662
 51
43.12453050154116
  0
LINE
  8
0
 62
0
 10
45.0
 20
1.7999999999999945
 30
0.0
 11
54.97053756331659
 21
1.7999999999999934
 31
0.0
  0
LINE
  8
0
 62
0
 10
45.0
 20
-1.8000000000000056
 30
0.0
 11
45.0
 21
1.7999999999999945
 31
0.0
  0
LINE
  8
0
 62
0
 10
54.970537563316476
 20
-1.8000000000000067
 30
0.0
 11
45.0
 21
-1.8000000000000054
 31
0.0
  0
ARC
  8
0
 62
0
 10
4.440892098500626e-16
 20
0.0
 30
0.0
 40
55.0
 50
-43.12453050154116
 51
-1.8754694984595155
  0
LINE
  8
0
 62
0
 10
33.09259735953042
 20
-30.547012947258853
 30
0.0
 11
40.14283208262674
 21
-37.59724767035517
 31
0.0
  0
LINE
  8
0
 62
0
 10
30.54701294725885
 20
-33.09259735953042
 30
0.0
 11
33.09259735953042
 21
-30.547012947258853
 31
0.0
  0
LINE
  8
0
 62
0
 10
37.597247670355166
 20
-40.14283208262674
 30
0.0
 11
30.54701294725885
 21
-33.09259735953042
 31
0.0
  0
ARC
  8
0
 62
0
 10
4.440892098500626e-16
 20
0.0
 30
0.0
 40
55.0
 50
-88.12453050154231
 51
-46.87546949845889
  0
LINE
  8
0
 62
0
 10
1.7999999999999954
 20
-45.0
 30
0.0
 11
1.7999999999999943
 21
-54.9705375633166
 31
0.0
  0
LINE
  8
0
 62
0
 10
-1.8000000000000047
 20
-45.0
 30
0.0
 11
1.7999999999999954
 21
-45.0
 31
0.0
  0
LINE
  8
0
 62
0
 10
-1.8000000000000056
 20
-54.97053756331659
 30
0.0
 11
-1.8000000000000045
 21
-45.0
 31
0.0
  0
ARC
  8
0
 62
0
 10
4.440892098500626e-16
 20
0.0
 30
0.0
 40
55.0
 50
-133.12453050154113
 51
-91.87546949845779
  0
LINE
  8
0
 62
0
 10
-30.547012947258853
 20
-33.09259735953042
 30
0.0
 11
-37.59724767035516
 21
-40.14283208262673
 31
0.0
  0
LINE
  8
0
 62
0
 10
-33.09259735953042
 20
-30.54701294725885
 30
0.0
 11
-30.547012947258853
 21
-33.09259735953042
 31
0.0
  0
LINE
  8
0
 62
0
 10
-40.14283208262674
 20
-37.597247670355166
 30
0.0
 11
-33.09259735953042
 21
-30.54701294725885
 31
0.0
  0
ARC
  8
0
 62
0
 10
4.440892098500626e-16
 20
0.0
 30
0.0
 40
55.0
 50
-178.12453050154107
 51
-136.87546949845887
  0
LINE
  8
0
 62
0
 10
-45.0
 20
-1.8
 30
0.0
 11
-54.97053756331652
 21
-1.8
 31
0.0
  0
LINE
  8
0
 62
0
 10
-45.0
 20
1.8
 30
0.0
 11
-45.0
 21
-1.8
 31
0.0
  0
LINE
  8
0
 62
0
 10
-54.970537563316526
 20
1.8
 30
0.0
 11
-45.0
 21
1.8
 31
0.0
  0
ARC
  8
0
 62
0
 10
4.440892098500626e-16
 20
0.0
 30
0.0
 40
55.0
 50
136.87546949845887
 51
178.12453050154127
  0
LINE
  8
0
 62
0
 10
-33.092597359530416
 20
30.54701294725886
 30
0.0
 11
-40.142832082626725
 21
37.59724767035517
 31
0.0
  0
LINE
  8
0
 62
0
 10
-30.547012947258843
 20
33.09259735953043
 30
0.0
 11
-33.092597359530416
 21
30.54701294725886
 31
0.0
  0
LINE
  8
0
 62
0
 10
-1.7999999999999896
 20
45.0
 30
0.0
 11
-1.7999999999999874
 21
54.97053756331659
 31
0.0
  0
LINE
  8
0
 62
0
 10
1.8000000000000105
 20
45.0
 30
0.0
 11
-1.7999999999999896
 21
45.0
 31
0.0
  0
LINE
  8
0
 62
0
 10
1.8000000000000127
 20
54.97053756331669
 30
0.0
 11
1.8000000000000105
 21
45.0
 31
0.0
  0
ARC
  8
0
 62
0
 10
4.440892098500626e-16
 20
0.0
 30
0.0
 40
55.0
 50
46.87546949845888
 51
88.12453050154376
  0
LINE
  8
0
 62
0
 10
30.54701294725886
 20
33.09259735953042
 30
0.0
 11
37.59724767035517
 21
40.14283208262673
 31
0.0
  0
ENDBLK
  0
BLOCK
  8
0
  2
BODY001
 70
0
 10
0.0
 20
0.0
 30
0.0
  3
BODY001
  0
LINE
  8
0
 62
0
 10
50.000000000018034
 20
72.0000000000002
 30
0.0
 11
36.800000000000004
 21
72.0000000000002
 31
0.0
  0
LINE
  8
0
 62
0
 10
36.8
 20
72.0000000000002
 30
0.0
 11
36.8
 21
82.0
 31
0.0
  0
LINE
  8
0
 62
0
 10
36.8
 20
82.0
 30
0.0
 11
33.199999999999996
 21
82.0
 31
0.0
  0
LINE
  8
0
 62
0
 10
33.2
 20
82.0
 30
0.0
 11
33.2
 21
72.0
 31
0.0
  0
LINE
  8
0
 62
0
 10
33.2
 20
72.0
 30
0.0
 11
-50.000000000000014
 21
72.0
 31
0.0
  0
ARC
  8
0
 62
0
 10
-50.00011839804256
 20
82.0
 30
0.0
 40
10.000000000700902
 50
90.0006783708141
 51
-89.99932162918596
  0
LINE
  8
0
 62
0
 10
-50.00023679608512
 20
91.9999999999998
 30
0.0
 11
49.999763203933014
 21
91.9999999999998
 31
0.0
  0
ARC
  8
0
 62
0
 10
49.99988160195744
 20
82.0
 30
0.0
 40
10.0000000007007
 50
-89.99932162908259
 51
90.00067837071016
  0
ENDBLK
  0
ENDSEC
  0
SECTION
  2
ENTITIES
  0
INSERT
  2
POLARPATTERN
  8
0
 62
0
 10
0.0
 20
0.0
 30
0.0
  0
INSERT
  2
BODY001
  8
0
 62
0
 10
0.0
 20
0.0
 30
0.0
  0
ENDSEC
  0
EOF
