0
SECTION
2
HEADER
9
$INSUNITS
70
4
9
$ACADVER
1
AC1014
9
$HANDSEED
5
FFFF
0
ENDSEC
0
SECTION
2
TABLES
0
TABLE
2
VPORT
5
8
100
AcDbSymbolTable
0
ENDTAB
0
TABLE
2
LTYPE
5
5
100
AcDbSymbolTable
0
LTYPE
5
14
100
AcDbSymbolTableRecord
100
AcDbLinetypeTableRecord
2
BYBLOCK
70
0
0
LTYPE
5
15
100
AcDbSymbolTableRecord
100
AcDbLinetypeTableRecord
2
BYLAYER
70
0
0
ENDTAB
0
TABLE
2
LAYER
5
2
100
AcDbSymbolTable
70
2
0
LAYER
5
50
100
AcDbSymbolTableRecord
100
AcDbLayerTableRecord
2
0
70
0
6
CONTINUOUS
0
ENDTAB
0
TABLE
2
STYLE
5
3
100
AcDbSymbolTable
70
1
0
STYLE
5
11
100
AcDbSymbolTableRecord
100
AcDbTextStyleTableRecord
2
STANDARD
70
0
0
ENDTAB
0
TABLE
2
VIEW
5
6
100
AcDbSymbolTable
70
0
0
ENDTAB
0
TABLE
2
UCS
5
7
100
AcDbSymbolTable
70
0
0
ENDTAB
0
TABLE
2
APPID
5
9
100
AcDbSymbolTable
70
2
0
APPID
5
12
100
AcDbSymbolTableRecord
100
AcDbRegAppTableRecord
2
ACAD
70
0
0
ENDTAB
0
TABLE
2
DIMSTYLE
5
A
100
AcDbSymbolTable
70
1
0
ENDTAB
0
TABLE
2
BLOCK_RECORD
5
1
100
AcDbSymbolTable
70
1
0
BLOCK_RECORD
5
1F
100
AcDbSymbolTableRecord
100
AcDbBlockTableRecord
2
*MODEL_SPACE
0
BLOCK_RECORD
5
1B
100
AcDbSymbolTableRecord
100
AcDbBlockTableRecord
2
*PAPER_SPACE
0
ENDTAB
0
ENDSEC
0
SECTION
2
BLOCKS
0
BLOCK
5
20
100
AcDbEntity
100
AcDbBlockBegin
2
*MODEL_SPACE
0
ENDBLK
5
21
100
AcDbEntity
100
AcDbBlockEnd
0
BLOCK
5
1C
100
AcDbEntity
100
AcDbBlockBegin
2
*PAPER_SPACE
0
ENDBLK
5
1D
100
AcDbEntity
100
AcDbBlockEnd
0
ENDSEC
0
SECTION
2
ENTITIES
0
CIRCLE
5
100
100
AcDbEntity
8
0
100
AcDbCircle
10
-71.482303200426571
20
-13.266481894921622
30
0
40
6.1971648984259486
210
0
220
0
230
1
0
CIRCLE
5
101
100
AcDbEntity
8
0
100
AcDbCircle
10
-71.482303200426571
20
-13.266481894921622
30
0
40
3.49121278139366
210
0
220
0
230
1
0
LWPOLYLINE
5
102
100
AcDbEntity
8
0
100
AcDbPolyline
90
3
70
1
43
0.0
10
-73.680474210933696
20
-6.2840563321342868
10
-69.672044721185415
20
-6.2840563321342868
10
-71.676259466059548
20
-1.8877143111200345
0
LWPOLYLINE
5
103
100
AcDbEntity
8
0
100
AcDbPolyline
90
3
70
1
43
0.0
10
-78.000001162290573
20
-9.0000001341104507
10
-76.000001132488251
20
-7.0000001043081284
10
-79.429975534932936
20
-5
0
LWPOLYLINE
5
104
100
AcDbEntity
8
0
100
AcDbPolyline
90
3
70
1
43
0.0
10
-78.714988348611755
20
-11.000000163912773
10
-78.714988348611755
20
-14.823564298753615
10
-82.978033286113074
20
-12.911782231333193
0
LWPOLYLINE
5
105
100
AcDbEntity
8
0
100
AcDbPolyline
90
3
70
1
43
0.0
10
-76.000001132488251
20
-19.000000283122063
10
-78.000001162290573
20
-17.00000025331974
10
-79.508009327498854
20
-20.573182658139682
0
LWPOLYLINE
5
106
100
AcDbEntity
8
0
100
AcDbPolyline
90
3
70
1
43
0.0
10
-65.000000968575478
20
-9.0000001341104507
10
-67.0000009983778
20
-7.0000001043081284
10
-64.000000953674316
20
-6.0000000894069672
0
LWPOLYLINE
5
107
100
AcDbEntity
8
0
100
AcDbPolyline
90
3
70
1
43
0.0
10
-64.500000961124897
20
-14.339738241774509
10
-64.500000961124897
20
-11.114231195247129
10
-59.661740391333822
20
-12.726984718510819
0
LWPOLYLINE
5
108
100
AcDbEntity
8
0
100
AcDbPolyline
90
3
70
1
43
0.0
10
-66.000000983476639
20
-19.000000283122063
10
-64.500000961124897
20
-16.920143878996413
10
-63.000000938773155
20
-20.000000298023224
0
LWPOLYLINE
5
109
100
AcDbEntity
8
0
100
AcDbPolyline
90
3
70
1
43
0.0
10
-70.000001043081284
20
-21.000000312924385
10
-74.000001102685928
20
-21.000000312924385
10
-72.000001072883606
20
-24.000000357627869
0
LWPOLYLINE
5
110
100
AcDbEntity
8
0
100
AcDbPolyline
90
6
70
1
43
0.0
10
-59.00000087916851
20
-24.000000357627869
10
-59.00000087916851
20
-3.0000000447034836
10
-54.000000804662704
20
-3.0000000447034836
10
-57.000000849366188
20
-22.000000327825546
10
-49.000000730156898
20
-20.000000298023224
10
-49.000000730156898
20
-24.000000357627869
0
LWPOLYLINE
5
111
100
AcDbEntity
8
0
100
AcDbPolyline
90
4
70
1
43
0.0
10
-40.017349033106811
20
-2.8291376558595838
10
-46.632594191652295
20
-23.917322193877265
10
-40.017349033106811
20
-17.39974964092497
10
-32.717592846869927
20
-23.917322193877265
0
LWPOLYLINE
5
112
100
AcDbEntity
8
0
100
AcDbPolyline
90
12
70
1
43
0.0
10
-13.38891301625396
20
-22.684510607908173
10
-13.38891301625396
20
-3.2529019856468553
10
-3.5339936837016328
20
-3.2529019856468553
10
-3.5339936837016328
20
-8.1153556840412922
10
-10.602197557656856
20
-5.6841288348440733
10
-10.602197557656856
20
-7.5383594494327077
10
-10.602197557656856
20
-10.711838739779944
10
-5.5930816267939427
20
-13.517710591887509
10
-10.602197557656856
20
-15
10
-10.602197557656856
20
-20.592899257452039
10
-3.5339936837016328
20
-18.501287906995906
10
-3.5339936837016328
20
-22.684510607908173
0
LWPOLYLINE
5
113
100
AcDbEntity
8
0
100
AcDbPolyline
90
6
70
1
43
0.0
10
0
20
-3.3551367485204331
10
0
20
-22.684510607908173
10
3.2457120729492939
20
-20.068553929314021
10
10
20
-23.511057714110052
10
3.2457120729492939
20
-16.626050144517986
10
10
20
-10
0
LWPOLYLINE
5
114
100
AcDbEntity
8
0
100
AcDbPolyline
90
3
70
1
43
0.0
10
1.6228560364746469
20
-13.019823678214305
10
1.6228560364746469
20
-9.2693481532584698
10
5.2651988940793526
20
-11.144585915736387
0
LWPOLYLINE
5
115
100
AcDbEntity
8
0
100
AcDbPolyline
90
3
70
1
43
0.0
10
-41.356279544509647
20
-14.612698208141037
10
-40.017349033106811
20
-10
10
-37.8652696429127
20
-15.183559557996515
0
LWPOLYLINE
5
116
100
AcDbEntity
8
0
100
AcDbPolyline
90
9
70
1
43
0.0
10
-84.746213704860594
20
-3.0000000447034827
10
-84.746213704860594
20
-6.9613632148241145
10
-84.746213704860594
20
-10
10
-91.07411920346506
20
-6.3465369317377318
10
-82.614594877987471
20
-22.149021030183356
10
-93.939735875081354
20
-22.149021030183356
10
-97.681259759419078
20
-15.159813432761622
10
-88.677000553131663
20
-18.501287906995906
10
-98.000001460313797
20
-3.0000000447034836
0
LWPOLYLINE
5
117
100
AcDbEntity
8
0
100
AcDbPolyline
90
8
70
1
43
0.0
10
-30
20
-22.766812315677534
10
-17.072092968790194
20
-22.766812315677534
10
-27.102467560546906
20
-7.4286506043163314
10
-20
20
-10
10
-20
20
-3.9562483586135855
10
-33.577501036378905
20
-3.9562483586135855
10
-23.277982370939654
20
-19.705977483338394
10
-30.437555622760296
20
-16.891337316824711
0
ENDSEC
0
SECTION
2
OBJECTS
0
DICTIONARY
5
C
100
AcDbDictionary
3
ACAD_GROUP
350
D
3
ACAD_MLINESTYLE
350
17
0
DICTIONARY
5
D
100
AcDbDictionary
0
DICTIONARY
5
1A
330
C
100
AcDbDictionary
0
DICTIONARY
5
17
100
AcDbDictionary
0
ENDSEC
0
EOF
