0
SECTION
2
HEADER
9
$INSUNITS
70
4
9
$ACADVER
1
AC1014
9
$HANDSEED
5
FFFF
0
ENDSEC
0
SECTION
2
TABLES
0
TABLE
2
VPORT
5
8
100
AcDbSymbolTable
0
ENDTAB
0
TABLE
2
LTYPE
5
5
100
AcDbSymbolTable
0
LTYPE
5
14
100
AcDbSymbolTableRecord
100
AcDbLinetypeTableRecord
2
BYBLOCK
70
0
0
LTYPE
5
15
100
AcDbSymbolTableRecord
100
AcDbLinetypeTableRecord
2
BYLAYER
70
0
0
ENDTAB
0
TABLE
2
LAYER
5
2
100
AcDbSymbolTable
70
2
0
LAYER
5
50
100
AcDbSymbolTableRecord
100
AcDbLayerTableRecord
2
0
70
0
6
CONTINUOUS
0
ENDTAB
0
TABLE
2
STYLE
5
3
100
AcDbSymbolTable
70
1
0
STYLE
5
11
100
AcDbSymbolTableRecord
100
AcDbTextStyleTableRecord
2
STANDARD
70
0
0
ENDTAB
0
TABLE
2
VIEW
5
6
100
AcDbSymbolTable
70
0
0
ENDTAB
0
TABLE
2
UCS
5
7
100
AcDbSymbolTable
70
0
0
ENDTAB
0
TABLE
2
APPID
5
9
100
AcDbSymbolTable
70
2
0
APPID
5
12
100
AcDbSymbolTableRecord
100
AcDbRegAppTableRecord
2
ACAD
70
0
0
ENDTAB
0
TABLE
2
DIMSTYLE
5
A
100
AcDbSymbolTable
70
1
0
ENDTAB
0
TABLE
2
BLOCK_RECORD
5
1
100
AcDbSymbolTable
70
1
0
BLOCK_RECORD
5
1F
100
AcDbSymbolTableRecord
100
AcDbBlockTableRecord
2
*MODEL_SPACE
0
BLOCK_RECORD
5
1B
100
AcDbSymbolTableRecord
100
AcDbBlockTableRecord
2
*PAPER_SPACE
0
ENDTAB
0
ENDSEC
0
SECTION
2
BLOCKS
0
BLOCK
5
20
100
AcDbEntity
100
AcDbBlockBegin
2
*MODEL_SPACE
0
ENDBLK
5
21
100
AcDbEntity
100
AcDbBlockEnd
0
BLOCK
5
1C
100
AcDbEntity
100
AcDbBlockBegin
2
*PAPER_SPACE
0
ENDBLK
5
1D
100
AcDbEntity
100
AcDbBlockEnd
0
ENDSEC
0
SECTION
2
ENTITIES
0
LINE
5
100
100
AcDbEntity
8
0
100
AcDbLine
10
247.50589052400005
20
15.731993008000003
30
0
11
247.87989202000006
21
15.731993008000003
31
0
0
LINE
5
101
100
AcDbEntity
8
0
100
AcDbLine
10
247.50589052400005
20
12.739996
30
0
11
247.13188828
21
12.739996
31
0
0
SPLINE
5
102
100
AcDbEntity
8
0
100
AcDbSpline
70
0
71
3
72
8
73
4
74
0
42
0.000000001
43
0.0000000001
44
0.0000000001
40
0
40
0
40
0
40
0
40
1
40
1
40
1
40
1
10
247.13188828
20
12.739996
30
0
10
246.47963676800003
20
14.015333755999999
30
0
10
246.44148876800003
20
14.718451512000001
30
0
10
247.50589052400005
20
15.731993008000003
30
0
0
LINE
5
103
100
AcDbEntity
8
0
100
AcDbLine
10
247.87989202000006
20
15.731993008000003
30
0
11
247.87989202000006
21
12.739996
31
0
0
LINE
5
104
100
AcDbEntity
8
0
100
AcDbLine
10
247.87989202000006
20
12.739996
30
0
11
247.50589052400005
21
12.739996
31
0
0
LINE
5
105
100
AcDbEntity
8
0
100
AcDbLine
10
155.87593241200003
20
15.731993008000003
30
0
11
155.87593241200003
21
12.739996
31
0
0
LINE
5
106
100
AcDbEntity
8
0
100
AcDbLine
10
63.123969812000013
20
12.739996
30
0
11
62.749974300000005
21
12.739996
31
0
0
LINE
5
107
100
AcDbEntity
8
0
100
AcDbLine
10
62.749974300000005
20
12.739996
30
0
11
62.375972056000002
21
12.739996
31
0
0
LINE
5
108
100
AcDbEntity
8
0
100
AcDbLine
10
155.50193091599999
20
12.739996
30
0
11
155.12792942000002
21
12.739996
31
0
0
SPLINE
5
109
100
AcDbEntity
8
0
100
AcDbSpline
70
0
71
3
72
8
73
4
74
0
42
0.000000001
43
0.0000000001
44
0.0000000001
40
0
40
0
40
0
40
0
40
1
40
1
40
1
40
1
10
62.375972056000002
20
12.739996
30
0
10
61.723714560000005
20
14.015333755999999
30
0
10
61.685566560000012
20
14.718451512000001
30
0
10
62.749974300000005
20
15.731993008000003
30
0
0
LINE
5
110
100
AcDbEntity
8
0
100
AcDbLine
10
155.50193091599999
20
15.731993008000003
30
0
11
155.87593241200003
21
15.731993008000003
31
0
0
LINE
5
111
100
AcDbEntity
8
0
100
AcDbLine
10
62.749974300000005
20
15.731993008000003
30
0
11
63.123969812000013
21
15.731993008000003
31
0
0
SPLINE
5
112
100
AcDbEntity
8
0
100
AcDbSpline
70
0
71
3
72
8
73
4
74
0
42
0.000000001
43
0.0000000001
44
0.0000000001
40
0
40
0
40
0
40
0
40
1
40
1
40
1
40
1
10
155.12792942000002
20
12.739996
30
0
10
154.47567715999998
20
14.015333755999999
30
0
10
154.43752916
20
14.718451512000001
30
0
10
155.50193091599999
20
15.731993008000003
30
0
0
LINE
5
113
100
AcDbEntity
8
0
100
AcDbLine
10
155.87593241200003
20
12.739996
30
0
11
155.50193091599999
21
12.739996
31
0
0
LINE
5
114
100
AcDbEntity
8
0
100
AcDbLine
10
63.123969812000013
20
15.731993008000003
30
0
11
63.123969812000013
21
12.739996
31
0
0
LINE
5
115
100
AcDbEntity
8
0
100
AcDbLine
10
340.25784714000002
20
15.731993008000003
30
0
11
340.63184863599997
21
15.731993008000003
31
0
0
SPLINE
5
116
100
AcDbEntity
8
0
100
AcDbSpline
70
0
71
3
72
8
73
4
74
0
42
0.000000001
43
0.0000000001
44
0.0000000001
40
0
40
0
40
0
40
0
40
1
40
1
40
1
40
1
10
348.45106364400004
20
10.600713755999999
30
0
10
344.00756964399994
20
9.6245737560000002
30
0
10
338.45142788800001
20
10.495997496000001
30
0
10
333.89985162799996
20
10.495997496000001
30
0
0
LINE
5
117
100
AcDbEntity
8
0
100
AcDbLine
10
340.63184863599997
20
12.739996
30
0
11
340.25784714000002
21
12.739996
31
0
0
LINE
5
118
100
AcDbEntity
8
0
100
AcDbLine
10
12.259994496000001
20
11.991993008000001
30
0
11
15.251993000000002
21
8.9999960000000012
31
0
0
SPLINE
5
119
100
AcDbEntity
8
0
100
AcDbSpline
70
0
71
3
72
8
73
4
74
0
42
0.000000001
43
0.0000000001
44
0.0000000001
40
0
40
0
40
0
40
0
40
1
40
1
40
1
40
1
10
339.88385088000007
20
12.739996
30
0
10
339.23159338400001
20
14.015333755999999
30
0
10
339.19344538399997
20
14.718451512000001
30
0
10
340.25784714000002
20
15.731993008000003
30
0
0
SPLINE
5
120
100
AcDbEntity
8
0
100
AcDbSpline
70
0
71
3
72
8
73
4
74
0
42
0.000000001
43
0.0000000001
44
0.0000000001
40
0
40
0
40
0
40
0
40
1
40
1
40
1
40
1
10
364.56784040799994
20
9.7479937559999996
30
0
10
362.60471141599999
20
13.727356
30
0
10
358.529238652
20
15.885330764000001
30
0
10
354.16466089599999
20
14.879273756
30
0
0
LINE
5
121
100
AcDbEntity
8
0
100
AcDbLine
10
340.63184863599997
20
15.731993008000003
30
0
11
340.63184863599997
21
12.739996
31
0
0
LINE
5
122
100
AcDbEntity
8
0
100
AcDbLine
10
15.251993000000002
20
8.9999960000000012
30
0
11
12.259994496000001
21
11.991993008000001
31
0
0
SPLINE
5
123
100
AcDbEntity
8
0
100
AcDbSpline
70
0
71
3
72
8
73
4
74
0
42
0.000000001
43
0.0000000001
44
0.0000000001
40
0
40
0
40
0
40
0
40
1
40
1
40
1
40
1
10
354.16466089599999
20
14.879273756
30
0
10
351.76096214800003
20
14.325751512
30
0
10
350.88804614800006
20
11.135536748
30
0
10
348.45106364400004
20
10.600713755999999
30
0
0
SPLINE
5
124
100
AcDbEntity
8
0
100
AcDbSpline
70
0
71
3
72
8
73
4
74
0
42
0.000000001
43
0.0000000001
44
0.0000000001
40
0
40
0
40
0
40
0
40
1
40
1
40
1
40
1
10
71.725969812000002
20
10.495997496000001
30
0
10
66.366549063999997
20
10.495997496000001
30
0
10
59.786397552000011
20
9.4487960000000015
30
0
10
54.556757795999999
20
10.600713755999999
30
0
0
LINE
5
125
100
AcDbEntity
8
0
100
AcDbLine
10
108.00395036400002
20
10.495997496000001
30
0
11
71.725969812000002
21
10.495997496000001
31
0
0
LINE
5
126
100
AcDbEntity
8
0
100
AcDbLine
10
333.89985162799996
20
10.495997496000001
30
0
11
303.23186359600004
21
10.495997496000001
31
0
0
SPLINE
5
127
100
AcDbEntity
8
0
100
AcDbSpline
70
0
71
3
72
8
73
4
74
0
42
0.000000001
43
0.0000000001
44
0.0000000001
40
0
40
0
40
0
40
0
40
1
40
1
40
1
40
1
10
54.556757795999999
20
10.600713755999999
30
0
10
52.214397292000001
20
11.113096748
30
0
10
51.354197292000009
20
14.037773756
30
0
10
49.164054040000011
20
14.793255252
30
0
0
LINE
5
128
100
AcDbEntity
8
0
100
AcDbLine
10
340.25784714000002
20
12.739996
30
0
11
339.88385088000007
21
12.739996
31
0
0
LINE
5
129
100
AcDbEntity
8
0
100
AcDbLine
10
303.23186359600004
20
10.495997496000001
30
0
11
108.00395036400002
21
10.495997496000001
31
0
0
SPLINE
5
130
100
AcDbEntity
8
0
100
AcDbSpline
70
0
71
3
72
8
73
4
74
0
42
0.000000001
43
0.0000000001
44
0.0000000001
40
0
40
0
40
0
40
0
40
1
40
1
40
1
40
1
10
49.164054040000011
20
14.793255252
30
0
10
44.836876283999999
20
16.289250764000002
30
0
10
40.35112178
20
13.622633755999999
30
0
10
38.439982528000002
20
9.7479937559999996
30
0
0
LINE
5
131
100
AcDbEntity
8
0
100
AcDbLine
10
387.75582769200003
20
8.9999960000000012
30
0
11
390.74782470000002
21
11.991993008000001
31
0
0
SPLINE
5
132
100
AcDbEntity
8
0
100
AcDbSpline
70
0
71
3
72
8
73
4
74
0
42
0.000000001
43
0.0000000001
44
0.0000000001
40
0
40
0
40
0
40
0
40
1
40
1
40
1
40
1
10
372.30028517199997
20
15.174735252000001
30
0
10
367.960390668
20
13.701173755999999
30
0
10
365.77660391999996
20
20.736487008000005
30
0
10
370.29938367599993
20
22.272874519999995
30
0
0
SPLINE
5
133
100
AcDbEntity
8
0
100
AcDbSpline
70
0
71
3
72
8
73
4
74
0
42
0.000000001
43
0.0000000001
44
0.0000000001
40
0
40
0
40
0
40
0
40
1
40
1
40
1
40
1
10
33.039799520000003
20
14.509013756
30
0
10
38.440319127999999
20
16.345350764000003
30
0
10
35.801526224000007
20
24.783909024000003
30
0
10
30.376172268000001
20
22.939718016
30
0
0
SPLINE
5
134
100
AcDbEntity
8
0
100
AcDbSpline
70
0
71
3
72
8
73
4
74
0
42
0.000000001
43
0.0000000001
44
0.0000000001
40
0
40
0
40
0
40
0
40
1
40
1
40
1
40
1
10
61.840778804000024
20
16.158353008000002
30
0
10
59.809211552000008
20
15.032611512000001
30
0
10
61.276037308000006
20
10.997155251999999
30
0
10
63.659163812000003
20
12.313636748
30
0
0
SPLINE
5
135
100
AcDbEntity
8
0
100
AcDbSpline
70
0
71
3
72
8
73
4
74
0
42
0.000000001
43
0.0000000001
44
0.0000000001
40
0
40
0
40
0
40
0
40
1
40
1
40
1
40
1
10
156.41112641200002
20
12.313636748
30
0
10
158.44269141999999
20
13.439372260000003
30
0
10
156.97586267200001
20
17.474833755999999
30
0
10
154.59273542000003
20
16.158353008000002
30
0
0
SPLINE
5
136
100
AcDbEntity
8
0
100
AcDbSpline
70
0
71
3
72
8
73
4
74
0
42
0.000000001
43
0.0000000001
44
0.0000000001
40
0
40
0
40
0
40
0
40
1
40
1
40
1
40
1
10
341.16704263600002
20
12.313636748
30
0
10
343.19860764399999
20
13.439372260000003
30
0
10
341.73178413199992
20
17.474833755999999
30
0
10
339.34865762800001
20
16.158353008000002
30
0
0
SPLINE
5
137
100
AcDbEntity
8
0
100
AcDbSpline
70
0
71
3
72
8
73
4
74
0
42
0.000000001
43
0.0000000001
44
0.0000000001
40
0
40
0
40
0
40
0
40
1
40
1
40
1
40
1
10
30.376172268000001
20
22.939718016
30
0
10
24.975651912
20
21.103750520000002
30
0
10
27.614445564
20
12.66519226
30
0
10
33.039799520000003
20
14.509013756
30
0
0
SPLINE
5
138
100
AcDbEntity
8
0
100
AcDbSpline
70
0
71
3
72
8
73
4
74
0
42
0.000000001
43
0.0000000001
44
0.0000000001
40
0
40
0
40
0
40
0
40
1
40
1
40
1
40
1
10
248.41508602000002
20
12.313636748
30
0
10
250.44665102800002
20
13.439372260000003
30
0
10
248.97982153200002
20
17.474833755999999
30
0
10
246.59669502800003
20
16.158353008000002
30
0
0
SPLINE
5
139
100
AcDbEntity
8
0
100
AcDbSpline
70
0
71
3
72
8
73
4
74
0
42
0.000000001
43
0.0000000001
44
0.0000000001
40
0
40
0
40
0
40
0
40
1
40
1
40
1
40
1
10
154.59273542000003
20
16.158353008000002
30
0
10
152.56117041200002
20
15.032611512000001
30
0
10
154.027999908
20
10.997155251999999
30
0
10
156.41112641200002
20
12.313636748
30
0
0
SPLINE
5
140
100
AcDbEntity
8
0
100
AcDbSpline
70
0
71
3
72
8
73
4
74
0
42
0.000000001
43
0.0000000001
44
0.0000000001
40
0
40
0
40
0
40
0
40
1
40
1
40
1
40
1
10
21.609990008000004
20
8.251998244000001
30
0
10
19.960426355999999
20
8.251998244000001
30
0
10
17.154081452000003
20
7.6797782440000004
30
0
10
15.999993000000002
20
8.9999960000000012
30
0
0
SPLINE
5
141
100
AcDbEntity
8
0
100
AcDbSpline
70
0
71
3
72
8
73
4
74
0
42
0.000000001
43
0.0000000001
44
0.0000000001
40
0
40
0
40
0
40
0
40
1
40
1
40
1
40
1
10
370.29938367599993
20
22.272874519999995
30
0
10
374.63927818000002
20
23.747557267999998
30
0
10
376.82306492800001
20
16.711874504000001
30
0
10
372.30028517199997
20
15.174735252000001
30
0
0
LINE
5
142
100
AcDbEntity
8
0
100
AcDbLine
10
391.49582844000003
20
324.145844904
30
0
11
391.49582844000003
21
310.68185013999994
31
0
0
SPLINE
5
143
100
AcDbEntity
8
0
100
AcDbSpline
70
0
71
3
72
8
73
4
74
0
42
0.000000001
43
0.0000000001
44
0.0000000001
40
0
40
0
40
0
40
0
40
1
40
1
40
1
40
1
10
30.707461468000005
20
22.272874519999995
30
0
10
35.047580371999999
20
23.747557267999998
30
0
10
37.231140476
20
16.711874504000001
30
0
10
32.708510320000002
20
15.174735252000001
30
0
0
SPLINE
5
144
100
AcDbEntity
8
0
100
AcDbSpline
70
0
71
3
72
8
73
4
74
0
42
0.000000001
43
0.0000000001
44
0.0000000001
40
0
40
0
40
0
40
0
40
1
40
1
40
1
40
1
10
63.659163812000003
20
12.313636748
30
0
10
65.690734804000002
20
13.439372260000003
30
0
10
64.223905308000013
20
17.474833755999999
30
0
10
61.840778804000024
20
16.158353008000002
30
0
0
LINE
5
145
100
AcDbEntity
8
0
100
AcDbLine
10
391.49582844000003
20
17.975992260000002
30
0
11
390.74782470000002
21
12.739996
31
0
0
SPLINE
5
146
100
AcDbEntity
8
0
100
AcDbSpline
70
0
71
3
72
8
73
4
74
0
42
0.000000001
43
0.0000000001
44
0.0000000001
40
0
40
0
40
0
40
0
40
1
40
1
40
1
40
1
10
339.34865762800001
20
16.158353008000002
30
0
10
337.317086636
20
15.032611512000001
30
0
10
338.78391538399995
20
10.997155251999999
30
0
10
341.16704263600002
20
12.313636748
30
0
0
SPLINE
5
147
100
AcDbEntity
8
0
100
AcDbSpline
70
0
71
3
72
8
73
4
74
0
42
0.000000001
43
0.0000000001
44
0.0000000001
40
0
40
0
40
0
40
0
40
1
40
1
40
1
40
1
10
32.708510320000002
20
15.174735252000001
30
0
10
28.368392163999999
20
13.701173755999999
30
0
10
26.184831312
20
20.736487008000005
30
0
10
30.707461468000005
20
22.272874519999995
30
0
0
SPLINE
5
148
100
AcDbEntity
8
0
100
AcDbSpline
70
0
71
3
72
8
73
4
74
0
42
0.000000001
43
0.0000000001
44
0.0000000001
40
0
40
0
40
0
40
0
40
1
40
1
40
1
40
1
10
246.59669502800003
20
16.158353008000002
30
0
10
244.56512927200004
20
15.032611512000001
30
0
10
246.03195876800001
20
10.997155251999999
30
0
10
248.41508602000002
20
12.313636748
30
0
0
SPLINE
5
149
100
AcDbEntity
8
0
100
AcDbSpline
70
0
71
3
72
8
73
4
74
0
42
0.000000001
43
0.0000000001
44
0.0000000001
40
0
40
0
40
0
40
0
40
1
40
1
40
1
40
1
10
372.63165066800002
20
14.509013756
30
0
10
378.03183442399995
20
16.345350764000003
30
0
10
375.39326143200003
20
24.783909024000003
30
0
10
369.96802341599994
20
22.939718016
30
0
0
LINE
5
150
100
AcDbEntity
8
0
100
AcDbLine
10
382.14583068400003
20
333.49584041599996
30
0
11
387.00782993600001
21
332.74784116399996
31
0
0
LINE
5
151
100
AcDbEntity
8
0
100
AcDbLine
10
96.035957096000004
20
333.49584041599996
30
0
11
314.82586060400001
21
333.49584041599996
31
0
0
SPLINE
5
152
100
AcDbEntity
8
0
100
AcDbSpline
70
0
71
3
72
8
73
4
74
0
42
0.000000001
43
0.0000000001
44
0.0000000001
40
0
40
0
40
0
40
0
40
1
40
1
40
1
40
1
10
369.96802341599994
20
22.939718016
30
0
10
364.567464164
20
21.103750520000002
30
0
10
367.20640741599999
20
12.66519226
30
0
10
372.63165066800002
20
14.509013756
30
0
0
LINE
5
153
100
AcDbEntity
8
0
100
AcDbLine
10
387.00782993600001
20
8.9999960000000012
30
0
11
381.39783292799996
21
8.251998244000001
31
0
0
LINE
5
154
100
AcDbEntity
8
0
100
AcDbLine
10
15.625993000000001
20
8.9999960000000012
30
0
11
15.251993000000002
21
8.9999960000000012
31
0
0
LINE
5
155
100
AcDbEntity
8
0
100
AcDbLine
10
387.75582769200003
20
332.74784116399996
30
0
11
390.74782470000002
21
329.75584191199999
31
0
0
LINE
5
156
100
AcDbEntity
8
0
100
AcDbLine
10
15.999993000000002
20
8.9999960000000012
30
0
11
15.625993000000001
21
8.9999960000000012
31
0
0
LINE
5
157
100
AcDbEntity
8
0
100
AcDbLine
10
12.259994496000001
20
329.00784266000005
30
0
11
12.259994496000001
21
329.38184191200003
31
0
0
SPLINE
5
158
100
AcDbEntity
8
0
100
AcDbSpline
70
0
71
3
72
8
73
4
74
0
42
0.000000001
43
0.0000000001
44
0.0000000001
40
0
40
0
40
0
40
0
40
1
40
1
40
1
40
1
10
359.546140912
20
324.94695215600007
30
0
10
357.11289990400007
20
323.56995895599994
30
0
10
359.94258240799991
20
320.62224205199993
30
0
10
362.10953915599998
20
321.84873765199995
30
0
0
LINE
5
159
100
AcDbEntity
8
0
100
AcDbLine
10
15.999993000000002
20
332.74784116399996
30
0
11
21.235990756
21
333.49584041599996
31
0
0
SPLINE
5
160
100
AcDbEntity
8
0
100
AcDbSpline
70
0
71
3
72
8
73
4
74
0
42
0.000000001
43
0.0000000001
44
0.0000000001
40
0
40
0
40
0
40
0
40
1
40
1
40
1
40
1
10
40.898096780000003
20
324.94695215600007
30
0
10
38.465115327999996
20
323.56995895599994
30
0
10
41.294723780000012
20
320.62224205199993
30
0
10
43.461679032000006
20
321.84873765199995
30
0
0
LINE
5
161
100
AcDbEntity
8
0
100
AcDbLine
10
12.259994496000001
20
11.991993008000001
30
0
11
12.259994496000001
21
12.365994504000001
31
0
0
SPLINE
5
162
100
AcDbEntity
8
0
100
AcDbSpline
70
0
71
3
72
8
73
4
74
0
42
0.000000001
43
0.0000000001
44
0.0000000001
40
0
40
0
40
0
40
0
40
1
40
1
40
1
40
1
10
362.10953915599998
20
321.84873765199995
30
0
10
364.54278016400002
20
323.22573010399992
30
0
10
361.71309766000002
20
326.17344775600003
30
0
10
359.546140912
20
324.94695215600007
30
0
0
LINE
5
163
100
AcDbEntity
8
0
100
AcDbLine
10
36.195984023999998
20
333.49584041599996
30
0
11
96.035957096000004
21
333.49584041599996
31
0
0
LINE
5
164
100
AcDbEntity
8
0
100
AcDbLine
10
15.251993000000002
20
332.74784116399996
30
0
11
15.625993000000001
21
332.74784116399996
31
0
0
LINE
5
165
100
AcDbEntity
8
0
100
AcDbLine
10
21.235990756
20
333.49584041599996
30
0
11
36.195984023999998
21
333.49584041599996
31
0
0
LINE
5
166
100
AcDbEntity
8
0
100
AcDbLine
10
365.31583816400001
20
9.7479937559999996
30
0
11
364.56784040799994
21
9.7479937559999996
31
0
0
LINE
5
167
100
AcDbEntity
8
0
100
AcDbLine
10
12.259994496000001
20
12.365994504000001
30
0
11
12.259994496000001
21
12.739996
31
0
0
LINE
5
168
100
AcDbEntity
8
0
100
AcDbLine
10
387.00782993600001
20
332.74784116399996
30
0
11
387.38182619599996
21
332.74784116399996
31
0
0
LINE
5
169
100
AcDbEntity
8
0
100
AcDbLine
10
314.82586060400001
20
333.49584041599996
30
0
11
368.68183666800002
21
333.49584041599996
31
0
0
LINE
5
170
100
AcDbEntity
8
0
100
AcDbLine
10
387.75582769200003
20
8.9999960000000012
30
0
11
387.38182619599996
21
8.9999960000000012
31
0
0
LINE
5
171
100
AcDbEntity
8
0
100
AcDbLine
10
11.511994496
20
310.68185013999994
30
0
11
11.511994496
21
324.145844904
31
0
0
LINE
5
172
100
AcDbEntity
8
0
100
AcDbLine
10
390.74782470000002
20
12.739996
30
0
11
390.74782470000002
21
12.365994504000001
31
0
0
LINE
5
173
100
AcDbEntity
8
0
100
AcDbLine
10
390.74782470000002
20
329.38184191200003
30
0
11
390.74782470000002
21
329.00784266000005
31
0
0
LINE
5
174
100
AcDbEntity
8
0
100
AcDbLine
10
368.68183666800002
20
333.49584041599996
30
0
11
382.14583068400003
21
333.49584041599996
31
0
0
LINE
5
175
100
AcDbEntity
8
0
100
AcDbLine
10
391.49582844000003
20
32.935987023999999
30
0
11
391.49582844000003
21
17.975992260000002
31
0
0
LINE
5
176
100
AcDbEntity
8
0
100
AcDbLine
10
390.74782470000002
20
329.00784266000005
30
0
11
391.49582844000003
21
324.145844904
31
0
0
LINE
5
177
100
AcDbEntity
8
0
100
AcDbLine
10
390.74782470000002
20
329.75584191199999
30
0
11
390.74782470000002
21
329.38184191200003
31
0
0
LINE
5
178
100
AcDbEntity
8
0
100
AcDbLine
10
12.259994496000001
20
329.38184191200003
30
0
11
12.259994496000001
21
329.75584191199999
31
0
0
LINE
5
179
100
AcDbEntity
8
0
100
AcDbLine
10
12.259994496000001
20
329.75584191199999
30
0
11
15.251993000000002
21
332.74784116399996
31
0
0
SPLINE
5
180
100
AcDbEntity
8
0
100
AcDbSpline
70
0
71
3
72
8
73
4
74
0
42
0.000000001
43
0.0000000001
44
0.0000000001
40
0
40
0
40
0
40
0
40
1
40
1
40
1
40
1
10
22.519296208000004
20
321.85049470400003
30
0
10
24.51828806
20
322.95588910399999
30
0
10
22.734757608000002
20
326.06999935599993
30
0
10
20.700684555999999
20
324.945194356
30
0
0
LINE
5
181
100
AcDbEntity
8
0
100
AcDbLine
10
11.511994496
20
324.145844904
30
0
11
12.259994496000001
21
329.00784266000005
31
0
0
LWPOLYLINE
5
182
100
AcDbEntity
8
0
100
AcDbPolyline
90
11
70
1
43
0.0
10
21.983990008000003
20
324.51986285600003
10
21.609990008000004
20
324.51986285600003
10
20.487990755999999
20
323.77184490400003
10
20.487990755999999
20
323.39784490400007
10
20.487990755999999
20
323.02384490400004
10
21.235990756
20
322.27584490400005
10
21.609990008000004
20
322.27584490400005
10
21.983990008000003
20
322.27584490400005
10
22.731990008000004
20
323.02386435199998
10
22.731990008000004
20
323.39786360400001
10
22.731990008000004
20
323.77186360400003
0
LINE
5
183
100
AcDbEntity
8
0
100
AcDbLine
10
11.511994496
20
17.975992260000002
30
0
11
11.511994496
21
32.935987023999999
31
0
0
SPLINE
5
184
100
AcDbEntity
8
0
100
AcDbSpline
70
0
71
3
72
8
73
4
74
0
42
0.000000001
43
0.0000000001
44
0.0000000001
40
0
40
0
40
0
40
0
40
1
40
1
40
1
40
1
10
38.439982528000002
20
9.7479937559999996
30
0
10
34.231175772
20
6.7709589920000006
30
0
10
26.652255764000003
20
8.251998244000001
30
0
10
21.609990008000004
20
8.251998244000001
30
0
0
LINE
5
185
100
AcDbEntity
8
0
100
AcDbLine
10
365.31583816400001
20
8.251998244000001
30
0
11
365.31583816400001
21
9.7479937559999996
31
0
0
SPLINE
5
186
100
AcDbEntity
8
0
100
AcDbSpline
70
0
71
3
72
8
73
4
74
0
42
0.000000001
43
0.0000000001
44
0.0000000001
40
0
40
0
40
0
40
0
40
1
40
1
40
1
40
1
10
20.700684555999999
20
324.945194356
30
0
10
18.701655304000003
20
323.83979995599992
30
0
10
20.485223155999996
20
320.72569045199998
30
0
10
22.519296208000004
20
321.85049470400003
30
0
0
LINE
5
187
100
AcDbEntity
8
0
100
AcDbLine
10
387.38182619599996
20
332.74784116399996
30
0
11
387.75582769200003
21
332.74784116399996
31
0
0
LINE
5
188
100
AcDbEntity
8
0
100
AcDbLine
10
390.74782470000002
20
12.365994504000001
30
0
11
390.74782470000002
21
11.991993008000001
31
0
0
LINE
5
189
100
AcDbEntity
8
0
100
AcDbLine
10
381.39783292799996
20
8.251998244000001
30
0
11
365.31583816400001
21
8.251998244000001
31
0
0
LINE
5
190
100
AcDbEntity
8
0
100
AcDbLine
10
391.49582844000003
20
93.149964584000017
30
0
11
391.49582844000003
21
32.935987023999999
31
0
0
LINE
5
191
100
AcDbEntity
8
0
100
AcDbLine
10
15.625993000000001
20
332.74784116399996
30
0
11
15.999993000000002
21
332.74784116399996
31
0
0
LINE
5
192
100
AcDbEntity
8
0
100
AcDbLine
10
387.38182619599996
20
8.9999960000000012
30
0
11
387.00782993600001
21
8.9999960000000012
31
0
0
LINE
5
193
100
AcDbEntity
8
0
100
AcDbLine
10
12.259994496000001
20
12.739996
30
0
11
11.511994496
21
17.975992260000002
31
0
0
LINE
5
194
100
AcDbEntity
8
0
100
AcDbLine
10
11.511994496
20
32.935987023999999
30
0
11
11.511994496
21
92.775962340000007
31
0
0
SPLINE
5
195
100
AcDbEntity
8
0
100
AcDbSpline
70
0
71
3
72
8
73
4
74
0
42
0.000000001
43
0.0000000001
44
0.0000000001
40
0
40
0
40
0
40
0
40
1
40
1
40
1
40
1
10
43.461679032000006
20
321.84873765199995
30
0
10
45.894921535999998
20
323.22573010399992
30
0
10
43.065239032000008
20
326.17344775600003
30
0
10
40.898096780000003
20
324.94695215600007
30
0
0
SPLINE
5
196
100
AcDbEntity
8
0
100
AcDbSpline
70
0
71
3
72
8
73
4
74
0
42
0.000000001
43
0.0000000001
44
0.0000000001
40
0
40
0
40
0
40
0
40
1
40
1
40
1
40
1
10
190.64445345200002
20
29.052747268000001
30
0
10
193.05974246000002
20
26.960218016000002
30
0
10
195.05278920800004
20
23.273697771999998
30
0
10
198.51340597199999
20
23.213861512000005
30
0
0
SPLINE
5
197
100
AcDbEntity
8
0
100
AcDbSpline
70
0
71
3
72
8
73
4
74
0
42
0.000000001
43
0.0000000001
44
0.0000000001
40
0
40
0
40
0
40
0
40
1
40
1
40
1
40
1
10
73.343893064
20
292.91311762000004
30
0
10
71.668747812000007
20
292.33453961999999
30
0
10
68.69170781199999
20
289.26400111599997
30
0
10
67.927250315999999
20
287.67412786399996
30
0
0
LINE
5
198
100
AcDbEntity
8
0
100
AcDbLine
10
202.99991146800005
20
293.10385761999999
30
0
11
101.271953356
21
293.10385761999999
31
0
0
SPLINE
5
199
100
AcDbEntity
8
0
100
AcDbSpline
70
0
71
3
72
8
73
4
74
0
42
0.000000001
43
0.0000000001
44
0.0000000001
40
0
40
0
40
0
40
0
40
1
40
1
40
1
40
1
10
335.39585312399993
20
273.28186734399998
30
0
10
335.39585312399993
20
280.63806661199999
30
0
10
337.02836237599996
20
287.54173186399998
30
0
10
330.51889162800001
20
292.43065762000003
30
0
0
SPLINE
5
200
100
AcDbEntity
8
0
100
AcDbSpline
70
0
71
3
72
8
73
4
74
0
42
0.000000001
43
0.0000000001
44
0.0000000001
40
0
40
0
40
0
40
0
40
1
40
1
40
1
40
1
10
293.77789608400002
20
26.114230016000004
30
0
10
296.54586858800008
20
30.566700016000002
30
0
10
292.82831382400008
20
38.399749284000002
30
0
10
294.44660733600006
20
43.339166535999993
30
0
0
SPLINE
5
201
100
AcDbEntity
8
0
100
AcDbSpline
70
0
71
3
72
8
73
4
74
0
42
0.000000001
43
0.0000000001
44
0.0000000001
40
0
40
0
40
0
40
0
40
1
40
1
40
1
40
1
10
40.683981780000011
20
323.39784490400007
30
0
10
41.697521780000017
20
324.46221075599993
30
0
10
42.402137032000013
20
324.42398795599991
30
0
10
43.67598103200001
20
323.77184490400003
30
0
0
LINE
5
202
100
AcDbEntity
8
0
100
AcDbLine
10
43.67598103200001
20
323.77184490400003
30
0
11
43.67598103200001
21
323.39784490400007
31
0
0
SPLINE
5
203
100
AcDbEntity
8
0
100
AcDbSpline
70
0
71
3
72
8
73
4
74
0
42
0.000000001
43
0.0000000001
44
0.0000000001
40
0
40
0
40
0
40
0
40
1
40
1
40
1
40
1
10
232.66782275200003
20
48.328698291999999
30
0
10
236.11983901200006
20
49.897629788000003
30
0
10
242.60537226400001
20
48.643980292000002
30
0
10
246.38389052400001
20
48.643980292000002
30
0
0
SPLINE
5
204
100
AcDbEntity
8
0
100
AcDbSpline
70
0
71
3
72
8
73
4
74
0
42
0.000000001
43
0.0000000001
44
0.0000000001
40
0
40
0
40
0
40
0
40
1
40
1
40
1
40
1
10
67.927250315999999
20
287.67412786399996
30
0
10
67.122776315999999
20
286.000477864
30
0
10
67.611968316000016
20
283.32675336000005
30
0
10
67.611968316000016
20
281.50985986399996
30
0
0
LINE
5
205
100
AcDbEntity
8
0
100
AcDbLine
10
362.32384115599996
20
323.39784490400007
30
0
11
362.32384115599996
21
323.02384490400004
31
0
0
LWPOLYLINE
5
206
100
AcDbEntity
8
0
100
AcDbPolyline
90
11
70
1
43
0.0
10
381.77182844000009
20
322.27584490400005
10
382.51983217999998
20
323.02384490400004
10
382.51983217999998
20
323.39784490400007
10
382.51983217999998
20
323.77184490400003
10
381.77182844000009
20
324.51984415599998
10
381.39783292799996
20
324.51984415599998
10
380.27583292799994
20
323.77184490400003
10
380.27583292799994
20
323.39784490400007
10
380.27583292799994
20
323.02384490400004
10
381.02383068399996
20
322.27584490400005
10
381.39783292799996
20
322.27584490400005
0
LINE
5
207
100
AcDbEntity
8
0
100
AcDbLine
10
390.74782470000002
20
329.75584191199999
30
0
11
387.75582769200003
21
332.74784116399996
31
0
0
SPLINE
5
208
100
AcDbEntity
8
0
100
AcDbSpline
70
0
71
3
72
8
73
4
74
0
42
0.000000001
43
0.0000000001
44
0.0000000001
40
0
40
0
40
0
40
0
40
1
40
1
40
1
40
1
10
156.62393016800002
20
48.643980292000002
30
0
10
160.40244917600003
20
48.643980292000002
30
0
10
166.88798168000002
20
49.897629788000003
30
0
10
170.33999868800004
20
48.328698291999999
30
0
0
LINE
5
209
100
AcDbEntity
8
0
100
AcDbLine
10
43.67598103200001
20
323.02384490400004
30
0
11
40.683981780000011
21
323.02384490400004
31
0
0
LINE
5
210
100
AcDbEntity
8
0
100
AcDbLine
10
362.32384115599996
20
323.77184490400003
30
0
11
362.32384115599996
21
323.39784490400007
31
0
0
LINE
5
211
100
AcDbEntity
8
0
100
AcDbLine
10
40.683981780000011
20
323.02384490400004
30
0
11
40.683981780000011
21
323.39784490400007
31
0
0
LINE
5
212
100
AcDbEntity
8
0
100
AcDbLine
10
362.32384115599996
20
323.02384490400004
30
0
11
359.33183891200002
21
323.02384490400004
31
0
0
SPLINE
5
213
100
AcDbEntity
8
0
100
AcDbSpline
70
0
71
3
72
8
73
4
74
0
42
0.000000001
43
0.0000000001
44
0.0000000001
40
0
40
0
40
0
40
0
40
1
40
1
40
1
40
1
10
198.51340597199999
20
23.213861512000005
30
0
10
200.80528096399999
20
23.173862212
30
0
10
204.06468946800004
20
22.649495512000005
30
0
10
206.24398298
20
23.402727771999999
30
0
0
SPLINE
5
214
100
AcDbEntity
8
0
100
AcDbSpline
70
0
71
3
72
8
73
4
74
0
42
0.000000001
43
0.0000000001
44
0.0000000001
40
0
40
0
40
0
40
0
40
1
40
1
40
1
40
1
10
212.10568423200004
20
28.815253528000003
30
0
10
216.63033174400002
20
32.990589528000001
30
0
10
221.17405998800001
20
37.147227024000003
30
0
10
225.56444374400002
20
41.53798178800001
30
0
0
LINE
5
215
100
AcDbEntity
8
0
100
AcDbLine
10
321.18385536799997
20
293.10385761999999
30
0
11
296.87386808400004
21
293.10385761999999
31
0
0
LINE
5
216
100
AcDbEntity
8
0
100
AcDbLine
10
101.271953356
20
293.10385761999999
30
0
11
82.197961584000012
21
293.10385761999999
31
0
0
LINE
5
217
100
AcDbEntity
8
0
100
AcDbLine
10
296.87386808400004
20
293.10385761999999
30
0
11
202.99991146800005
21
293.10385761999999
31
0
0
SPLINE
5
218
100
AcDbEntity
8
0
100
AcDbSpline
70
0
71
3
72
8
73
4
74
0
42
0.000000001
43
0.0000000001
44
0.0000000001
40
0
40
0
40
0
40
0
40
1
40
1
40
1
40
1
10
67.611968316000016
20
83.799966827999995
30
0
10
67.611968316000016
20
78.336574827999996
30
0
10
66.022846804000011
20
69.99937281199999
30
0
10
67.802708316000007
20
64.847896812000002
30
0
0
SPLINE
5
219
100
AcDbEntity
8
0
100
AcDbSpline
70
0
71
3
72
8
73
4
74
0
42
0.000000001
43
0.0000000001
44
0.0000000001
40
0
40
0
40
0
40
0
40
1
40
1
40
1
40
1
10
67.802708316000007
20
64.847896812000002
30
0
10
70.50635656
20
57.022697056000013
30
0
10
81.175820332000001
20
59.115977300000004
30
0
10
87.433963079999998
20
59.115977300000004
30
0
0
SPLINE
5
220
100
AcDbEntity
8
0
100
AcDbSpline
70
0
71
3
72
8
73
4
74
0
42
0.000000001
43
0.0000000001
44
0.0000000001
40
0
40
0
40
0
40
0
40
1
40
1
40
1
40
1
10
87.433963079999998
20
59.115977300000004
30
0
10
89.752014332000002
20
59.115977300000004
30
0
10
92.566734592000003
20
59.658649056000002
30
0
10
94.409804347999994
20
57.987246048000003
30
0
0
SPLINE
5
221
100
AcDbEntity
8
0
100
AcDbSpline
70
0
71
3
72
8
73
4
74
0
42
0.000000001
43
0.0000000001
44
0.0000000001
40
0
40
0
40
0
40
0
40
1
40
1
40
1
40
1
10
108.561213356
20
43.339166535999993
30
0
10
110.179507616
20
38.399749284000002
30
0
10
106.461952852
20
30.566700016000002
30
0
10
109.229925356
20
26.114230016000004
30
0
0
SPLINE
5
222
100
AcDbEntity
8
0
100
AcDbSpline
70
0
71
3
72
8
73
4
74
0
42
0.000000001
43
0.0000000001
44
0.0000000001
40
0
40
0
40
0
40
0
40
1
40
1
40
1
40
1
10
225.56444374400002
20
41.53798178800001
30
0
10
227.59338925600005
20
43.56693253600001
30
0
10
230.04309000400002
20
47.135636796
30
0
10
232.66782275200003
20
48.328698291999999
30
0
0
LINE
5
223
100
AcDbEntity
8
0
100
AcDbLine
10
123.71194363200001
20
48.643980292000002
30
0
11
156.62393016800002
21
48.643980292000002
31
0
0
SPLINE
5
224
100
AcDbEntity
8
0
100
AcDbSpline
70
0
71
3
72
8
73
4
74
0
42
0.000000001
43
0.0000000001
44
0.0000000001
40
0
40
0
40
0
40
0
40
1
40
1
40
1
40
1
10
382.30665218000001
20
321.85051415199996
30
0
10
384.30754769200001
20
322.95590780400005
30
0
10
382.52356844000008
20
326.07001805599992
30
0
10
380.48901292799997
20
324.94521305599994
30
0
0
SPLINE
5
225
100
AcDbEntity
8
0
100
AcDbSpline
70
0
71
3
72
8
73
4
74
0
42
0.000000001
43
0.0000000001
44
0.0000000001
40
0
40
0
40
0
40
0
40
1
40
1
40
1
40
1
10
170.33999868800004
20
48.328698291999999
30
0
10
172.79044519200002
20
47.214928536000009
30
0
10
175.05239644400004
20
43.928962291999994
30
0
10
176.94446319200006
20
42.036525284
30
0
0
LINE
5
226
100
AcDbEntity
8
0
100
AcDbLine
10
43.67598103200001
20
323.39784490400007
30
0
11
43.67598103200001
21
323.02384490400004
31
0
0
SPLINE
5
227
100
AcDbEntity
8
0
100
AcDbSpline
70
0
71
3
72
8
73
4
74
0
42
0.000000001
43
0.0000000001
44
0.0000000001
40
0
40
0
40
0
40
0
40
1
40
1
40
1
40
1
10
294.44660733600006
20
43.339166535999993
30
0
10
295.03677933600005
20
45.139600291999997
30
0
10
297.31144808400001
20
46.713019039999999
30
0
10
298.61932384000005
20
48.020524535999996
30
0
0
SPLINE
5
228
100
AcDbEntity
8
0
100
AcDbSpline
70
0
71
3
72
8
73
4
74
0
42
0.000000001
43
0.0000000001
44
0.0000000001
40
0
40
0
40
0
40
0
40
1
40
1
40
1
40
1
10
315.94785985600004
20
59.115977300000004
30
0
10
322.57064736800004
20
59.115977300000004
30
0
10
331.55262912399991
20
57.206334048000009
30
0
10
335.08057112399996
20
64.545703315999987
30
0
0
SPLINE
5
229
100
AcDbEntity
8
0
100
AcDbSpline
70
0
71
3
72
8
73
4
74
0
42
0.000000001
43
0.0000000001
44
0.0000000001
40
0
40
0
40
0
40
0
40
1
40
1
40
1
40
1
10
335.08057112399996
20
64.545703315999987
30
0
10
335.80201712399997
20
66.047314811999996
30
0
10
335.39585312399993
20
68.336939819999998
30
0
10
335.39585312399993
20
69.961970567999998
30
0
0
SPLINE
5
230
100
AcDbEntity
8
0
100
AcDbSpline
70
0
71
3
72
8
73
4
74
0
42
0.000000001
43
0.0000000001
44
0.0000000001
40
0
40
0
40
0
40
0
40
1
40
1
40
1
40
1
10
176.94446319200006
20
42.036525284
30
0
10
181.42273919199999
20
37.558625528
30
0
10
185.887545956
20
33.173105268
30
0
10
190.64445345200002
20
29.052747268000001
30
0
0
LINE
5
231
100
AcDbEntity
8
0
100
AcDbLine
10
246.38389052400001
20
48.643980292000002
30
0
11
279.295877808
21
48.643980292000002
31
0
0
LINE
5
232
100
AcDbEntity
8
0
100
AcDbLine
10
359.33183891200002
20
323.02384490400004
30
0
11
359.33183891200002
21
323.39784490400007
31
0
0
SPLINE
5
233
100
AcDbEntity
8
0
100
AcDbSpline
70
0
71
3
72
8
73
4
74
0
42
0.000000001
43
0.0000000001
44
0.0000000001
40
0
40
0
40
0
40
0
40
1
40
1
40
1
40
1
10
284.316073824
20
25.758556764000001
30
0
10
286.26125081600009
20
21.76685252
30
0
10
291.73697883199998
20
22.830884016000002
30
0
10
293.77789608400002
20
26.114230016000004
30
0
0
SPLINE
5
234
100
AcDbEntity
8
0
100
AcDbSpline
70
0
71
3
72
8
73
4
74
0
42
0.000000001
43
0.0000000001
44
0.0000000001
40
0
40
0
40
0
40
0
40
1
40
1
40
1
40
1
10
308.85682284800004
20
58.222866048
30
0
10
310.65913034400006
20
59.714003300000002
30
0
10
313.75360484800007
20
59.115977300000004
30
0
10
315.94785985600004
20
59.115977300000004
30
0
0
SPLINE
5
235
100
AcDbEntity
8
0
100
AcDbSpline
70
0
71
3
72
8
73
4
74
0
42
0.000000001
43
0.0000000001
44
0.0000000001
40
0
40
0
40
0
40
0
40
1
40
1
40
1
40
1
10
82.197961584000012
20
293.10385761999999
30
0
10
79.563507080000008
20
293.10385761999999
30
0
10
75.845952315999995
20
293.77780487199993
30
0
10
73.343893064
20
292.91311762000004
30
0
0
SPLINE
5
236
100
AcDbEntity
8
0
100
AcDbSpline
70
0
71
3
72
8
73
4
74
0
42
0.000000001
43
0.0000000001
44
0.0000000001
40
0
40
0
40
0
40
0
40
1
40
1
40
1
40
1
10
298.61932384000005
20
48.020524535999996
30
0
10
301.97971234400006
20
51.381283300000007
30
0
10
305.19611458800006
20
55.193837803999998
30
0
10
308.85682284800004
20
58.222866048
30
0
0
SPLINE
5
237
100
AcDbEntity
8
0
100
AcDbSpline
70
0
71
3
72
8
73
4
74
0
42
0.000000001
43
0.0000000001
44
0.0000000001
40
0
40
0
40
0
40
0
40
1
40
1
40
1
40
1
10
330.51889162800001
20
292.43065762000003
30
0
10
328.41289837599993
20
294.01230287199996
30
0
10
323.712096116
20
293.10385761999999
30
0
10
321.18385536799997
20
293.10385761999999
30
0
0
SPLINE
5
238
100
AcDbEntity
8
0
100
AcDbSpline
70
0
71
3
72
8
73
4
74
0
42
0.000000001
43
0.0000000001
44
0.0000000001
40
0
40
0
40
0
40
0
40
1
40
1
40
1
40
1
10
359.33183891200002
20
323.39784490400007
30
0
10
360.34538040799998
20
324.46217335599999
30
0
10
361.04999565999998
20
324.42398795599991
30
0
10
362.32384115599996
20
323.77184490400003
30
0
0
SPLINE
5
239
100
AcDbEntity
8
0
100
AcDbSpline
70
0
71
3
72
8
73
4
74
0
42
0.000000001
43
0.0000000001
44
0.0000000001
40
0
40
0
40
0
40
0
40
1
40
1
40
1
40
1
10
206.24398298
20
23.402727771999999
30
0
10
208.47339548399998
20
24.173171512000003
30
0
10
210.400620476
20
27.241840015999998
30
0
10
212.10568423200004
20
28.815253528000003
30
0
0
LINE
5
240
100
AcDbEntity
8
0
100
AcDbLine
10
335.39585312399993
20
69.961970567999998
30
0
11
335.39585312399993
21
82.30396533199999
31
0
0
SPLINE
5
241
100
AcDbEntity
8
0
100
AcDbSpline
70
0
71
3
72
8
73
4
74
0
42
0.000000001
43
0.0000000001
44
0.0000000001
40
0
40
0
40
0
40
0
40
1
40
1
40
1
40
1
10
380.48901292799997
20
324.94521305599994
30
0
10
378.48811218000003
20
323.83981940399997
30
0
10
380.27209143199997
20
320.72567249999997
30
0
10
382.30665218000001
20
321.85051415199996
30
0
0
SPLINE
5
242
100
AcDbEntity
8
0
100
AcDbSpline
70
0
71
3
72
8
73
4
74
0
42
0.000000001
43
0.0000000001
44
0.0000000001
40
0
40
0
40
0
40
0
40
1
40
1
40
1
40
1
10
283.03587257200002
20
40.415981788000003
30
0
10
283.03811657199998
20
35.669924031999997
30
0
10
282.17642132000003
20
30.14931078
30
0
10
284.316073824
20
25.758556764000001
30
0
0
LINE
5
243
100
AcDbEntity
8
0
100
AcDbLine
10
335.39585312399993
20
82.30396533199999
30
0
11
335.39585312399993
21
126.06194588400001
31
0
0
SPLINE
5
244
100
AcDbEntity
8
0
100
AcDbSpline
70
0
71
3
72
8
73
4
74
0
42
0.000000001
43
0.0000000001
44
0.0000000001
40
0
40
0
40
0
40
0
40
1
40
1
40
1
40
1
10
279.295877808
20
48.643980292000002
30
0
10
279.790303564
20
45.250308032
30
0
10
283.03400481600005
20
44.347468292000002
30
0
10
283.03587257200002
20
40.415981788000003
30
0
0
SPLINE
5
245
100
AcDbEntity
8
0
100
AcDbSpline
70
0
71
3
72
8
73
4
74
0
42
0.000000001
43
0.0000000001
44
0.0000000001
40
0
40
0
40
0
40
0
40
1
40
1
40
1
40
1
10
104.38849759999999
20
48.020524535999996
30
0
10
105.696373356
20
46.713019039999999
30
0
10
107.97104210400001
20
45.139600291999997
30
0
10
108.561213356
20
43.339166535999993
30
0
0
SPLINE
5
246
100
AcDbEntity
8
0
100
AcDbSpline
70
0
71
3
72
8
73
4
74
0
42
0.000000001
43
0.0000000001
44
0.0000000001
40
0
40
0
40
0
40
0
40
1
40
1
40
1
40
1
10
118.691746868
20
25.758556764000001
30
0
10
120.83140012
20
30.14931078
30
0
10
119.96970486800001
20
35.669924031999997
30
0
10
119.97194886800001
20
40.415981788000003
30
0
0
SPLINE
5
247
100
AcDbEntity
8
0
100
AcDbSpline
70
0
71
3
72
8
73
4
74
0
42
0.000000001
43
0.0000000001
44
0.0000000001
40
0
40
0
40
0
40
0
40
1
40
1
40
1
40
1
10
109.229925356
20
26.114230016000004
30
0
10
111.27084260800001
20
22.830884016000002
30
0
10
116.746570624
20
21.76685252
30
0
10
118.691746868
20
25.758556764000001
30
0
0
LINE
5
248
100
AcDbEntity
8
0
100
AcDbLine
10
67.611968316000016
20
281.50985986399996
30
0
11
67.611968316000016
21
267.67187033600004
31
0
0
LINE
5
249
100
AcDbEntity
8
0
100
AcDbLine
10
67.611968316000016
20
127.18394513600001
30
0
11
67.611968316000016
21
83.799966827999995
31
0
0
SPLINE
5
250
100
AcDbEntity
8
0
100
AcDbSpline
70
0
71
3
72
8
73
4
74
0
42
0.000000001
43
0.0000000001
44
0.0000000001
40
0
40
0
40
0
40
0
40
1
40
1
40
1
40
1
10
94.409804347999994
20
57.987246048000003
30
0
10
97.878656591999999
20
54.841159544
30
0
10
101.07710085199999
20
51.332290795999995
30
0
10
104.38849759999999
20
48.020524535999996
30
0
0
SPLINE
5
251
100
AcDbEntity
8
0
100
AcDbSpline
70
0
71
3
72
8
73
4
74
0
42
0.000000001
43
0.0000000001
44
0.0000000001
40
0
40
0
40
0
40
0
40
1
40
1
40
1
40
1
10
119.97194886800001
20
40.415981788000003
30
0
10
119.97363186800001
20
44.347468292000002
30
0
10
123.21751712800001
20
45.250308032
30
0
10
123.71194363200001
20
48.643980292000002
30
0
0
LINE
5
252
100
AcDbEntity
8
0
100
AcDbLine
10
335.39585312399993
20
273.28186734399998
30
0
11
335.39585312399993
21
126.06194588400001
31
0
0
LINE
5
253
100
AcDbEntity
8
0
100
AcDbLine
10
391.49582844000003
20
310.68185013999994
30
0
11
391.49582844000003
21
93.149964584000017
31
0
0
LINE
5
254
100
AcDbEntity
8
0
100
AcDbLine
10
11.511994496
20
310.68185013999994
30
0
11
11.511994496
21
92.775962340000007
31
0
0
LINE
5
255
100
AcDbEntity
8
0
100
AcDbLine
10
67.611968316000016
20
267.67187033600004
30
0
11
67.611968316000016
21
127.18394513600001
31
0
0
ENDSEC
0
SECTION
2
OBJECTS
0
DICTIONARY
5
C
100
AcDbDictionary
3
ACAD_GROUP
350
D
3
ACAD_MLINESTYLE
350
17
0
DICTIONARY
5
D
100
AcDbDictionary
0
DICTIONARY
5
1A
330
C
100
AcDbDictionary
0
DICTIONARY
5
17
100
AcDbDictionary
0
ENDSEC
0
EOF
