  0
SECTION
  2
HEADER
  9
$ACADVER
  1
AC1027
  9
$ACADMAINTVER
 70
    55
  9
$DWGCODEPAGE
  3
ANSI_1252
  9
$LASTSAVEDBY
  1
Angel
  9
$REQUIREDVERSIONS
160
                 0
  9
$INSBASE
 10
0.0
 20
0.0
 30
0.0
  9
$EXTMIN
 10
-786.7457465487355
 20
-838.9037434189578
 30
0.0
  9
$EXTMAX
 10
708.4999999999999
 20
2.376811547551909
 30
0.0
  9
$LIMMIN
 10
0.0
 20
0.0
  9
$LIMMAX
 10
12.0
 20
9.0
  9
$ORTHOMODE
 70
     0
  9
$REGENMODE
 70
     1
  9
$FILLMODE
 70
     1
  9
$QTEXTMODE
 70
     0
  9
$MIRRTEXT
 70
     0
  9
$LTSCALE
 40
1.0
  9
$ATTMODE
 70
     1
  9
$TEXTSIZE
 40
0.2
  9
$TRACEWID
 40
0.05
  9
$TEXTSTYLE
  7
Standard
  9
$CLAYER
  8
0
  9
$CELTYPE
  6
CONTINUOUS
  9
$CECOLOR
 62
   256
  9
$CELTSCALE
 40
1.0
  9
$DISPSILH
 70
     0
  9
$DIMSCALE
 40
1.0
  9
$DIMASZ
 40
0.18
  9
$DIMEXO
 40
0.0625
  9
$DIMDLI
 40
0.38
  9
$DIMRND
 40
0.0
  9
$DIMDLE
 40
0.0
  9
$DIMEXE
 40
0.18
  9
$DIMTP
 40
0.0
  9
$DIMTM
 40
0.0
  9
$DIMTXT
 40
0.18
  9
$DIMCEN
 40
0.09
  9
$DIMTSZ
 40
0.0
  9
$DIMTOL
 70
     0
  9
$DIMLIM
 70
     0
  9
$DIMTIH
 70
     1
  9
$DIMTOH
 70
     1
  9
$DIMSE1
 70
     0
  9
$DIMSE2
 70
     0
  9
$DIMTAD
 70
     0
  9
$DIMZIN
 70
     0
  9
$DIMBLK
  1

  9
$DIMASO
 70
     1
  9
$DIMSHO
 70
     1
  9
$DIMPOST
  1

  9
$DIMAPOST
  1

  9
$DIMALT
 70
     0
  9
$DIMALTD
 70
     2
  9
$DIMALTF
 40
25.4
  9
$DIMLFAC
 40
1.0
  9
$DIMTOFL
 70
     0
  9
$DIMTVP
 40
0.0
  9
$DIMTIX
 70
     0
  9
$DIMSOXD
 70
     0
  9
$DIMSAH
 70
     0
  9
$DIMBLK1
  1

  9
$DIMBLK2
  1

  9
$DIMSTYLE
  2
Standard
  9
$DIMCLRD
 70
     0
  9
$DIMCLRE
 70
     0
  9
$DIMCLRT
 70
     0
  9
$DIMTFAC
 40
1.0
  9
$DIMGAP
 40
0.09
  9
$DIMJUST
 70
     0
  9
$DIMSD1
 70
     0
  9
$DIMSD2
 70
     0
  9
$DIMTOLJ
 70
     1
  9
$DIMTZIN
 70
     0
  9
$DIMALTZ
 70
     0
  9
$DIMALTTZ
 70
     0
  9
$DIMUPT
 70
     0
  9
$DIMDEC
 70
     4
  9
$DIMTDEC
 70
     4
  9
$DIMALTU
 70
     2
  9
$DIMALTTD
 70
     2
  9
$DIMTXSTY
  7
Standard
  9
$DIMAUNIT
 70
     0
  9
$DIMADEC
 70
     0
  9
$DIMALTRND
 40
0.0
  9
$DIMAZIN
 70
     0
  9
$DIMDSEP
 70
    46
  9
$DIMATFIT
 70
     3
  9
$DIMFRAC
 70
     0
  9
$DIMLDRBLK
  1

  9
$DIMLUNIT
 70
     2
  9
$DIMLWD
 70
    -2
  9
$DIMLWE
 70
    -2
  9
$DIMTMOVE
 70
     0
  9
$DIMFXL
 40
1.0
  9
$DIMFXLON
 70
     0
  9
$DIMJOGANG
 40
0.7853981633974483
  9
$DIMTFILL
 70
     0
  9
$DIMTFILLCLR
 70
     0
  9
$DIMARCSYM
 70
     0
  9
$DIMLTYPE
  6

  9
$DIMLTEX1
  6

  9
$DIMLTEX2
  6

  9
$DIMTXTDIRECTION
 70
     0
  9
$LUNITS
 70
     2
  9
$LUPREC
 70
     4
  9
$SKETCHINC
 40
0.1
  9
$FILLETRAD
 40
0.0
  9
$AUNITS
 70
     0
  9
$AUPREC
 70
     0
  9
$MENU
  1
.
  9
$ELEVATION
 40
0.0
  9
$PELEVATION
 40
0.0
  9
$THICKNESS
 40
0.0
  9
$LIMCHECK
 70
     0
  9
$CHAMFERA
 40
0.0
  9
$CHAMFERB
 40
0.0
  9
$CHAMFERC
 40
0.0
  9
$CHAMFERD
 40
0.0
  9
$SKPOLY
 70
     0
  9
$TDCREATE
 40
2459762.001077662
  9
$TDUCREATE
 40
2459762.209410996
  9
$TDUPDATE
 40
2459777.085303310
  9
$TDUUPDATE
 40
2459777.293636643
  9
$TDINDWG
 40
0.1721450694
  9
$TDUSRTIMER
 40
0.1721296991
  9
$USRTIMER
 70
     1
  9
$ANGBASE
 50
0.0
  9
$ANGDIR
 70
     0
  9
$PDMODE
 70
     0
  9
$PDSIZE
 40
0.0
  9
$PLINEWID
 40
0.0
  9
$SPLFRAME
 70
     0
  9
$SPLINETYPE
 70
     6
  9
$SPLINESEGS
 70
     8
  9
$HANDSEED
  5
1490
  9
$SURFTAB1
 70
     6
  9
$SURFTAB2
 70
     6
  9
$SURFTYPE
 70
     6
  9
$SURFU
 70
     6
  9
$SURFV
 70
     6
  9
$UCSBASE
  2

  9
$UCSNAME
  2

  9
$UCSORG
 10
0.0
 20
0.0
 30
0.0
  9
$UCSXDIR
 10
1.0
 20
0.0
 30
0.0
  9
$UCSYDIR
 10
0.0
 20
1.0
 30
0.0
  9
$UCSORTHOREF
  2

  9
$UCSORTHOVIEW
 70
     0
  9
$UCSORGTOP
 10
0.0
 20
0.0
 30
0.0
  9
$UCSORGBOTTOM
 10
0.0
 20
0.0
 30
0.0
  9
$UCSORGLEFT
 10
0.0
 20
0.0
 30
0.0
  9
$UCSORGRIGHT
 10
0.0
 20
0.0
 30
0.0
  9
$UCSORGFRONT
 10
0.0
 20
0.0
 30
0.0
  9
$UCSORGBACK
 10
0.0
 20
0.0
 30
0.0
  9
$PUCSBASE
  2

  9
$PUCSNAME
  2

  9
$PUCSORG
 10
0.0
 20
0.0
 30
0.0
  9
$PUCSXDIR
 10
1.0
 20
0.0
 30
0.0
  9
$PUCSYDIR
 10
0.0
 20
1.0
 30
0.0
  9
$PUCSORTHOREF
  2

  9
$PUCSORTHOVIEW
 70
     0
  9
$PUCSORGTOP
 10
0.0
 20
0.0
 30
0.0
  9
$PUCSORGBOTTOM
 10
0.0
 20
0.0
 30
0.0
  9
$PUCSORGLEFT
 10
0.0
 20
0.0
 30
0.0
  9
$PUCSORGRIGHT
 10
0.0
 20
0.0
 30
0.0
  9
$PUCSORGFRONT
 10
0.0
 20
0.0
 30
0.0
  9
$PUCSORGBACK
 10
0.0
 20
0.0
 30
0.0
  9
$USERI1
 70
     0
  9
$USERI2
 70
     0
  9
$USERI3
 70
     0
  9
$USERI4
 70
     0
  9
$USERI5
 70
     0
  9
$USERR1
 40
0.0
  9
$USERR2
 40
0.0
  9
$USERR3
 40
0.0
  9
$USERR4
 40
0.0
  9
$USERR5
 40
0.0
  9
$WORLDVIEW
 70
     1
  9
$SHADEDGE
 70
     3
  9
$SHADEDIF
 70
    70
  9
$TILEMODE
 70
     1
  9
$MAXACTVP
 70
    64
  9
$PINSBASE
 10
0.0
 20
0.0
 30
0.0
  9
$PLIMCHECK
 70
     0
  9
$PEXTMIN
 10
1.000000000000000E+20
 20
1.000000000000000E+20
 30
1.000000000000000E+20
  9
$PEXTMAX
 10
-1.000000000000000E+20
 20
-1.000000000000000E+20
 30
-1.000000000000000E+20
  9
$PLIMMIN
 10
0.0
 20
0.0
  9
$PLIMMAX
 10
12.0
 20
9.0
  9
$UNITMODE
 70
     0
  9
$VISRETAIN
 70
     1
  9
$PLINEGEN
 70
     0
  9
$PSLTSCALE
 70
     1
  9
$TREEDEPTH
 70
  3020
  9
$CMLSTYLE
  2
Standard
  9
$CMLJUST
 70
     0
  9
$CMLSCALE
 40
1.0
  9
$PROXYGRAPHICS
 70
     1
  9
$MEASUREMENT
 70
     0
  9
$CELWEIGHT
370
    -1
  9
$ENDCAPS
280
     0
  9
$JOINSTYLE
280
     0
  9
$LWDISPLAY
290
     0
  9
$INSUNITS
 70
     4
  9
$HYPERLINKBASE
  1

  9
$STYLESHEET
  1

  9
$XEDIT
290
     1
  9
$CEPSNTYPE
380
     0
  9
$PSTYLEMODE
290
     1
  9
$FINGERPRINTGUID
  2
{DAB63233-929D-4F39-B082-715F00A3A4DC}
  9
$VERSIONGUID
  2
{A7F151B5-3612-4BD0-BEBD-DC2E2A69E9DD}
  9
$EXTNAMES
290
     1
  9
$PSVPSCALE
 40
0.0
  9
$OLESTARTUP
290
     0
  9
$SORTENTS
280
   127
  9
$INDEXCTL
280
     0
  9
$HIDETEXT
280
     0
  9
$XCLIPFRAME
280
     2
  9
$HALOGAP
280
     0
  9
$OBSCOLOR
 70
   257
  9
$OBSLTYPE
280
     0
  9
$INTERSECTIONDISPLAY
280
     0
  9
$INTERSECTIONCOLOR
 70
   257
  9
$DIMASSOC
280
     1
  9
$PROJECTNAME
  1

  9
$CAMERADISPLAY
290
     0
  9
$LENSLENGTH
 40
50.0
  9
$CAMERAHEIGHT
 40
0.0
  9
$STEPSPERSEC
 40
2.0
  9
$STEPSIZE
 40
6.0
  9
$3DDWFPREC
 40
2.0
  9
$PSOLWIDTH
 40
0.25
  9
$PSOLHEIGHT
 40
4.0
  9
$LOFTANG1
 40
1.570796326794896
  9
$LOFTANG2
 40
1.570796326794896
  9
$LOFTMAG1
 40
0.0
  9
$LOFTMAG2
 40
0.0
  9
$LOFTPARAM
 70
     7
  9
$LOFTNORMALS
280
     1
  9
$LATITUDE
 40
37.795
  9
$LONGITUDE
 40
-122.394
  9
$NORTHDIRECTION
 40
0.0
  9
$TIMEZONE
 70
 -8000
  9
$LIGHTGLYPHDISPLAY
280
     1
  9
$TILEMODELIGHTSYNCH
280
     1
  9
$CMATERIAL
347
11
  9
$SOLIDHIST
280
     0
  9
$SHOWHIST
280
     1
  9
$DWFFRAME
280
     2
  9
$DGNFRAME
280
     0
  9
$REALWORLDSCALE
290
     1
  9
$INTERFERECOLOR
 62
     1
  9
$INTERFEREOBJVS
345
33
  9
$INTERFEREVPVS
346
30
  9
$CSHADOW
280
     0
  9
$SHADOWPLANELOCATION
 40
0.0
  0
ENDSEC
  0
SECTION
  2
CLASSES
  0
CLASS
  1
ACDBDICTIONARYWDFLT
  2
AcDbDictionaryWithDefault
  3
ObjectDBX Classes
 90
        0
 91
        1
280
     0
281
     0
  0
CLASS
  1
MATERIAL
  2
AcDbMaterial
  3
ObjectDBX Classes
 90
     1153
 91
        3
280
     0
281
     0
  0
CLASS
  1
VISUALSTYLE
  2
AcDbVisualStyle
  3
ObjectDBX Classes
 90
     4095
 91
       24
280
     0
281
     0
  0
CLASS
  1
SCALE
  2
AcDbScale
  3
ObjectDBX Classes
 90
     1153
 91
       17
280
     0
281
     0
  0
CLASS
  1
TABLESTYLE
  2
AcDbTableStyle
  3
ObjectDBX Classes
 90
     4095
 91
        1
280
     0
281
     0
  0
CLASS
  1
MLEADERSTYLE
  2
AcDbMLeaderStyle
  3
ACDB_MLEADERSTYLE_CLASS
 90
     4095
 91
        1
280
     0
281
     0
  0
CLASS
  1
ACDBSECTIONVIEWSTYLE
  2
AcDbSectionViewStyle
  3
ObjectDBX Classes
 90
     1025
 91
        1
280
     0
281
     0
  0
CLASS
  1
ACDBDETAILVIEWSTYLE
  2
AcDbDetailViewStyle
  3
ObjectDBX Classes
 90
     1025
 91
        1
280
     0
281
     0
  0
CLASS
  1
SOLID_BACKGROUND
  2
AcDbSolidBackground
  3
SCENEOE
 90
     4095
 91
        0
280
     0
281
     0
  0
CLASS
  1
NPOCOLLECTION
  2
AcDbImpNonPersistentObjectsCollection
  3
ObjectDBX Classes
 90
     1153
 91
        1
280
     0
281
     0
  0
CLASS
  1
GROUND_PLANE_BACKGROUND
  2
AcDbGroundPlaneBackground
  3
SCENEOE
 90
     4095
 91
        0
280
     0
281
     0
  0
CLASS
  1
DICTIONARYVAR
  2
AcDbDictionaryVar
  3
ObjectDBX Classes
 90
        0
 91
        9
280
     0
281
     0
  0
CLASS
  1
CELLSTYLEMAP
  2
AcDbCellStyleMap
  3
ObjectDBX Classes
 90
     1152
 91
       23
280
     0
281
     0
  0
CLASS
  1
SORTENTSTABLE
  2
AcDbSortentsTable
  3
ObjectDBX Classes
 90
        0
 91
        1
280
     0
281
     0
  0
ENDSEC
  0
SECTION
  2
TABLES
  0
TABLE
  2
VPORT
  5
8
330
0
100
AcDbSymbolTable
 70
     1
  0
VPORT
  5
74
330
8
100
AcDbSymbolTableRecord
100
AcDbViewportTableRecord
  2
*Active
 70
     0
 10
0.0
 20
0.0
 11
1.0
 21
1.0
 12
-424.12281183514
 22
-9.390556627134287
 13
0.0
 23
0.0
 14
1.0
 24
1.0
 15
0.0
 25
0.0
 16
-0.000000000000739
 26
0.0
 36
3444.117077517383
 17
298.0688705444336
 27
-134.9753112792968
 37
0.0
 40
590.7802843630177
 41
2.491987179487179
 42
50.0
 43
0.0
 44
0.0
 50
0.0
 51
0.0
 71
     0
 72
   100
 73
     1
 74
     1
 75
     0
 76
     0
 77
     0
 78
     0
281
     0
 65
     1
110
0.0
120
0.0
130
0.0
111
1.0
121
0.0
131
0.0
112
0.0
122
1.0
132
0.0
 79
     0
146
0.0
348
2F
 60
     3
 61
     5
292
     1
282
     1
141
0.0
142
0.0
 63
   250
421
  3355443
1001
ACAD_NAV_VCDISPLAY
1070
     3
  0
ENDTAB
  0
TABLE
  2
LTYPE
  5
5
330
0
100
AcDbSymbolTable
 70
     2
  0
LTYPE
  5
5A
330
5
100
AcDbSymbolTableRecord
100
AcDbLinetypeTableRecord
  2
ByBlock
 70
     0
  3

 72
    65
 73
     0
 40
0.0
  0
LTYPE
  5
5B
330
5
100
AcDbSymbolTableRecord
100
AcDbLinetypeTableRecord
  2
ByLayer
 70
     0
  3

 72
    65
 73
     0
 40
0.0
  0
LTYPE
  5
5C
330
5
100
AcDbSymbolTableRecord
100
AcDbLinetypeTableRecord
  2
CONTINUOUS
 70
     0
  3
______
 72
    65
 73
     0
 40
0.0
  0
ENDTAB
  0
TABLE
  2
LAYER
  5
2
102
{ACAD_XDICTIONARY
360
9DD
102
}
330
0
100
AcDbSymbolTable
 70
    13
  0
LAYER
  5
54
102
{ACAD_XDICTIONARY
360
7CA
102
}
330
2
100
AcDbSymbolTableRecord
100
AcDbLayerTableRecord
  2
0
 70
     0
 62
     7
  6
CONTINUOUS
370
    -3
390
F
347
21
348
0
  0
LAYER
  5
75
102
{ACAD_XDICTIONARY
360
7CC
102
}
330
2
100
AcDbSymbolTableRecord
100
AcDbLayerTableRecord
  2
front_outsideCutPath
 70
     0
 62
     7
  6
CONTINUOUS
370
    -3
390
F
347
21
348
0
  0
LAYER
  5
AA
102
{ACAD_XDICTIONARY
360
7CE
102
}
330
2
100
AcDbSymbolTableRecord
100
AcDbLayerTableRecord
  2
front_labelLayer
 70
     0
 62
     7
  6
CONTINUOUS
370
    -3
390
F
347
21
348
0
  0
LAYER
  5
144
102
{ACAD_XDICTIONARY
360
7D0
102
}
330
2
100
AcDbSymbolTableRecord
100
AcDbLayerTableRecord
  2
left_outsideCutPath
 70
     0
 62
     7
  6
CONTINUOUS
370
    -3
390
F
347
21
348
0
  0
LAYER
  5
15B
102
{ACAD_XDICTIONARY
360
7D2
102
}
330
2
100
AcDbSymbolTableRecord
100
AcDbLayerTableRecord
  2
left_labelLayer
 70
     0
 62
     7
  6
CONTINUOUS
370
    -3
390
F
347
21
348
0
  0
LAYER
  5
1C5
102
{ACAD_XDICTIONARY
360
7D4
102
}
330
2
100
AcDbSymbolTableRecord
100
AcDbLayerTableRecord
  2
top_outsideCutPath
 70
     0
 62
     7
  6
CONTINUOUS
370
    -3
390
F
347
21
348
0
  0
LAYER
  5
1FC
102
{ACAD_XDICTIONARY
360
7D6
102
}
330
2
100
AcDbSymbolTableRecord
100
AcDbLayerTableRecord
  2
top_labelLayer
 70
     0
 62
     7
  6
CONTINUOUS
370
    -3
390
F
347
21
348
0
  0
LAYER
  5
27B
102
{ACAD_XDICTIONARY
360
7D8
102
}
330
2
100
AcDbSymbolTableRecord
100
AcDbLayerTableRecord
  2
back_outsideCutPath
 70
     0
 62
     7
  6
CONTINUOUS
370
    -3
390
F
347
21
348
0
  0
LAYER
  5
2B0
102
{ACAD_XDICTIONARY
360
7DA
102
}
330
2
100
AcDbSymbolTableRecord
100
AcDbLayerTableRecord
  2
back_labelLayer
 70
     0
 62
     7
  6
CONTINUOUS
370
    -3
390
F
347
21
348
0
  0
LAYER
  5
359
102
{ACAD_XDICTIONARY
360
7DC
102
}
330
2
100
AcDbSymbolTableRecord
100
AcDbLayerTableRecord
  2
right_outsideCutPath
 70
     0
 62
     7
  6
CONTINUOUS
370
    -3
390
F
347
21
348
0
  0
LAYER
  5
370
102
{ACAD_XDICTIONARY
360
7DE
102
}
330
2
100
AcDbSymbolTableRecord
100
AcDbLayerTableRecord
  2
right_labelLayer
 70
     0
 62
     7
  6
CONTINUOUS
370
    -3
390
F
347
21
348
0
  0
LAYER
  5
44C
102
{ACAD_XDICTIONARY
360
7E0
102
}
330
2
100
AcDbSymbolTableRecord
100
AcDbLayerTableRecord
  2
bottom_outsideCutPath
 70
     0
 62
     7
  6
CONTINUOUS
370
    -3
390
F
347
21
348
0
  0
LAYER
  5
483
102
{ACAD_XDICTIONARY
360
7E2
102
}
330
2
100
AcDbSymbolTableRecord
100
AcDbLayerTableRecord
  2
bottom_labelLayer
 70
     0
 62
     7
  6
CONTINUOUS
370
    -3
390
F
347
21
348
0
  0
ENDTAB
  0
TABLE
  2
STYLE
  5
3
330
0
100
AcDbSymbolTable
 70
     2
  0
STYLE
  5
55
330
3
100
AcDbSymbolTableRecord
100
AcDbTextStyleTableRecord
  2
Standard
 70
     0
 40
0.0
 41
1.0
 50
0.0
 71
     0
 42
0.2
  3
txt
  4

  0
STYLE
  5
59
330
3
100
AcDbSymbolTableRecord
100
AcDbTextStyleTableRecord
  2
Annotative
 70
     0
 40
0.0
 41
1.0
 50
0.0
 71
     0
 42
0.2
  3
txt
  4

1001
AcadAnnotative
1000
AnnotativeData
1002
{
1070
     1
1070
     1
1002
}
  0
ENDTAB
  0
TABLE
  2
VIEW
  5
6
330
0
100
AcDbSymbolTable
 70
    21
  0
ENDTAB
  0
TABLE
  2
UCS
  5
7
330
0
100
AcDbSymbolTable
 70
     0
  0
ENDTAB
  0
TABLE
  2
APPID
  5
9
330
0
100
AcDbSymbolTable
 70
     4
  0
APPID
  5
56
330
9
100
AcDbSymbolTableRecord
100
AcDbRegAppTableRecord
  2
ACAD
 70
     0
  0
APPID
  5
5D
330
9
100
AcDbSymbolTableRecord
100
AcDbRegAppTableRecord
  2
AcadAnnotative
 70
     0
  0
APPID
  5
60E
330
9
100
AcDbSymbolTableRecord
100
AcDbRegAppTableRecord
  2
ACAD_NAV_VCDISPLAY
 70
     0
  0
APPID
  5
1087
330
9
100
AcDbSymbolTableRecord
100
AcDbRegAppTableRecord
  2
ACAD_EXEMPT_FROM_CAD_STANDARDS
 70
     0
  0
ENDTAB
  0
TABLE
  2
DIMSTYLE
  5
A
330
0
100
AcDbSymbolTable
 70
     3
100
AcDbDimStyleTable
 71
     1
340
57
  0
DIMSTYLE
105
57
330
A
100
AcDbSymbolTableRecord
100
AcDbDimStyleTableRecord
  2
Standard
 70
     0
340
55
  0
DIMSTYLE
105
58
330
A
100
AcDbSymbolTableRecord
100
AcDbDimStyleTableRecord
  2
Annotative
 70
     0
340
55
1001
AcadAnnotative
1000
AnnotativeData
1002
{
1070
     1
1070
     1
1002
}
  0
ENDTAB
  0
TABLE
  2
BLOCK_RECORD
  5
1
330
0
100
AcDbSymbolTable
 70
     2
  0
BLOCK_RECORD
  5
6F
102
{ACAD_XDICTIONARY
360
13C2
102
}
330
1
100
AcDbSymbolTableRecord
100
AcDbBlockTableRecord
  2
*Model_Space
340
72
 70
     0
280
     1
281
     0
  0
BLOCK_RECORD
  5
6B
330
1
100
AcDbSymbolTableRecord
100
AcDbBlockTableRecord
  2
*Paper_Space
340
6E
 70
     0
280
     1
281
     0
  0
ENDTAB
  0
ENDSEC
  0
SECTION
  2
BLOCKS
  0
BLOCK
  5
70
330
6F
100
AcDbEntity
  8
0
100
AcDbBlockBegin
  2
*Model_Space
 70
     0
 10
0.0
 20
0.0
 30
0.0
  3
*Model_Space
  1

  0
ENDBLK
  5
71
330
6F
100
AcDbEntity
  8
0
100
AcDbBlockEnd
  0
BLOCK
  5
6C
330
6B
100
AcDbEntity
 67
     1
  8
0
100
AcDbBlockBegin
  2
*Paper_Space
 70
     0
 10
0.0
 20
0.0
 30
0.0
  3
*Paper_Space
  1

  0
ENDBLK
  5
6D
330
6B
100
AcDbEntity
 67
     1
  8
0
100
AcDbBlockEnd
  0
ENDSEC
  0
SECTION
  2
ENTITIES
  0
LINE
  5
44D
330
6F
100
AcDbEntity
  8
bottom_outsideCutPath
100
AcDbLine
 10
-136.6619503953995
 20
-648.3619158404591
 30
0.0
 11
-103.5240003969975
 21
-648.3615904086254
 31
0.0
  0
LINE
  5
44E
330
6F
100
AcDbEntity
  8
bottom_outsideCutPath
100
AcDbLine
 10
-103.5240003969975
 20
-648.3615904086254
 30
0.0
 11
-103.5239463841486
 21
-653.86159040836
 31
0.0
  0
LINE
  5
44F
330
6F
100
AcDbEntity
  8
bottom_outsideCutPath
100
AcDbLine
 10
-103.5239463841486
 20
-653.86159040836
 30
0.0
 11
-75.79984638548558
 21
-653.8613181433376
 31
0.0
  0
LINE
  5
450
330
6F
100
AcDbEntity
  8
bottom_outsideCutPath
100
AcDbLine
 10
-75.79984638548558
 20
-653.8613181433376
 30
0.0
 11
-75.79990039833444
 21
-648.3613181436029
 31
0.0
  0
LINE
  5
451
330
6F
100
AcDbEntity
  8
bottom_outsideCutPath
100
AcDbLine
 10
-75.79990039833444
 20
-648.3613181436029
 30
0.0
 11
-48.07580039967138
 21
-648.3610458785805
 31
0.0
  0
LINE
  5
452
330
6F
100
AcDbEntity
  8
bottom_outsideCutPath
100
AcDbLine
 10
-48.07580039967138
 20
-648.3610458785805
 30
0.0
 11
-42.66195039993237
 21
-648.3609927117692
 31
0.0
  0
LINE
  5
453
330
6F
100
AcDbEntity
  8
bottom_outsideCutPath
100
AcDbLine
 10
-42.66195039993237
 20
-648.3609927117692
 30
0.0
 11
-42.66216882347396
 21
-626.1194427128417
 31
0.0
  0
LINE
  5
454
330
6F
100
AcDbEntity
  8
bottom_outsideCutPath
100
AcDbLine
 10
-42.66216882347396
 20
-626.1194427128417
 30
0.0
 11
-37.16216882373919
 21
-626.1193886999928
 31
0.0
  0
LINE
  5
455
330
6F
100
AcDbEntity
  8
bottom_outsideCutPath
100
AcDbLine
 10
-37.16216882373919
 20
-626.1193886999928
 30
0.0
 11
-37.16244108876163
 21
-598.3952887013296
 31
0.0
  0
LINE
  5
456
330
6F
100
AcDbEntity
  8
bottom_outsideCutPath
100
AcDbLine
 10
-37.16244108876163
 20
-598.3952887013296
 30
0.0
 11
-42.66244108849639
 21
-598.3953427141785
 31
0.0
  0
LINE
  5
457
330
6F
100
AcDbEntity
  8
bottom_outsideCutPath
100
AcDbLine
 10
-42.66244108849639
 20
-598.3953427141785
 30
0.0
 11
-42.66271335351882
 21
-570.6712427155156
 31
0.0
  0
LINE
  5
458
330
6F
100
AcDbEntity
  8
bottom_outsideCutPath
100
AcDbLine
 10
-42.66271335351882
 20
-570.6712427155156
 30
0.0
 11
-37.16271335378406
 21
-570.6711887026666
 31
0.0
  0
LINE
  5
459
330
6F
100
AcDbEntity
  8
bottom_outsideCutPath
100
AcDbLine
 10
-37.16271335378406
 20
-570.6711887026666
 30
0.0
 11
-37.16298561880649
 21
-542.9470887040034
 31
0.0
  0
LINE
  5
45A
330
6F
100
AcDbEntity
  8
bottom_outsideCutPath
100
AcDbLine
 10
-37.16298561880649
 20
-542.9470887040034
 30
0.0
 11
-42.66298561854125
 21
-542.9471427168522
 31
0.0
  0
LINE
  5
45B
330
6F
100
AcDbEntity
  8
bottom_outsideCutPath
100
AcDbLine
 10
-42.66298561854125
 20
-542.9471427168522
 30
0.0
 11
-42.6632578835638
 21
-515.2230427181892
 31
0.0
  0
LINE
  5
45C
330
6F
100
AcDbEntity
  8
bottom_outsideCutPath
100
AcDbLine
 10
-42.6632578835638
 20
-515.2230427181892
 30
0.0
 11
-37.16325788382892
 21
-515.2229887053405
 31
0.0
  0
LINE
  5
45D
330
6F
100
AcDbEntity
  8
bottom_outsideCutPath
100
AcDbLine
 10
-37.16325788382892
 20
-515.2229887053405
 30
0.0
 11
-37.16353014885135
 21
-487.4988887066776
 31
0.0
  0
LINE
  5
45E
330
6F
100
AcDbEntity
  8
bottom_outsideCutPath
100
AcDbLine
 10
-37.16353014885135
 20
-487.4988887066776
 30
0.0
 11
-42.66353014858623
 21
-487.4989427195266
 31
0.0
  0
LINE
  5
45F
330
6F
100
AcDbEntity
  8
bottom_outsideCutPath
100
AcDbLine
 10
-42.66353014858623
 20
-487.4989427195266
 30
0.0
 11
-42.66380241360866
 21
-459.7748427208633
 31
0.0
  0
LINE
  5
460
330
6F
100
AcDbEntity
  8
bottom_outsideCutPath
100
AcDbLine
 10
-42.66380241360866
 20
-459.7748427208633
 30
0.0
 11
-37.16380241387378
 21
-459.7747887080144
 31
0.0
  0
LINE
  5
461
330
6F
100
AcDbEntity
  8
bottom_outsideCutPath
100
AcDbLine
 10
-37.16380241387378
 20
-459.7747887080144
 30
0.0
 11
-37.16407467889621
 21
-432.0506887093514
 31
0.0
  0
LINE
  5
462
330
6F
100
AcDbEntity
  8
bottom_outsideCutPath
100
AcDbLine
 10
-37.16407467889621
 20
-432.0506887093514
 30
0.0
 11
-42.6640746786311
 21
-432.0507427222001
 31
0.0
  0
LINE
  5
463
330
6F
100
AcDbEntity
  8
bottom_outsideCutPath
100
AcDbLine
 10
-42.6640746786311
 20
-432.0507427222001
 30
0.0
 11
-42.66434694365353
 21
-404.3266427235367
 31
0.0
  0
LINE
  5
464
330
6F
100
AcDbEntity
  8
bottom_outsideCutPath
100
AcDbLine
 10
-42.66434694365353
 20
-404.3266427235367
 30
0.0
 11
-37.16434694391864
 21
-404.3265887106879
 31
0.0
  0
LINE
  5
465
330
6F
100
AcDbEntity
  8
bottom_outsideCutPath
100
AcDbLine
 10
-37.16434694391864
 20
-404.3265887106879
 30
0.0
 11
-37.16461920894108
 21
-376.6024887120249
 31
0.0
  0
LINE
  5
466
330
6F
100
AcDbEntity
  8
bottom_outsideCutPath
100
AcDbLine
 10
-37.16461920894108
 20
-376.6024887120249
 30
0.0
 11
-42.66461920867596
 21
-376.6025427248739
 31
0.0
  0
LINE
  5
467
330
6F
100
AcDbEntity
  8
bottom_outsideCutPath
100
AcDbLine
 10
-42.66461920867596
 20
-376.6025427248739
 30
0.0
 11
-42.66483763221754
 21
-354.3609927259464
 31
0.0
  0
LINE
  5
468
330
6F
100
AcDbEntity
  8
bottom_outsideCutPath
100
AcDbLine
 10
-42.66483763221754
 20
-354.3609927259464
 30
0.0
 11
-75.80278763061961
 21
-354.36131815778
 31
0.0
  0
LINE
  5
469
330
6F
100
AcDbEntity
  8
bottom_outsideCutPath
100
AcDbLine
 10
-75.80278763061961
 20
-354.36131815778
 30
0.0
 11
-75.80284164346835
 21
-348.8613181580453
 31
0.0
  0
LINE
  5
46A
330
6F
100
AcDbEntity
  8
bottom_outsideCutPath
100
AcDbLine
 10
-75.80284164346835
 20
-348.8613181580453
 30
0.0
 11
-103.5269416421315
 21
-348.8615904230677
 31
0.0
  0
LINE
  5
46B
330
6F
100
AcDbEntity
  8
bottom_outsideCutPath
100
AcDbLine
 10
-103.5269416421315
 20
-348.8615904230677
 30
0.0
 11
-103.5268876292826
 21
-354.3615904228025
 31
0.0
  0
LINE
  5
46C
330
6F
100
AcDbEntity
  8
bottom_outsideCutPath
100
AcDbLine
 10
-103.5268876292826
 20
-354.3615904228025
 30
0.0
 11
-131.2509876279457
 21
-354.3618626878249
 31
0.0
  0
LINE
  5
46D
330
6F
100
AcDbEntity
  8
bottom_outsideCutPath
100
AcDbLine
 10
-131.2509876279457
 20
-354.3618626878249
 30
0.0
 11
-136.6648376276846
 21
-354.3619158546361
 31
0.0
  0
LINE
  5
46E
330
6F
100
AcDbEntity
  8
bottom_outsideCutPath
100
AcDbLine
 10
-136.6648376276846
 20
-354.3619158546361
 30
0.0
 11
-136.664619204143
 21
-376.6034658535635
 31
0.0
  0
LINE
  5
46F
330
6F
100
AcDbEntity
  8
bottom_outsideCutPath
100
AcDbLine
 10
-136.664619204143
 20
-376.6034658535635
 30
0.0
 11
-142.1646192038779
 21
-376.6035198664125
 31
0.0
  0
LINE
  5
470
330
6F
100
AcDbEntity
  8
bottom_outsideCutPath
100
AcDbLine
 10
-142.1646192038779
 20
-376.6035198664125
 30
0.0
 11
-142.1643469388555
 21
-404.3276198650755
 31
0.0
  0
LINE
  5
471
330
6F
100
AcDbEntity
  8
bottom_outsideCutPath
100
AcDbLine
 10
-142.1643469388555
 20
-404.3276198650755
 30
0.0
 11
-136.6643469391206
 21
-404.3275658522266
 31
0.0
  0
LINE
  5
472
330
6F
100
AcDbEntity
  8
bottom_outsideCutPath
100
AcDbLine
 10
-136.6643469391206
 20
-404.3275658522266
 30
0.0
 11
-136.6640746740982
 21
-432.0516658508901
 31
0.0
  0
LINE
  5
473
330
6F
100
AcDbEntity
  8
bottom_outsideCutPath
100
AcDbLine
 10
-136.6640746740982
 20
-432.0516658508901
 30
0.0
 11
-142.164074673833
 21
-432.0517198637388
 31
0.0
  0
LINE
  5
474
330
6F
100
AcDbEntity
  8
bottom_outsideCutPath
100
AcDbLine
 10
-142.164074673833
 20
-432.0517198637388
 30
0.0
 11
-142.1638024088106
 21
-459.775819862402
 31
0.0
  0
LINE
  5
475
330
6F
100
AcDbEntity
  8
bottom_outsideCutPath
100
AcDbLine
 10
-142.1638024088106
 20
-459.775819862402
 30
0.0
 11
-136.6638024090757
 21
-459.775765849553
 31
0.0
  0
LINE
  5
476
330
6F
100
AcDbEntity
  8
bottom_outsideCutPath
100
AcDbLine
 10
-136.6638024090757
 20
-459.775765849553
 30
0.0
 11
-136.6635301440533
 21
-487.4998658482163
 31
0.0
  0
LINE
  5
477
330
6F
100
AcDbEntity
  8
bottom_outsideCutPath
100
AcDbLine
 10
-136.6635301440533
 20
-487.4998658482163
 30
0.0
 11
-142.1635301437882
 21
-487.4999198610652
 31
0.0
  0
LINE
  5
478
330
6F
100
AcDbEntity
  8
bottom_outsideCutPath
100
AcDbLine
 10
-142.1635301437882
 20
-487.4999198610652
 30
0.0
 11
-142.1632578787657
 21
-515.2240198597279
 31
0.0
  0
LINE
  5
479
330
6F
100
AcDbEntity
  8
bottom_outsideCutPath
100
AcDbLine
 10
-142.1632578787657
 20
-515.2240198597279
 30
0.0
 11
-136.6632578790309
 21
-515.2239658468792
 31
0.0
  0
LINE
  5
47A
330
6F
100
AcDbEntity
  8
bottom_outsideCutPath
100
AcDbLine
 10
-136.6632578790309
 20
-515.2239658468792
 30
0.0
 11
-136.6629856140084
 21
-542.9480658455421
 31
0.0
  0
LINE
  5
47B
330
6F
100
AcDbEntity
  8
bottom_outsideCutPath
100
AcDbLine
 10
-136.6629856140084
 20
-542.9480658455421
 30
0.0
 11
-142.1629856137433
 21
-542.9481198583909
 31
0.0
  0
LINE
  5
47C
330
6F
100
AcDbEntity
  8
bottom_outsideCutPath
100
AcDbLine
 10
-142.1629856137433
 20
-542.9481198583909
 30
0.0
 11
-142.1627133487209
 21
-570.6722198570543
 31
0.0
  0
LINE
  5
47D
330
6F
100
AcDbEntity
  8
bottom_outsideCutPath
100
AcDbLine
 10
-142.1627133487209
 20
-570.6722198570543
 30
0.0
 11
-136.662713348986
 21
-570.6721658442053
 31
0.0
  0
LINE
  5
47E
330
6F
100
AcDbEntity
  8
bottom_outsideCutPath
100
AcDbLine
 10
-136.662713348986
 20
-570.6721658442053
 30
0.0
 11
-136.6624410839636
 21
-598.3962658428683
 31
0.0
  0
LINE
  5
482
330
6F
100
AcDbEntity
  8
bottom_outsideCutPath
100
AcDbLine
 10
-136.6621688189411
 20
-626.1203658415314
 30
0.0
 11
-136.6619503953995
 21
-648.3619158404591
 31
0.0
  0
LINE
  5
F3E
330
6F
100
AcDbEntity
  8
left_outsideCutPath
100
AcDbLine
 10
232.3872696398318
 20
-118.9506365195679
 30
0.0
 11
232.3872696398318
 21
-115.9506365195679
 31
0.0
  0
LINE
  5
F40
330
6F
100
AcDbEntity
  8
left_outsideCutPath
100
AcDbLine
 10
260.1113696398318
 20
-115.9506365195679
 30
0.0
 11
260.1113696398318
 21
-118.9506365195679
 31
0.0
  0
LINE
  5
F5C
330
6F
100
AcDbEntity
  8
right_outsideCutPath
100
AcDbLine
 10
232.3872696398318
 20
-475.9506365195679
 30
0.0
 11
232.3872696398318
 21
-472.9506365195677
 31
0.0
  0
LINE
  5
F5E
330
6F
100
AcDbEntity
  8
right_outsideCutPath
100
AcDbLine
 10
260.1113696398318
 20
-472.9506365195677
 30
0.0
 11
260.1113696398318
 21
-475.9506365195679
 31
0.0
  0
LINE
  5
F69
330
6F
100
AcDbEntity
  8
right_outsideCutPath
100
AcDbLine
 10
232.3872696398318
 20
-532.950636519568
 30
0.0
 11
232.3872696398318
 21
-529.9506365195679
 31
0.0
  0
LINE
  5
F6B
330
6F
100
AcDbEntity
  8
right_outsideCutPath
100
AcDbLine
 10
260.1113696398318
 20
-529.9506365195679
 30
0.0
 11
260.1113696398318
 21
-532.950636519568
 31
0.0
  0
CIRCLE
  5
11E0
330
6F
100
AcDbEntity
  8
0
  6
Continuous
100
AcDbCircle
 10
-199.8851582138945
 20
-606.7121315033215
 30
0.0
 40
3.249999999999999
  0
CIRCLE
  5
11E1
330
6F
100
AcDbEntity
  8
0
  6
Continuous
100
AcDbCircle
 10
-199.8855706756495
 20
-564.7121315053469
 30
0.0
 40
3.249999999999999
  0
CIRCLE
  5
11E2
330
6F
100
AcDbEntity
  8
0
  6
Continuous
100
AcDbCircle
 10
-199.8859831374045
 20
-522.7121315073722
 30
0.0
 40
3.249999999999999
  0
CIRCLE
  5
11E3
330
6F
100
AcDbEntity
  8
0
  6
Continuous
100
AcDbCircle
 10
-199.8863955991595
 20
-480.7121315093975
 30
0.0
 40
3.249999999999999
  0
CIRCLE
  5
11E4
330
6F
100
AcDbEntity
  8
0
  6
Continuous
100
AcDbCircle
 10
-199.8868080609145
 20
-438.7121315114228
 30
0.0
 40
3.249999999999999
  0
CIRCLE
  5
11E5
330
6F
100
AcDbEntity
  8
0
  6
Continuous
100
AcDbCircle
 10
-199.8872205226696
 20
-396.7121315134482
 30
0.0
 40
3.249999999999999
  0
CIRCLE
  5
11F0
330
6F
100
AcDbEntity
  8
0
  6
Continuous
100
AcDbCircle
 10
-89.66233830812598
 20
-608.8614542780188
 30
0.0
 40
0.5
  0
CIRCLE
  5
11F1
330
6F
100
AcDbEntity
  8
0
  6
Continuous
100
AcDbCircle
 10
-89.66238741071595
 20
-603.8614542782599
 30
0.0
 40
0.5
  0
CIRCLE
  5
11FB
330
6F
100
AcDbEntity
  8
0
  6
Continuous
100
AcDbCircle
 10
-89.66275076988109
 20
-566.861454280044
 30
0.0
 40
0.5
  0
CIRCLE
  5
11FC
330
6F
100
AcDbEntity
  8
0
  6
Continuous
100
AcDbCircle
 10
-89.66279987247094
 20
-561.8614542802853
 30
0.0
 40
0.5
  0
CIRCLE
  5
11FD
330
6F
100
AcDbEntity
  8
0
  6
Continuous
100
AcDbCircle
 10
-89.66316323163608
 20
-524.8614542820695
 30
0.0
 40
0.5
  0
CIRCLE
  5
11FE
330
6F
100
AcDbEntity
  8
0
  6
Continuous
100
AcDbCircle
 10
-89.66321233422604
 20
-519.8614542823105
 30
0.0
 40
0.5
  0
CIRCLE
  5
11FF
330
6F
100
AcDbEntity
  8
0
  6
Continuous
100
AcDbCircle
 10
-89.66357569339107
 20
-482.8614542840947
 30
0.0
 40
0.5
  0
CIRCLE
  5
1200
330
6F
100
AcDbEntity
  8
0
  6
Continuous
100
AcDbCircle
 10
-89.66362479598092
 20
-477.8614542843359
 30
0.0
 40
0.5
  0
CIRCLE
  5
1201
330
6F
100
AcDbEntity
  8
0
  6
Continuous
100
AcDbCircle
 10
-89.66398815514617
 20
-440.86145428612
 30
0.0
 40
0.5
  0
CIRCLE
  5
1202
330
6F
100
AcDbEntity
  8
0
  6
Continuous
100
AcDbCircle
 10
-89.66403725773602
 20
-435.8614542863612
 30
0.0
 40
0.5
  0
CIRCLE
  5
1203
330
6F
100
AcDbEntity
  8
0
  6
Continuous
100
AcDbCircle
 10
-89.66440061690116
 20
-398.8614542881454
 30
0.0
 40
0.5
  0
CIRCLE
  5
1204
330
6F
100
AcDbEntity
  8
0
  6
Continuous
100
AcDbCircle
 10
-89.66444971949101
 20
-393.8614542883864
 30
0.0
 40
0.5
  0
LINE
  5
128F
330
6F
100
AcDbEntity
  8
0
  6
Continuous
100
AcDbLine
 10
-136.6624410839636
 20
-598.3962658428683
 30
0.0
 11
-142.1624410836984
 21
-598.3963198557172
 31
0.0
  0
LINE
  5
1290
330
6F
100
AcDbEntity
  8
0
  6
Continuous
100
AcDbLine
 10
-136.6621688189411
 20
-626.1203658415314
 30
0.0
 11
-142.162168818676
 21
-626.1204198543804
 31
0.0
  0
LINE
  5
1291
330
6F
100
AcDbEntity
  8
0
  6
Continuous
100
AcDbLine
 10
-142.162168818676
 20
-626.1204198543804
 30
0.0
 11
-142.1624410836984
 21
-598.3963198557172
 31
0.0
  0
MTEXT
  5
12AD
330
6F
100
AcDbEntity
  8
0
  6
Continuous
100
AcDbMText
 10
-43.32721820292215
 20
-88.68594192966847
 30
0.0
 40
5.0
 41
210.4964902268593
 46
0.0
 71
     1
 72
     5
  1
LASER MIDI HARP - FAB ACADEMY 2022
 73
     1
 44
1.0
1001
ACAD
1000
ACAD_MTEXT_COLUMN_INFO_BEGIN
1070
    75
1070
     2
1070
    79
1070
     0
1070
    76
1070
     1
1070
    78
1070
     0
1070
    48
1040
210.4964902268593
1070
    49
1040
1.0
1070
    50
1070
     1
1040
0.0
1000
ACAD_MTEXT_COLUMN_INFO_END
  0
LWPOLYLINE
  5
12DD
330
6F
100
AcDbEntity
  8
0
  6
Continuous
100
AcDbPolyline
 90
        4
 70
     1
 43
0.0
 10
165.1968513041512
 20
-178.5888758725154
 10
177.1968513041512
 20
-178.5888758725154
 10
177.1968513041512
 20
-168.5888758725155
 10
165.1968513041512
 20
-168.5888758725155
  0
LWPOLYLINE
  5
13C9
330
6F
100
AcDbEntity
  8
0
  6
Continuous
100
AcDbPolyline
 90
       52
 70
     1
 43
0.0
 10
-88.57605521038028
 20
-115.4506365195679
 10
-88.57605521038028
 20
-120.9506365195679
 10
-116.3176052103802
 20
-120.9506365195679
 10
-116.3176052103802
 20
-102.8126865195678
 10
-110.8176052103802
 20
-102.8126865195678
 10
-110.8176052103802
 20
-75.08858651956782
 10
-116.3176052103802
 20
-75.08858651956782
 10
-116.3176052103802
 20
-58.45063651956795
 10
-88.57605521038028
 20
-58.45063651956795
 10
-88.57605521038028
 20
-63.95063651956796
 10
-60.85195521038031
 20
-63.95063651956796
 10
-60.85195521038031
 20
-58.45063651956795
 10
-33.12785521038029
 20
-58.45063651956795
 10
-33.12785521038029
 20
-63.95063651956796
 10
-5.403755210380325
 20
-63.95063651956796
 10
-5.403755210380325
 20
-58.45063651956795
 10
22.3203447896197
 20
-58.45063651956795
 10
22.3203447896197
 20
-63.95063651956796
 10
50.04444478961971
 20
-63.95063651956796
 10
50.04444478961971
 20
-58.45063651956795
 10
77.76854478961974
 20
-58.45063651956795
 10
77.76854478961974
 20
-63.95063651956796
 10
105.4926447896196
 20
-63.95063651956796
 10
105.4926447896196
 20
-58.45063651956795
 10
133.2167447896196
 20
-58.45063651956795
 10
133.2167447896196
 20
-63.95063651956796
 10
160.9408447896197
 20
-63.95063651956796
 10
160.9408447896197
 20
-58.45063651956795
 10
188.6823947896196
 20
-58.45063651956795
 10
188.6823947896196
 20
-75.08858651956782
 10
183.1823947896196
 20
-75.08858651956782
 10
183.1823947896196
 20
-102.8126865195678
 10
188.6823947896196
 20
-102.8126865195678
 10
188.6823947896196
 20
-120.9506365195679
 10
160.9408447896197
 20
-120.9506365195679
 10
160.9408447896197
 20
-115.4506365195679
 10
133.2167447896196
 20
-115.4506365195679
 10
133.2167447896196
 20
-120.9506365195679
 10
105.4926447896196
 20
-120.9506365195679
 10
105.4926447896196
 20
-115.4506365195679
 10
77.76854478961974
 20
-115.4506365195679
 10
77.76854478961974
 20
-120.9506365195679
 10
50.04444478961971
 20
-120.9506365195679
 10
50.04444478961971
 20
-115.4506365195679
 10
22.3203447896197
 20
-115.4506365195679
 10
22.3203447896197
 20
-120.9506365195679
 10
-5.403755210380325
 20
-120.9506365195679
 10
-5.403755210380325
 20
-115.4506365195679
 10
-33.12785521038029
 20
-115.4506365195679
 10
-33.12785521038029
 20
-120.9506365195679
 10
-60.85195521038031
 20
-120.9506365195679
 10
-60.85195521038031
 20
-115.4506365195679
  0
LWPOLYLINE
  5
1411
330
6F
100
AcDbEntity
  8
0
  6
Continuous
100
AcDbPolyline
 90
       54
 70
     1
 43
0.0
 10
34.58845646751121
 20
-354.357120113939
 10
67.72640646591304
 20
-354.3567946821053
 10
67.72662488945463
 20
-376.5983446810328
 10
73.2266248891894
 20
-376.5982906681839
 10
73.22689715421176
 20
-404.3223906668471
 10
67.726897154477
 20
-404.3224446796958
 10
67.72716941949949
 20
-432.0465446783592
 10
73.22716941923426
 20
-432.0464906655105
 10
73.22744168425669
 20
-459.7705906641736
 10
67.72744168452192
 20
-459.7706446770224
 10
67.72771394954435
 20
-487.4947446756856
 10
73.22771394927912
 20
-487.4946906628369
 10
73.22798621430155
 20
-515.2187906614994
 10
67.72798621456678
 20
-515.2188446743483
 10
67.72825847958921
 20
-542.9429446730115
 10
73.22825847932398
 20
-542.9428906601625
 10
73.22853074434636
 20
-570.6669906588254
 10
67.72853074461159
 20
-570.6670446716745
 10
67.72880300963402
 20
-598.3911446703379
 10
73.22880300936879
 20
-598.3910906574889
 10
73.22907527439122
 20
-626.1151906561519
 10
67.72907527465645
 20
-626.1152446690008
 10
67.72929369819803
 20
-648.3567946679283
 10
62.3154436984592
 20
-648.3568478347393
 10
34.59134369979608
 20
-648.3571200997618
 10
34.59139771264495
 20
-653.8571200994966
 10
6.86729771398177
 20
-653.857392364519
 10
6.867243701132792
 20
-648.3573923647842
 10
-26.27070629726927
 20
-648.3577177966179
 10
-26.27092472081085
 20
-626.1161677976905
 10
-31.77092472054551
 20
-626.1162218105395
 10
-31.77119698556794
 20
-598.3921218118766
 10
-26.27119698583317
 20
-598.3920677990275
 10
-26.27146925085549
 20
-570.6679678003644
 10
-31.77146925059026
 20
-570.6680218132131
 10
-31.77174151561269
 20
-542.9439218145502
 10
-26.27174151587792
 20
-542.9438678017014
 10
-26.27201378090035
 20
-515.219767803038
 10
-31.77201378063512
 20
-515.219821815887
 10
-31.77228604565744
 20
-487.4957218172243
 10
-26.27228604592279
 20
-487.4956678043753
 10
-26.27255831094521
 20
-459.7715678057122
 10
-31.77255831067987
 20
-459.7716218185611
 10
-31.7728305757023
 20
-432.0475218198979
 10
-26.27283057596765
 20
-432.0474678070492
 10
-26.27310284099008
 20
-404.3233678083855
 10
-31.77310284072485
 20
-404.3234218212345
 10
-31.77337510574728
 20
-376.5993218225714
 10
-26.27337510601251
 20
-376.5992678097225
 10
-26.27359352955409
 20
-354.3577178107951
 10
-20.85974352981521
 20
-354.3576646439839
 10
6.864356468847859
 20
-354.3573923789614
 10
6.864302455998995
 20
-348.8573923792265
 10
34.58840245466234
 20
-348.8571201142041
  0
LWPOLYLINE
  5
1415
330
6F
100
AcDbEntity
  8
0
  6
Continuous
100
AcDbPolyline
 90
       52
 70
     1
 43
0.0
 10
-88.57605521038028
 20
-190.7734873994312
 10
-88.57605521038028
 20
-196.2734873994313
 10
-116.3176052103802
 20
-196.2734873994313
 10
-116.3176052103802
 20
-178.1355373994311
 10
-110.8176052103802
 20
-178.1355373994311
 10
-110.8176052103802
 20
-150.4114373994311
 10
-116.3176052103802
 20
-150.4114373994311
 10
-116.3176052103802
 20
-133.7734873994312
 10
-88.57605521038028
 20
-133.7734873994312
 10
-88.57605521038028
 20
-139.2734873994313
 10
-60.85195521038031
 20
-139.2734873994313
 10
-60.85195521038031
 20
-133.7734873994312
 10
-33.12785521038029
 20
-133.7734873994312
 10
-33.12785521038029
 20
-139.2734873994313
 10
-5.403755210380325
 20
-139.2734873994313
 10
-5.403755210380325
 20
-133.7734873994312
 10
22.3203447896197
 20
-133.7734873994312
 10
22.3203447896197
 20
-139.2734873994313
 10
50.04444478961971
 20
-139.2734873994313
 10
50.04444478961971
 20
-133.7734873994312
 10
77.76854478961974
 20
-133.7734873994312
 10
77.76854478961974
 20
-139.2734873994313
 10
105.4926447896196
 20
-139.2734873994313
 10
105.4926447896196
 20
-133.7734873994312
 10
133.2167447896196
 20
-133.7734873994312
 10
133.2167447896196
 20
-139.2734873994313
 10
160.9408447896197
 20
-139.2734873994313
 10
160.9408447896197
 20
-133.7734873994312
 10
188.6823947896196
 20
-133.7734873994312
 10
188.6823947896196
 20
-150.4114373994311
 10
183.1823947896196
 20
-150.4114373994311
 10
183.1823947896196
 20
-178.1355373994311
 10
188.6823947896196
 20
-178.1355373994311
 10
188.6823947896196
 20
-196.2734873994313
 10
160.9408447896197
 20
-196.2734873994313
 10
160.9408447896197
 20
-190.7734873994312
 10
133.2167447896196
 20
-190.7734873994312
 10
133.2167447896196
 20
-196.2734873994313
 10
105.4926447896196
 20
-196.2734873994313
 10
105.4926447896196
 20
-190.7734873994312
 10
77.76854478961974
 20
-190.7734873994312
 10
77.76854478961974
 20
-196.2734873994313
 10
50.04444478961971
 20
-196.2734873994313
 10
50.04444478961971
 20
-190.7734873994312
 10
22.3203447896197
 20
-190.7734873994312
 10
22.3203447896197
 20
-196.2734873994313
 10
-5.403755210380325
 20
-196.2734873994313
 10
-5.403755210380325
 20
-190.7734873994312
 10
-33.12785521038029
 20
-190.7734873994312
 10
-33.12785521038029
 20
-196.2734873994313
 10
-60.85195521038031
 20
-196.2734873994313
 10
-60.85195521038031
 20
-190.7734873994312
  0
LWPOLYLINE
  5
1416
330
6F
100
AcDbEntity
  8
0
  6
Continuous
100
AcDbPolyline
 90
       52
 70
     1
 43
0.0
 10
-88.57605521038028
 20
-265.9686991118562
 10
-88.57605521038028
 20
-271.4686991118561
 10
-116.3176052103802
 20
-271.4686991118561
 10
-116.3176052103802
 20
-253.3307491118561
 10
-110.8176052103802
 20
-253.3307491118561
 10
-110.8176052103802
 20
-225.606649111856
 10
-116.3176052103802
 20
-225.606649111856
 10
-116.3176052103802
 20
-208.9686991118561
 10
-88.57605521038028
 20
-208.9686991118561
 10
-88.57605521038028
 20
-214.4686991118561
 10
-60.85195521038031
 20
-214.4686991118561
 10
-60.85195521038031
 20
-208.9686991118561
 10
-33.12785521038029
 20
-208.9686991118561
 10
-33.12785521038029
 20
-214.4686991118561
 10
-5.403755210380325
 20
-214.4686991118561
 10
-5.403755210380325
 20
-208.9686991118561
 10
22.3203447896197
 20
-208.9686991118561
 10
22.3203447896197
 20
-214.4686991118561
 10
50.04444478961971
 20
-214.4686991118561
 10
50.04444478961971
 20
-208.9686991118561
 10
77.76854478961974
 20
-208.9686991118561
 10
77.76854478961974
 20
-214.4686991118561
 10
105.4926447896196
 20
-214.4686991118561
 10
105.4926447896196
 20
-208.9686991118561
 10
133.2167447896196
 20
-208.9686991118561
 10
133.2167447896196
 20
-214.4686991118561
 10
160.9408447896197
 20
-214.4686991118561
 10
160.9408447896197
 20
-208.9686991118561
 10
188.6823947896196
 20
-208.9686991118561
 10
188.6823947896196
 20
-225.606649111856
 10
183.1823947896196
 20
-225.606649111856
 10
183.1823947896196
 20
-253.3307491118561
 10
188.6823947896196
 20
-253.3307491118561
 10
188.6823947896196
 20
-271.4686991118561
 10
160.9408447896197
 20
-271.4686991118561
 10
160.9408447896197
 20
-265.9686991118562
 10
133.2167447896196
 20
-265.9686991118562
 10
133.2167447896196
 20
-271.4686991118561
 10
105.4926447896196
 20
-271.4686991118561
 10
105.4926447896196
 20
-265.9686991118562
 10
77.76854478961974
 20
-265.9686991118562
 10
77.76854478961974
 20
-271.4686991118561
 10
50.04444478961971
 20
-271.4686991118561
 10
50.04444478961971
 20
-265.9686991118562
 10
22.3203447896197
 20
-265.9686991118562
 10
22.3203447896197
 20
-271.4686991118561
 10
-5.403755210380325
 20
-271.4686991118561
 10
-5.403755210380325
 20
-265.9686991118562
 10
-33.12785521038029
 20
-265.9686991118562
 10
-33.12785521038029
 20
-271.4686991118561
 10
-60.85195521038031
 20
-271.4686991118561
 10
-60.85195521038031
 20
-265.9686991118562
  0
LWPOLYLINE
  5
1425
330
6F
100
AcDbEntity
  8
right_outsideCutPath
100
AcDbPolyline
 90
        4
 70
     1
 43
0.0
 10
260.1113696398318
 20
-472.4506365195678
 10
260.1113696398318
 20
-477.9506365195678
 10
232.3872696398318
 20
-477.9506365195678
 10
232.3872696398318
 20
-472.4506365195678
  0
LWPOLYLINE
  5
1426
330
6F
100
AcDbEntity
  8
right_outsideCutPath
100
AcDbPolyline
 90
        4
 70
     1
 43
0.0
 10
260.1113696398318
 20
-529.450636519568
 10
260.1113696398318
 20
-534.9506365195679
 10
232.3872696398318
 20
-534.9506365195679
 10
232.3872696398318
 20
-529.450636519568
  0
LWPOLYLINE
  5
1432
330
6F
100
AcDbEntity
  8
0
  6
Continuous
100
AcDbPolyline
 90
       52
 70
     1
 43
0.0
 10
-88.57605521038028
 20
-335.180114266702
 10
-88.57605521038028
 20
-340.6801142667019
 10
-116.3176052103802
 20
-340.6801142667019
 10
-116.3176052103802
 20
-322.5421642667019
 10
-110.8176052103802
 20
-322.5421642667019
 10
-110.8176052103802
 20
-294.8180642667018
 10
-116.3176052103802
 20
-294.8180642667018
 10
-116.3176052103802
 20
-278.1801142667019
 10
-88.57605521038028
 20
-278.1801142667019
 10
-88.57605521038028
 20
-283.6801142667019
 10
-60.85195521038031
 20
-283.6801142667019
 10
-60.85195521038031
 20
-278.1801142667019
 10
-33.12785521038029
 20
-278.1801142667019
 10
-33.12785521038029
 20
-283.6801142667019
 10
-5.403755210380325
 20
-283.6801142667019
 10
-5.403755210380325
 20
-278.1801142667019
 10
22.3203447896197
 20
-278.1801142667019
 10
22.3203447896197
 20
-283.6801142667019
 10
50.04444478961971
 20
-283.6801142667019
 10
50.04444478961971
 20
-278.1801142667019
 10
77.76854478961974
 20
-278.1801142667019
 10
77.76854478961974
 20
-283.6801142667019
 10
105.4926447896196
 20
-283.6801142667019
 10
105.4926447896196
 20
-278.1801142667019
 10
133.2167447896196
 20
-278.1801142667019
 10
133.2167447896196
 20
-283.6801142667019
 10
160.9408447896197
 20
-283.6801142667019
 10
160.9408447896197
 20
-278.1801142667019
 10
188.6823947896196
 20
-278.1801142667019
 10
188.6823947896196
 20
-294.8180642667018
 10
183.1823947896196
 20
-294.8180642667018
 10
183.1823947896196
 20
-322.5421642667019
 10
188.6823947896196
 20
-322.5421642667019
 10
188.6823947896196
 20
-340.6801142667019
 10
160.9408447896197
 20
-340.6801142667019
 10
160.9408447896197
 20
-335.180114266702
 10
133.2167447896196
 20
-335.180114266702
 10
133.2167447896196
 20
-340.6801142667019
 10
105.4926447896196
 20
-340.6801142667019
 10
105.4926447896196
 20
-335.180114266702
 10
77.76854478961974
 20
-335.180114266702
 10
77.76854478961974
 20
-340.6801142667019
 10
50.04444478961971
 20
-340.6801142667019
 10
50.04444478961971
 20
-335.180114266702
 10
22.3203447896197
 20
-335.180114266702
 10
22.3203447896197
 20
-340.6801142667019
 10
-5.403755210380325
 20
-340.6801142667019
 10
-5.403755210380325
 20
-335.180114266702
 10
-33.12785521038029
 20
-335.180114266702
 10
-33.12785521038029
 20
-340.6801142667019
 10
-60.85195521038031
 20
-340.6801142667019
 10
-60.85195521038031
 20
-335.180114266702
  0
LWPOLYLINE
  5
1433
330
6F
100
AcDbEntity
  8
0
  6
Continuous
100
AcDbPolyline
 90
       54
 70
     1
 43
0.0
 10
-186.025582985093
 20
-354.7119953829622
 10
-152.8876329866911
 20
-354.7116699511286
 10
-152.8874145631494
 20
-376.953219950056
 10
-147.3874145634146
 20
-376.953165937207
 10
-147.3871422983922
 20
-404.67726593587
 10
-152.8871422981269
 20
-404.6773199487189
 10
-152.8868700331045
 20
-432.4014199473825
 10
-147.3868700333697
 20
-432.4013659345336
 10
-147.3865977683473
 20
-460.1254659331966
 10
-152.8865977680821
 20
-460.1255199460455
 10
-152.8863255030596
 20
-487.8496199447088
 10
-147.3863255033249
 20
-487.8495659318599
 10
-147.3860532383024
 20
-515.5736659305226
 10
-152.8860532380372
 20
-515.5737199433714
 10
-152.8857809730148
 20
-543.2978199420346
 10
-147.38578097328
 20
-543.2977659291856
 10
-147.3855087082576
 20
-571.021865927849
 10
-152.8855087079923
 20
-571.0219199406977
 10
-152.8852364429699
 20
-598.7460199393607
 10
-147.3852364432351
 20
-598.745965926512
 10
-147.3849641782127
 20
-626.4700659251751
 10
-152.8849641779475
 20
-626.4701199380239
 10
-152.8847457544059
 20
-648.7116699369515
 10
-158.2985957541448
 20
-648.7117231037626
 10
-186.0226957528078
 20
-648.7119953687851
 10
-186.022641739959
 20
-654.2119953685199
 10
-213.7467417386222
 20
-654.2122676335424
 10
-213.7467957514711
 20
-648.7122676338075
 10
-246.884745749873
 20
-648.7125930656413
 10
-246.8849641734146
 20
-626.4710430667138
 10
-252.3849641731494
 20
-626.4710970795626
 10
-252.3852364381719
 20
-598.7469970808994
 10
-246.8852364384371
 20
-598.7469430680506
 10
-246.8855087034595
 20
-571.0228430693876
 10
-252.3855087031943
 20
-571.0228970822364
 10
-252.3857809682167
 20
-543.2987970835732
 10
-246.885780968482
 20
-543.2987430707242
 10
-246.8860532335044
 20
-515.5746430720613
 10
-252.3860532332392
 20
-515.5746970849101
 10
-252.3863254982616
 20
-487.8505970862475
 10
-246.8863254985269
 20
-487.8505430733986
 10
-246.8865977635493
 20
-460.1264430747353
 10
-252.3865977632841
 20
-460.1264970875842
 10
-252.3868700283065
 20
-432.4023970889211
 10
-246.8868700285717
 20
-432.4023430760722
 10
-246.8871422935941
 20
-404.6782430774087
 10
-252.3871422933289
 20
-404.6782970902576
 10
-252.3874145583513
 20
-376.9541970915947
 10
-246.8874145586166
 20
-376.9541430787457
 10
-246.8876329821581
 20
-354.7125930798182
 10
-241.4737829824192
 20
-354.7125399130071
 10
-213.7496829837562
 20
-354.7122676479848
 10
-213.7497369966051
 20
-349.2122676482499
 10
-186.0256369979419
 20
-349.2119953832274
  0
LWPOLYLINE
  5
1434
330
6F
100
AcDbEntity
  8
0
  6
Continuous
100
AcDbPolyline
 90
       12
 70
     0
 43
0.0
 10
293.2493196398318
 20
-118.9506365195679
 10
293.2493196398318
 20
-102.8126865195679
 10
298.7493196398318
 20
-102.8126865195679
 10
298.7493196398318
 20
-75.08858651956797
 10
293.2493196398318
 20
-75.08858651956797
 10
293.2493196398318
 20
-58.45063651956795
 10
260.1113696398318
 20
-58.45063651956795
 10
260.1113696398318
 20
-63.95063651956796
 10
232.3872696398318
 20
-63.95063651956796
 10
232.3872696398318
 20
-58.45063651956795
 10
199.2493196398318
 20
-58.45063651956795
 10
199.2493196398318
 20
-75.08858651956797
  0
LWPOLYLINE
  5
1435
330
6F
100
AcDbEntity
  8
0
  6
Continuous
100
AcDbPolyline
 90
        4
 70
     1
 43
0.0
 10
232.3872696398318
 20
-115.4506365195679
 10
232.3872696398318
 20
-120.9506365195679
 10
260.1113696398318
 20
-120.9506365195679
 10
260.1113696398318
 20
-115.4506365195679
  0
LWPOLYLINE
  5
1436
330
6F
100
AcDbEntity
  8
0
  6
Continuous
100
AcDbPolyline
 90
        9
 70
     0
 43
0.0
 10
293.2493196398318
 20
-529.9506365195679
 10
293.2493196398318
 20
-573.8126865195677
 10
293.2493196398318
 20
-589.9506365195677
 10
287.8354696398318
 20
-589.9506365195677
 10
260.1113696398318
 20
-589.9506365195677
 42
2.128556207782582
 10
232.3872696398318
 20
-589.9506365195677
 10
199.2493196398318
 20
-589.9506365195677
 10
199.2493196398318
 20
-573.8126865195677
 10
199.2493196398318
 20
-529.9506365195679
  0
LWPOLYLINE
  5
1437
330
6F
100
AcDbEntity
  8
right_outsideCutPath
100
AcDbPolyline
 90
        6
 70
     0
 43
0.0
 10
293.2493196398318
 20
-532.950636519568
 10
293.2493196398318
 20
-516.8126865195678
 10
298.7493196398318
 20
-516.8126865195678
 10
298.7493196398318
 20
-489.0885865195677
 10
293.2493196398318
 20
-489.0885865195677
 10
293.2493196398318
 20
-472.9506365195677
  0
LWPOLYLINE
  5
1438
330
6F
100
AcDbEntity
  8
right_outsideCutPath
100
AcDbPolyline
 90
        6
 70
     0
 43
0.0
 10
199.2493196398318
 20
-472.9506365195677
 10
199.2493196398318
 20
-489.0885865195677
 10
193.7493196398318
 20
-489.0885865195677
 10
193.7493196398318
 20
-516.8126865195678
 10
199.2493196398318
 20
-516.8126865195678
 10
199.2493196398318
 20
-532.950636519568
  0
LWPOLYLINE
  5
1439
330
6F
100
AcDbEntity
  8
0
  6
Continuous
100
AcDbPolyline
 90
        4
 70
     0
 43
0.0
 10
293.2493196398318
 20
-115.9506365195679
 10
293.2493196398318
 20
-159.8126865195679
 10
293.2493196398318
 20
-175.950636519568
 10
293.2493196398318
 20
-475.9506365195679
  0
LWPOLYLINE
  5
143A
330
6F
100
AcDbEntity
  8
0
  6
Continuous
100
AcDbPolyline
 90
        4
 70
     0
 43
0.0
 10
199.2493196398318
 20
-115.9506365195679
 10
199.2493196398318
 20
-159.8126865195679
 10
199.2493196398318
 20
-175.950636519568
 10
199.2493196398318
 20
-475.9506365195679
  0
LWPOLYLINE
  5
143B
330
6F
100
AcDbEntity
  8
left_outsideCutPath
100
AcDbPolyline
 90
        5
 70
     0
 43
0.0
 10
199.2493196398318
 20
-75.08858651956797
 10
193.7493196398318
 20
-75.08858651956797
 10
193.7493196398318
 20
-102.8126865195679
 10
199.2493196398318
 20
-102.8126865195679
 10
199.2493196398318
 20
-118.9506365195679
  0
LINE
  5
143C
330
6F
100
AcDbEntity
  8
left_outsideCutPath
100
AcDbLine
 10
344.7065533530274
 20
-118.9506365195679
 30
0.0
 11
344.7065533530274
 21
-115.9506365195679
 31
0.0
  0
LINE
  5
143D
330
6F
100
AcDbEntity
  8
left_outsideCutPath
100
AcDbLine
 10
372.4306533530274
 20
-115.9506365195679
 30
0.0
 11
372.4306533530274
 21
-118.9506365195679
 31
0.0
  0
LINE
  5
143E
330
6F
100
AcDbEntity
  8
right_outsideCutPath
100
AcDbLine
 10
344.7065533530274
 20
-475.9506365195679
 30
0.0
 11
344.7065533530274
 21
-472.9506365195677
 31
0.0
  0
LINE
  5
143F
330
6F
100
AcDbEntity
  8
right_outsideCutPath
100
AcDbLine
 10
372.4306533530274
 20
-472.9506365195677
 30
0.0
 11
372.4306533530274
 21
-475.9506365195679
 31
0.0
  0
LINE
  5
1440
330
6F
100
AcDbEntity
  8
right_outsideCutPath
100
AcDbLine
 10
344.7065533530274
 20
-532.950636519568
 30
0.0
 11
344.7065533530274
 21
-529.9506365195679
 31
0.0
  0
LINE
  5
1441
330
6F
100
AcDbEntity
  8
right_outsideCutPath
100
AcDbLine
 10
372.4306533530274
 20
-529.9506365195679
 30
0.0
 11
372.4306533530274
 21
-532.950636519568
 31
0.0
  0
LWPOLYLINE
  5
1442
330
6F
100
AcDbEntity
  8
right_outsideCutPath
100
AcDbPolyline
 90
        4
 70
     1
 43
0.0
 10
372.4306533530274
 20
-472.4506365195678
 10
372.4306533530274
 20
-477.9506365195678
 10
344.7065533530274
 20
-477.9506365195678
 10
344.7065533530274
 20
-472.4506365195678
  0
LWPOLYLINE
  5
1443
330
6F
100
AcDbEntity
  8
right_outsideCutPath
100
AcDbPolyline
 90
        4
 70
     1
 43
0.0
 10
372.4306533530274
 20
-529.450636519568
 10
372.4306533530274
 20
-534.9506365195679
 10
344.7065533530274
 20
-534.9506365195679
 10
344.7065533530274
 20
-529.450636519568
  0
LWPOLYLINE
  5
1444
330
6F
100
AcDbEntity
  8
0
  6
Continuous
100
AcDbPolyline
 90
       12
 70
     0
 43
0.0
 10
405.5686033530274
 20
-118.9506365195679
 10
405.5686033530274
 20
-102.8126865195679
 10
411.0686033530273
 20
-102.8126865195679
 10
411.0686033530273
 20
-75.08858651956797
 10
405.5686033530274
 20
-75.08858651956797
 10
405.5686033530274
 20
-58.45063651956795
 10
372.4306533530274
 20
-58.45063651956795
 10
372.4306533530274
 20
-63.95063651956796
 10
344.7065533530274
 20
-63.95063651956796
 10
344.7065533530274
 20
-58.45063651956795
 10
311.5686033530274
 20
-58.45063651956795
 10
311.5686033530274
 20
-75.08858651956797
  0
LWPOLYLINE
  5
1445
330
6F
100
AcDbEntity
  8
0
  6
Continuous
100
AcDbPolyline
 90
        4
 70
     1
 43
0.0
 10
344.7065533530274
 20
-115.4506365195679
 10
344.7065533530274
 20
-120.9506365195679
 10
372.4306533530274
 20
-120.9506365195679
 10
372.4306533530274
 20
-115.4506365195679
  0
LWPOLYLINE
  5
1446
330
6F
100
AcDbEntity
  8
0
  6
Continuous
100
AcDbPolyline
 90
        9
 70
     0
 43
0.0
 10
405.5686033530274
 20
-529.9506365195679
 10
405.5686033530274
 20
-573.8126865195677
 10
405.5686033530274
 20
-589.9506365195677
 10
400.1547533530273
 20
-589.9506365195677
 10
372.4306533530274
 20
-589.9506365195677
 42
2.128556207782582
 10
344.7065533530274
 20
-589.9506365195677
 10
311.5686033530274
 20
-589.9506365195677
 10
311.5686033530274
 20
-573.8126865195677
 10
311.5686033530274
 20
-529.9506365195679
  0
LWPOLYLINE
  5
1447
330
6F
100
AcDbEntity
  8
right_outsideCutPath
100
AcDbPolyline
 90
        6
 70
     0
 43
0.0
 10
405.5686033530274
 20
-532.950636519568
 10
405.5686033530274
 20
-516.8126865195678
 10
411.0686033530273
 20
-516.8126865195678
 10
411.0686033530273
 20
-489.0885865195677
 10
405.5686033530274
 20
-489.0885865195677
 10
405.5686033530274
 20
-472.9506365195677
  0
LWPOLYLINE
  5
1448
330
6F
100
AcDbEntity
  8
right_outsideCutPath
100
AcDbPolyline
 90
        6
 70
     0
 43
0.0
 10
311.5686033530274
 20
-472.9506365195677
 10
311.5686033530274
 20
-489.0885865195677
 10
306.0686033530274
 20
-489.0885865195677
 10
306.0686033530274
 20
-516.8126865195678
 10
311.5686033530274
 20
-516.8126865195678
 10
311.5686033530274
 20
-532.950636519568
  0
LWPOLYLINE
  5
1449
330
6F
100
AcDbEntity
  8
0
  6
Continuous
100
AcDbPolyline
 90
        4
 70
     0
 43
0.0
 10
405.5686033530274
 20
-115.9506365195679
 10
405.5686033530274
 20
-159.8126865195679
 10
405.5686033530274
 20
-175.950636519568
 10
405.5686033530274
 20
-475.9506365195679
  0
LWPOLYLINE
  5
144A
330
6F
100
AcDbEntity
  8
0
  6
Continuous
100
AcDbPolyline
 90
        4
 70
     0
 43
0.0
 10
311.5686033530274
 20
-115.9506365195679
 10
311.5686033530274
 20
-159.8126865195679
 10
311.5686033530274
 20
-175.950636519568
 10
311.5686033530274
 20
-475.9506365195679
  0
LWPOLYLINE
  5
144B
330
6F
100
AcDbEntity
  8
left_outsideCutPath
100
AcDbPolyline
 90
        5
 70
     0
 43
0.0
 10
311.5686033530274
 20
-75.08858651956797
 10
306.0686033530274
 20
-75.08858651956797
 10
306.0686033530274
 20
-102.8126865195679
 10
311.5686033530274
 20
-102.8126865195679
 10
311.5686033530274
 20
-118.9506365195679
  0
LWPOLYLINE
  5
1457
330
6F
100
AcDbEntity
  8
0
  6
Continuous
100
AcDbPolyline
 90
       54
 70
     1
 43
0.0
 10
147.2827928379633
 20
-354.3560133971827
 10
180.4207428363652
 20
-354.355687965349
 10
180.4209612599068
 20
-376.5972379642766
 10
185.9209612596415
 20
-376.5971839514277
 10
185.9212335246638
 20
-404.3212839500908
 10
180.4212335249291
 20
-404.3213379629397
 10
180.4215057899515
 20
-432.0454379616031
 10
185.9215057896863
 20
-432.0453839487542
 10
185.9217780547087
 20
-459.7694839474173
 10
180.4217780549739
 20
-459.7695379602662
 10
180.4220503199964
 20
-487.4936379589295
 10
185.9220503197311
 20
-487.4935839460805
 10
185.9223225847536
 20
-515.217683944743
 10
180.4223225850188
 20
-515.217737957592
 10
180.4225948500412
 20
-542.9418379562552
 10
185.922594849776
 20
-542.9417839434064
 10
185.9228671147984
 20
-570.6658839420693
 10
180.4228671150637
 20
-570.6659379549181
 10
180.4231393800861
 20
-598.3900379535815
 10
185.9231393798209
 20
-598.3899839407325
 10
185.9234116448433
 20
-626.1140839393955
 10
180.4234116451085
 20
-626.1141379522444
 10
180.4236300686502
 20
-648.3556879511719
 10
175.0097800689115
 20
-648.3557411179832
 10
147.2856800702482
 20
-648.3560133830057
 10
147.2857340830971
 20
-653.8560133827403
 10
119.5616340844339
 20
-653.8562856477628
 10
119.5615800715851
 20
-648.3562856480281
 10
86.42363007318294
 20
-648.3566110798616
 10
86.42341164964136
 20
-626.1150610809342
 10
80.9234116499066
 20
-626.1151150937831
 10
80.92313938488421
 20
-598.3910150951202
 10
86.42313938461899
 20
-598.3909610822712
 10
86.42286711959668
 20
-570.666861083608
 10
80.9228671198619
 20
-570.6669150964568
 10
80.92259485483948
 20
-542.9428150977939
 10
86.42259485457424
 20
-542.9427610849451
 10
86.4223225895518
 20
-515.2186610862817
 10
80.92232258981704
 20
-515.2187150991307
 10
80.92205032479467
 20
-487.4946151004679
 10
86.42205032452944
 20
-487.4945610876192
 10
86.421778059507
 20
-459.770461088956
 10
80.92177805977224
 20
-459.7705151018049
 10
80.9215057947498
 20
-432.0464151031418
 10
86.42150579448458
 20
-432.0463610902928
 10
86.42123352946208
 20
-404.3222610916294
 10
80.92123352972732
 20
-404.3223151044782
 10
80.92096126470488
 20
-376.5982151058151
 10
86.42096126443965
 20
-376.5981610929663
 10
86.42074284089806
 20
-354.3566110940389
 10
91.83459284063706
 20
-354.3565579272276
 10
119.5586928393
 20
-354.3562856622051
 10
119.5586388264512
 20
-348.8562856624704
 10
147.2827388251145
 20
-348.856013397448
  0
ENDSEC
  0
SECTION
  2
OBJECTS
  0
DICTIONARY
  5
C
330
0
100
AcDbDictionary
281
     1
  3
ACAD_BACKGROUND
350
589
  3
ACAD_CIP_PREVIOUS_PRODUCT_INFO
350
582
  3
ACAD_COLOR
350
62
  3
ACAD_DETAILVIEWSTYLE
350
69
  3
ACAD_GROUP
350
D
  3
ACAD_LAYOUT
350
61
  3
ACAD_MATERIAL
350
10
  3
ACAD_MLEADERSTYLE
350
65
  3
ACAD_MLINESTYLE
350
5E
  3
ACAD_PLOTSETTINGS
350
60
  3
ACAD_PLOTSTYLENAME
350
E
  3
ACAD_SCALELIST
350
42
  3
ACAD_SECTIONVIEWSTYLE
350
67
  3
ACAD_TABLESTYLE
350
63
  3
ACAD_VISUALSTYLE
350
29
  3
ACDB_RECOMPOSE_DATA
350
148F
  3
AcDbVariableDictionary
350
7E4
  0
DICTIONARY
  5
9DD
330
2
100
AcDbDictionary
280
     1
281
     1
  3
ACAD_LAYERSTATES
360
9DE
  0
DICTIONARY
  5
7CA
330
54
100
AcDbDictionary
280
     1
281
     1
  3
ADSK_XREC_LAYER_RECONCILED
360
7CB
  0
DICTIONARY
  5
7CC
330
75
100
AcDbDictionary
280
     1
281
     1
  3
ADSK_XREC_LAYER_RECONCILED
360
7CD
  0
DICTIONARY
  5
7CE
330
AA
100
AcDbDictionary
280
     1
281
     1
  3
ADSK_XREC_LAYER_RECONCILED
360
7CF
  0
DICTIONARY
  5
7D0
330
144
100
AcDbDictionary
280
     1
281
     1
  3
ADSK_XREC_LAYER_RECONCILED
360
7D1
  0
DICTIONARY
  5
7D2
330
15B
100
AcDbDictionary
280
     1
281
     1
  3
ADSK_XREC_LAYER_RECONCILED
360
7D3
  0
DICTIONARY
  5
7D4
330
1C5
100
AcDbDictionary
280
     1
281
     1
  3
ADSK_XREC_LAYER_RECONCILED
360
7D5
  0
DICTIONARY
  5
7D6
330
1FC
100
AcDbDictionary
280
     1
281
     1
  3
ADSK_XREC_LAYER_RECONCILED
360
7D7
  0
DICTIONARY
  5
7D8
330
27B
100
AcDbDictionary
280
     1
281
     1
  3
ADSK_XREC_LAYER_RECONCILED
360
7D9
  0
DICTIONARY
  5
7DA
330
2B0
100
AcDbDictionary
280
     1
281
     1
  3
ADSK_XREC_LAYER_RECONCILED
360
7DB
  0
DICTIONARY
  5
7DC
330
359
100
AcDbDictionary
280
     1
281
     1
  3
ADSK_XREC_LAYER_RECONCILED
360
7DD
  0
DICTIONARY
  5
7DE
330
370
100
AcDbDictionary
280
     1
281
     1
  3
ADSK_XREC_LAYER_RECONCILED
360
7DF
  0
DICTIONARY
  5
7E0
330
44C
100
AcDbDictionary
280
     1
281
     1
  3
ADSK_XREC_LAYER_RECONCILED
360
7E1
  0
DICTIONARY
  5
7E2
330
483
100
AcDbDictionary
280
     1
281
     1
  3
ADSK_XREC_LAYER_RECONCILED
360
7E3
  0
DICTIONARY
  5
13C2
330
6F
100
AcDbDictionary
280
     1
281
     1
  3
ACAD_SORTENTS
360
13C3
  0
DICTIONARY
  5
589
102
{ACAD_REACTORS
330
C
102
}
330
C
100
AcDbDictionary
281
     1
  0
XRECORD
  5
582
102
{ACAD_REACTORS
330
C
102
}
330
C
100
AcDbXrecord
280
     1
300
ACD
300
2014
300
ACD_F_S
  0
DICTIONARY
  5
62
102
{ACAD_REACTORS
330
C
102
}
330
C
100
AcDbDictionary
281
     1
  0
DICTIONARY
  5
69
102
{ACAD_REACTORS
330
C
102
}
330
C
100
AcDbDictionary
281
     1
  3
Imperial24
350
6A
  0
DICTIONARY
  5
D
102
{ACAD_REACTORS
330
C
102
}
330
C
100
AcDbDictionary
281
     1
  0
DICTIONARY
  5
61
102
{ACAD_REACTORS
330
C
102
}
330
C
100
AcDbDictionary
281
     1
  3
Model
350
72
  3
Presentación1
350
6E
  0
DICTIONARY
  5
10
102
{ACAD_REACTORS
330
C
102
}
330
C
100
AcDbDictionary
281
     1
  3
ByBlock
350
19
  3
ByLayer
350
11
  3
Global
350
21
  0
DICTIONARY
  5
65
102
{ACAD_REACTORS
330
C
102
}
330
C
100
AcDbDictionary
281
     1
  3
Standard
350
66
  0
DICTIONARY
  5
5E
102
{ACAD_REACTORS
330
C
102
}
330
C
100
AcDbDictionary
281
     1
  3
Standard
350
5F
  0
DICTIONARY
  5
60
102
{ACAD_REACTORS
330
C
102
}
330
C
100
AcDbDictionary
281
     1
  0
ACDBDICTIONARYWDFLT
  5
E
102
{ACAD_REACTORS
330
C
102
}
330
C
100
AcDbDictionary
281
     1
  3
Normal
350
F
100
AcDbDictionaryWithDefault
340
F
  0
DICTIONARY
  5
42
102
{ACAD_REACTORS
330
C
102
}
330
C
100
AcDbDictionary
281
     1
  3
A0
350
43
  3
A1
350
44
  3
A2
350
45
  3
A3
350
46
  3
A4
350
47
  3
A5
350
48
  3
A6
350
49
  3
A7
350
4A
  3
A8
350
4B
  3
A9
350
4C
  3
B0
350
4D
  3
B1
350
4E
  3
B2
350
4F
  3
B3
350
50
  3
B4
350
51
  3
B5
350
52
  3
B6
350
53
  0
DICTIONARY
  5
67
102
{ACAD_REACTORS
330
C
102
}
330
C
100
AcDbDictionary
281
     1
  3
Imperial24
350
68
  0
DICTIONARY
  5
63
102
{ACAD_REACTORS
330
C
102
}
330
C
100
AcDbDictionary
281
     1
  3
Standard
350
64
  0
DICTIONARY
  5
29
102
{ACAD_REACTORS
330
C
102
}
330
C
100
AcDbDictionary
281
     1
  3
2dWireframe
350
2F
  3
Basic
350
2E
  3
Brighten
350
35
  3
ColorChange
350
39
  3
Conceptual
350
32
  3
Dim
350
34
  3
EdgeColorOff
350
41
  3
Facepattern
350
38
  3
Flat
350
2A
  3
FlatWithEdges
350
2B
  3
Gouraud
350
2C
  3
GouraudWithEdges
350
2D
  3
Hidden
350
31
  3
JitterOff
350
3F
  3
Linepattern
350
37
  3
OverhangOff
350
40
  3
Realistic
350
33
  3
Shaded
350
3E
  3
Shaded with edges
350
3D
  3
Shades of Gray
350
3A
  3
Sketchy
350
3B
  3
Thicken
350
36
  3
Wireframe
350
30
  3
X-Ray
350
3C
  0
XRECORD
  5
148F
102
{ACAD_REACTORS
330
C
102
}
330
C
100
AcDbXrecord
280
     1
 90
        1
330
64
330
68
330
6A
330
12AD
  0
DICTIONARY
  5
7E4
102
{ACAD_REACTORS
330
C
102
}
330
C
100
AcDbDictionary
281
     1
  3
CANNOSCALE
350
7EA
  3
CMLEADERSTYLE
350
7E6
  3
CTABLESTYLE
350
7E5
  3
CVIEWDETAILSTYLE
350
7E7
  3
CVIEWSECTIONSTYLE
350
7E8
  3
LAYEREVAL
350
7EC
  3
LAYERNOTIFY
350
7ED
  3
LIGHTINGUNITS
350
7EB
  3
MSLTSCALE
350
7E9
  0
DICTIONARY
  5
9DE
102
{ACAD_REACTORS
330
9DD
102
}
330
9DD
100
AcDbDictionary
281
     1
  0
XRECORD
  5
7CB
102
{ACAD_REACTORS
330
7CA
102
}
330
7CA
100
AcDbXrecord
280
     1
290
     1
  0
XRECORD
  5
7CD
102
{ACAD_REACTORS
330
7CC
102
}
330
7CC
100
AcDbXrecord
280
     1
290
     1
  0
XRECORD
  5
7CF
102
{ACAD_REACTORS
330
7CE
102
}
330
7CE
100
AcDbXrecord
280
     1
290
     1
  0
XRECORD
  5
7D1
102
{ACAD_REACTORS
330
7D0
102
}
330
7D0
100
AcDbXrecord
280
     1
290
     1
  0
XRECORD
  5
7D3
102
{ACAD_REACTORS
330
7D2
102
}
330
7D2
100
AcDbXrecord
280
     1
290
     1
  0
XRECORD
  5
7D5
102
{ACAD_REACTORS
330
7D4
102
}
330
7D4
100
AcDbXrecord
280
     1
290
     1
  0
XRECORD
  5
7D7
102
{ACAD_REACTORS
330
7D6
102
}
330
7D6
100
AcDbXrecord
280
     1
290
     1
  0
XRECORD
  5
7D9
102
{ACAD_REACTORS
330
7D8
102
}
330
7D8
100
AcDbXrecord
280
     1
290
     1
  0
XRECORD
  5
7DB
102
{ACAD_REACTORS
330
7DA
102
}
330
7DA
100
AcDbXrecord
280
     1
290
     1
  0
XRECORD
  5
7DD
102
{ACAD_REACTORS
330
7DC
102
}
330
7DC
100
AcDbXrecord
280
     1
290
     1
  0
XRECORD
  5
7DF
102
{ACAD_REACTORS
330
7DE
102
}
330
7DE
100
AcDbXrecord
280
     1
290
     1
  0
XRECORD
  5
7E1
102
{ACAD_REACTORS
330
7E0
102
}
330
7E0
100
AcDbXrecord
280
     1
290
     1
  0
XRECORD
  5
7E3
102
{ACAD_REACTORS
330
7E2
102
}
330
7E2
100
AcDbXrecord
280
     1
290
     1
  0
SORTENTSTABLE
  5
13C3
102
{ACAD_REACTORS
330
13C2
102
}
330
13C2
100
AcDbSortentsTable
330
6F
331
128F
  5
128F
331
472
  5
472
331
461
  5
461
331
450
  5
450
331
1290
  5
1290
331
473
  5
473
331
462
  5
462
331
451
  5
451
331
1291
  5
1291
331
482
  5
482
331
474
  5
474
331
463
  5
463
331
452
  5
452
331
475
  5
475
331
464
  5
464
331
453
  5
453
331
11E0
  5
11E0
331
476
  5
476
331
465
  5
465
331
454
  5
454
331
11E1
  5
11E1
331
477
  5
477
331
466
  5
466
331
455
  5
455
331
11E2
  5
11E2
331
11FB
  5
11FB
331
F69
  5
F69
331
478
  5
478
331
467
  5
467
331
456
  5
456
331
11E3
  5
11E3
331
11FC
  5
11FC
331
479
  5
479
331
468
  5
468
331
F3E
  5
F3E
331
457
  5
457
331
11E4
  5
11E4
331
11FD
  5
11FD
331
F6B
  5
F6B
331
47A
  5
47A
331
469
  5
469
331
458
  5
458
331
F40
  5
F40
331
11E5
  5
11E5
331
11FE
  5
11FE
331
47B
  5
47B
331
46A
  5
46A
331
459
  5
459
331
12DD
  5
12DD
331
11FF
  5
11FF
331
F5C
  5
F5C
331
47C
  5
47C
331
46B
  5
46B
331
45A
  5
45A
331
1200
  5
1200
331
47D
  5
47D
331
46C
  5
46C
331
45B
  5
45B
331
1201
  5
1201
331
11F0
  5
11F0
331
F5E
  5
F5E
331
47E
  5
47E
331
46D
  5
46D
331
45C
  5
45C
331
12AD
  5
12AD
331
1202
  5
1202
331
11F1
  5
11F1
331
46E
  5
46E
331
45D
  5
45D
331
1203
  5
1203
331
46F
  5
46F
331
45E
  5
45E
331
44D
  5
44D
331
1204
  5
1204
331
470
  5
470
331
45F
  5
45F
331
44E
  5
44E
331
471
  5
471
331
460
  5
460
331
44F
  5
44F
  0
ACDBDETAILVIEWSTYLE
  5
6A
102
{ACAD_XDICTIONARY
360
1080
102
}
102
{ACAD_REACTORS
330
69
102
}
330
69
100
AcDbModelDocViewStyle
 70
     0
  3
Imperial24
290
     0
100
AcDbDetailViewStyle
 70
     0
 71
     0
 90
        3
 71
     1
340
55
 62
   256
 40
0.24
340
0
 62
   256
 40
0.24
300

 40
0.36
280
     3
 71
     2
340
5C
 90
       25
 62
   256
 71
     3
340
55
 62
   256
 40
0.24
 90
        1
 40
0.75
 90
        1
300
%<\AcVar ViewType \f "%tc1">% %<\AcVar ViewDetailId>%\PESCALA %<\AcVar ViewScale \f "%sn">%
 71
     4
340
5C
 90
       25
 62
   256
340
5C
 90
       25
 62
   256
280
     0
  0
LAYOUT
  5
72
102
{ACAD_REACTORS
330
61
102
}
330
61
100
AcDbPlotSettings
  1

  2
Brother HL-1110 series
  4

  6

 40
0.0
 41
0.0
 42
0.0
 43
0.0
 44
0.0
 45
0.0
 46
0.0
 47
0.0
 48
0.0
 49
0.0
140
0.0
141
0.0
142
1.0
143
1.0
 70
  1712
 72
     0
 73
     0
 74
     0
  7

 75
     0
147
1.0
 76
     0
 77
     2
 78
   300
148
0.0
149
0.0
100
AcDbLayout
  1
Model
 70
     1
 71
     0
 10
0.0
 20
0.0
 11
12.0
 21
9.0
 12
0.0
 22
0.0
 32
0.0
 14
0.0
 24
0.0
 34
0.0
 15
0.0
 25
0.0
 35
0.0
146
0.0
 13
0.0
 23
0.0
 33
0.0
 16
1.0
 26
0.0
 36
0.0
 17
0.0
 27
1.0
 37
0.0
 76
     0
330
6F
331
74
  0
LAYOUT
  5
6E
102
{ACAD_REACTORS
330
61
102
}
330
61
100
AcDbPlotSettings
  1

  2
Brother HL-1110 series
  4

  6

 40
0.0
 41
0.0
 42
0.0
 43
0.0
 44
0.0
 45
0.0
 46
0.0
 47
0.0
 48
0.0
 49
0.0
140
0.0
141
0.0
142
1.0
143
1.0
 70
   688
 72
     0
 73
     0
 74
     5
  7

 75
    16
147
1.0
 76
     0
 77
     2
 78
   300
148
0.0
149
0.0
100
AcDbLayout
  1
Presentación1
 70
     1
 71
     1
 10
0.0
 20
0.0
 11
12.0
 21
9.0
 12
0.0
 22
0.0
 32
0.0
 14
1.000000000000000E+20
 24
1.000000000000000E+20
 34
1.000000000000000E+20
 15
-1.000000000000000E+20
 25
-1.000000000000000E+20
 35
-1.000000000000000E+20
146
0.0
 13
0.0
 23
0.0
 33
0.0
 16
1.0
 26
0.0
 36
0.0
 17
0.0
 27
1.0
 37
0.0
 76
     0
330
6B
  0
MATERIAL
  5
19
102
{ACAD_XDICTIONARY
360
1A
102
}
102
{ACAD_REACTORS
330
10
102
}
330
10
100
AcDbMaterial
  1
ByBlock
 72
     0
 43
0.0208333333333333
 43
0.0
 43
0.0
 43
0.0
 43
0.0
 43
0.0208333333333333
 43
0.0
 43
0.0
 43
0.0
 43
0.0
 43
1.0
 43
0.0
 43
0.0
 43
0.0
 43
0.0
 43
1.0
 77
     0
 47
0.0208333333333333
 47
0.0
 47
0.0
 47
0.0
 47
0.0
 47
0.0208333333333333
 47
0.0
 47
0.0
 47
0.0
 47
0.0
 47
1.0
 47
0.0
 47
0.0
 47
0.0
 47
0.0
 47
1.0
171
     0
 49
0.0208333333333333
 49
0.0
 49
0.0
 49
0.0
 49
0.0
 49
0.0208333333333333
 49
0.0
 49
0.0
 49
0.0
 49
0.0
 49
1.0
 49
0.0
 49
0.0
 49
0.0
 49
0.0
 49
1.0
175
     0
142
0.0208333333333333
142
0.0
142
0.0
142
0.0
142
0.0
142
0.0208333333333333
142
0.0
142
0.0
142
0.0
142
0.0
142
1.0
142
0.0
142
0.0
142
0.0
142
0.0
142
1.0
179
     0
144
0.0208333333333333
144
0.0
144
0.0
144
0.0
144
0.0
144
0.0208333333333333
144
0.0
144
0.0
144
0.0
144
0.0
144
1.0
144
0.0
144
0.0
144
0.0
144
0.0
144
1.0
147
0.0208333333333333
147
0.0
147
0.0
147
0.0
147
0.0
147
0.0208333333333333
147
0.0
147
0.0
147
0.0
147
0.0
147
1.0
147
0.0
147
0.0
147
0.0
147
0.0
147
1.0
  0
MATERIAL
  5
11
102
{ACAD_XDICTIONARY
360
12
102
}
102
{ACAD_REACTORS
330
10
102
}
330
10
100
AcDbMaterial
  1
ByLayer
 72
     0
 43
0.0208333333333333
 43
0.0
 43
0.0
 43
0.0
 43
0.0
 43
0.0208333333333333
 43
0.0
 43
0.0
 43
0.0
 43
0.0
 43
1.0
 43
0.0
 43
0.0
 43
0.0
 43
0.0
 43
1.0
 77
     0
 47
0.0208333333333333
 47
0.0
 47
0.0
 47
0.0
 47
0.0
 47
0.0208333333333333
 47
0.0
 47
0.0
 47
0.0
 47
0.0
 47
1.0
 47
0.0
 47
0.0
 47
0.0
 47
0.0
 47
1.0
171
     0
 49
0.0208333333333333
 49
0.0
 49
0.0
 49
0.0
 49
0.0
 49
0.0208333333333333
 49
0.0
 49
0.0
 49
0.0
 49
0.0
 49
1.0
 49
0.0
 49
0.0
 49
0.0
 49
0.0
 49
1.0
175
     0
142
0.0208333333333333
142
0.0
142
0.0
142
0.0
142
0.0
142
0.0208333333333333
142
0.0
142
0.0
142
0.0
142
0.0
142
1.0
142
0.0
142
0.0
142
0.0
142
0.0
142
1.0
179
     0
144
0.0208333333333333
144
0.0
144
0.0
144
0.0
144
0.0
144
0.0208333333333333
144
0.0
144
0.0
144
0.0
144
0.0
144
1.0
144
0.0
144
0.0
144
0.0
144
0.0
144
1.0
147
0.0208333333333333
147
0.0
147
0.0
147
0.0
147
0.0
147
0.0208333333333333
147
0.0
147
0.0
147
0.0
147
0.0
147
1.0
147
0.0
147
0.0
147
0.0
147
0.0
147
1.0
  0
MATERIAL
  5
21
102
{ACAD_XDICTIONARY
360
22
102
}
102
{ACAD_REACTORS
330
10
102
}
330
10
100
AcDbMaterial
  1
Global
 72
     0
 43
0.0208333333333333
 43
0.0
 43
0.0
 43
0.0
 43
0.0
 43
0.0208333333333333
 43
0.0
 43
0.0
 43
0.0
 43
0.0
 43
1.0
 43
0.0
 43
0.0
 43
0.0
 43
0.0
 43
1.0
 77
     0
 47
0.0208333333333333
 47
0.0
 47
0.0
 47
0.0
 47
0.0
 47
0.0208333333333333
 47
0.0
 47
0.0
 47
0.0
 47
0.0
 47
1.0
 47
0.0
 47
0.0
 47
0.0
 47
0.0
 47
1.0
171
     0
 49
0.0208333333333333
 49
0.0
 49
0.0
 49
0.0
 49
0.0
 49
0.0208333333333333
 49
0.0
 49
0.0
 49
0.0
 49
0.0
 49
1.0
 49
0.0
 49
0.0
 49
0.0
 49
0.0
 49
1.0
175
     0
142
0.0208333333333333
142
0.0
142
0.0
142
0.0
142
0.0
142
0.0208333333333333
142
0.0
142
0.0
142
0.0
142
0.0
142
1.0
142
0.0
142
0.0
142
0.0
142
0.0
142
1.0
179
     0
144
0.0208333333333333
144
0.0
144
0.0
144
0.0
144
0.0
144
0.0208333333333333
144
0.0
144
0.0
144
0.0
144
0.0
144
1.0
144
0.0
144
0.0
144
0.0
144
0.0
144
1.0
147
0.0208333333333333
147
0.0
147
0.0
147
0.0
147
0.0
147
0.0208333333333333
147
0.0
147
0.0
147
0.0
147
0.0
147
1.0
147
0.0
147
0.0
147
0.0
147
0.0
147
1.0
  0
MLEADERSTYLE
  5
66
102
{ACAD_REACTORS
330
65
102
}
330
65
100
AcDbMLeaderStyle
179
     2
170
     2
171
     1
172
     0
 90
        2
 40
0.0
 41
0.0
173
     1
 91
-1056964608
340
5A
 92
       -2
290
     1
 42
0.09
291
     1
 43
0.36
  3
Standard
 44
0.18
300

342
55
174
     1
178
     6
175
     1
176
     0
 93
-1056964608
 45
0.18
292
     0
297
     0
 46
0.18
 94
-1056964608
 47
1.0
 49
1.0
140
1.0
293
     1
141
0.0
294
     1
177
     0
142
1.0
295
     0
296
     0
143
0.125
271
     0
272
     9
273
     9
298
     0
  0
MLINESTYLE
  5
5F
102
{ACAD_REACTORS
330
5E
102
}
330
5E
100
AcDbMlineStyle
  2
STANDARD
 70
     0
  3

 62
   256
 51
90.0
 52
90.0
 71
     2
 49
0.5
 62
   256
  6
BYLAYER
 49
-0.5
 62
   256
  6
BYLAYER
  0
ACDBPLACEHOLDER
  5
F
102
{ACAD_REACTORS
330
E
102
}
330
E
  0
SCALE
  5
43
102
{ACAD_REACTORS
330
42
102
}
330
42
100
AcDbScale
 70
     0
300
1:1
140
1.0
141
1.0
290
     1
  0
SCALE
  5
44
102
{ACAD_REACTORS
330
42
102
}
330
42
100
AcDbScale
 70
     0
300
1/128" = 1'-0"
140
0.0078125
141
12.0
290
     0
  0
SCALE
  5
45
102
{ACAD_REACTORS
330
42
102
}
330
42
100
AcDbScale
 70
     0
300
1/64" = 1'-0"
140
0.015625
141
12.0
290
     0
  0
SCALE
  5
46
102
{ACAD_REACTORS
330
42
102
}
330
42
100
AcDbScale
 70
     0
300
1/32" = 1'-0"
140
0.03125
141
12.0
290
     0
  0
SCALE
  5
47
102
{ACAD_REACTORS
330
42
102
}
330
42
100
AcDbScale
 70
     0
300
1/16" = 1'-0"
140
0.0625
141
12.0
290
     0
  0
SCALE
  5
48
102
{ACAD_REACTORS
330
42
102
}
330
42
100
AcDbScale
 70
     0
300
3/32" = 1'-0"
140
0.09375
141
12.0
290
     0
  0
SCALE
  5
49
102
{ACAD_REACTORS
330
42
102
}
330
42
100
AcDbScale
 70
     0
300
1/8" = 1'-0"
140
0.125
141
12.0
290
     0
  0
SCALE
  5
4A
102
{ACAD_REACTORS
330
42
102
}
330
42
100
AcDbScale
 70
     0
300
3/16" = 1'-0"
140
0.1875
141
12.0
290
     0
  0
SCALE
  5
4B
102
{ACAD_REACTORS
330
42
102
}
330
42
100
AcDbScale
 70
     0
300
1/4" = 1'-0"
140
0.25
141
12.0
290
     0
  0
SCALE
  5
4C
102
{ACAD_REACTORS
330
42
102
}
330
42
100
AcDbScale
 70
     0
300
3/8" = 1'-0"
140
0.375
141
12.0
290
     0
  0
SCALE
  5
4D
102
{ACAD_REACTORS
330
42
102
}
330
42
100
AcDbScale
 70
     0
300
1/2" = 1'-0"
140
0.5
141
12.0
290
     0
  0
SCALE
  5
4E
102
{ACAD_REACTORS
330
42
102
}
330
42
100
AcDbScale
 70
     0
300
3/4" = 1'-0"
140
0.75
141
12.0
290
     0
  0
SCALE
  5
4F
102
{ACAD_REACTORS
330
42
102
}
330
42
100
AcDbScale
 70
     0
300
1" = 1'-0"
140
1.0
141
12.0
290
     0
  0
SCALE
  5
50
102
{ACAD_REACTORS
330
42
102
}
330
42
100
AcDbScale
 70
     0
300
1-1/2" = 1'-0"
140
1.5
141
12.0
290
     0
  0
SCALE
  5
51
102
{ACAD_REACTORS
330
42
102
}
330
42
100
AcDbScale
 70
     0
300
3" = 1'-0"
140
3.0
141
12.0
290
     0
  0
SCALE
  5
52
102
{ACAD_REACTORS
330
42
102
}
330
42
100
AcDbScale
 70
     0
300
6" = 1'-0"
140
6.0
141
12.0
290
     0
  0
SCALE
  5
53
102
{ACAD_REACTORS
330
42
102
}
330
42
100
AcDbScale
 70
     0
300
1'-0" = 1'-0"
140
12.0
141
12.0
290
     0
  0
ACDBSECTIONVIEWSTYLE
  5
68
102
{ACAD_XDICTIONARY
360
107E
102
}
102
{ACAD_REACTORS
330
67
102
}
330
67
100
AcDbModelDocViewStyle
 70
     0
  3
Imperial24
290
     0
100
AcDbSectionViewStyle
 70
     0
 71
     0
 90
       78
 71
     1
340
55
 62
   256
 40
0.24
340
0
340
0
 62
   256
 40
0.24
300
I, O, Q, S, X, Z
 40
0.48
 90
        3
 40
0.18
 90
        1
 71
     2
340
5C
 90
       25
 62
   256
340
5C
 90
       50
 62
   256
 40
0.24
 40
0.0
 40
0.24
 71
     3
340
55
 62
   256
 40
0.24
 90
        1
 40
0.75
 90
        1
300
%<\AcVar ViewType \f "%tc1">% %<\AcVar ViewSectionStartId>%-%<\AcVar ViewSectionEndId>%\PESCALA %<\AcVar ViewScale \f "%sn">%
 71
     4
 62
   256
 62
   257
300
ANSI31
 40
1.0
 90
        0
290
     0
290
     0
 90
        6
 40
0.0
 40
1.570796326794896
 40
0.2617993877991494
 40
1.308996938995747
 40
-0.2617993877991494
 40
1.832595714594044
  0
TABLESTYLE
  5
64
102
{ACAD_XDICTIONARY
360
107C
102
}
102
{ACAD_REACTORS
330
63
102
}
330
63
100
AcDbTableStyle
280
     0
  3
Standard
 70
     0
 71
     0
 40
0.06
 41
0.06
280
     0
281
     0
  7
Standard
140
0.18
170
     2
 62
     0
 63
     7
283
     0
 90
      512
 91
        0
  1

274
    -2
284
     1
 64
     0
275
    -2
285
     1
 65
     0
276
    -2
286
     1
 66
     0
277
    -2
287
     1
 67
     0
278
    -2
288
     1
 68
     0
279
    -2
289
     1
 69
     0
  7
Standard
140
0.25
170
     5
 62
     0
 63
     7
283
     0
 90
      512
 91
        0
  1

274
    -2
284
     1
 64
     0
275
    -2
285
     1
 65
     0
276
    -2
286
     1
 66
     0
277
    -2
287
     1
 67
     0
278
    -2
288
     1
 68
     0
279
    -2
289
     1
 69
     0
  7
Standard
140
0.18
170
     5
 62
     0
 63
     7
283
     0
 90
      512
 91
        0
  1

274
    -2
284
     1
 64
     0
275
    -2
285
     1
 65
     0
276
    -2
286
     1
 66
     0
277
    -2
287
     1
 67
     0
278
    -2
288
     1
 68
     0
279
    -2
289
     1
 69
     0
  0
VISUALSTYLE
  5
2F
102
{ACAD_REACTORS
330
29
102
}
330
29
100
AcDbVisualStyle
  2
2dWireframe
 70
     4
177
     3
291
     0
 70
    58
 90
        0
176
     1
 90
        2
176
     1
 90
        0
176
     1
 90
        0
176
     1
 40
0.6
176
     1
 40
30.0
176
     1
 62
     7
420
 16777215
176
     1
 90
        1
176
     1
 90
        4
176
     1
 62
     7
176
     1
 62
   257
176
     1
 90
        1
176
     1
 90
        1
176
     1
 40
1.0
176
     1
 90
        0
176
     1
 62
   257
176
     1
 40
1.0
176
     1
 90
        1
176
     1
 90
        6
176
     1
 90
        2
176
     1
 62
     7
176
     1
 90
        5
176
     1
 90
        0
176
     1
 90
        0
176
     1
290
     0
176
     1
 90
        1
176
     1
 40
0.0
176
     1
 90
        0
176
     1
290
     1
176
     1
290
     1
176
     1
290
     0
176
     1
290
     0
176
     1
290
     0
176
     1
290
     0
176
     1
290
     0
176
     1
290
     0
176
     1
290
     0
176
     1
 90
       50
176
     1
 40
0.0
176
     1
 40
1.0
176
     1
 90
        0
176
     1
 62
    18
176
     1
 90
       50
176
     1
 90
        3
176
     1
 62
     5
420
      255
176
     1
290
     0
176
     1
 90
       50
176
     1
 90
       50
176
     1
 90
       50
176
     1
290
     0
176
     1
 90
       50
176
     1
 62
   256
176
     0
 40
1.0
176
     0
 90
        2
176
     1
  1
strokes_ogs.tif
176
     1
290
     0
176
     1
 40
1.0
176
     1
 40
1.0
176
     1
  0
VISUALSTYLE
  5
2E
102
{ACAD_REACTORS
330
29
102
}
330
29
100
AcDbVisualStyle
  2
Basic
 70
     7
177
     3
291
     1
 70
    58
 90
        1
176
     1
 90
        0
176
     1
 90
        1
176
     1
 90
        0
176
     1
 40
0.6
176
     1
 40
30.0
176
     1
 62
     7
420
 16777215
176
     1
 90
        0
176
     1
 90
        4
176
     1
 62
     7
176
     1
 62
   257
176
     1
 90
        1
176
     1
 90
        1
176
     1
 40
1.0
176
     1
 90
        8
176
     1
 62
     7
176
     1
 40
1.0
176
     1
 90
        1
176
     1
 90
        6
176
     1
 90
        2
176
     1
 62
     7
176
     1
 90
        5
176
     1
 90
        0
176
     1
 90
        0
176
     1
290
     0
176
     1
 90
        1
176
     1
 40
0.0
176
     1
 90
        0
176
     1
290
     0
176
     1
290
     1
176
     1
290
     1
176
     1
290
     0
176
     1
290
     0
176
     1
290
     0
176
     1
290
     0
176
     1
290
     0
176
     1
290
     0
176
     1
 90
       50
176
     1
 40
0.0
176
     1
 40
1.0
176
     1
 90
        0
176
     1
 62
    18
176
     1
 90
       50
176
     1
 90
        3
176
     1
 62
     5
420
      255
176
     1
290
     0
176
     1
 90
       50
176
     1
 90
       50
176
     1
 90
       50
176
     1
290
     0
176
     1
 90
       50
176
     1
 62
   256
176
     0
 40
1.0
176
     0
 90
        2
176
     1
  1
strokes_ogs.tif
176
     1
290
     0
176
     1
 40
1.0
176
     1
 40
1.0
176
     1
  0
VISUALSTYLE
  5
35
102
{ACAD_REACTORS
330
29
102
}
330
29
100
AcDbVisualStyle
  2
Brighten
 70
    12
177
     3
291
     1
 70
    58
 90
        2
176
     1
 90
        2
176
     1
 90
        0
176
     1
 90
        0
176
     1
 40
0.6
176
     1
 40
30.0
176
     1
 62
     7
420
 16777215
176
     1
 90
        1
176
     1
 90
        4
176
     1
 62
     7
176
     1
 62
   257
176
     1
 90
        1
176
     1
 90
        1
176
     1
 40
1.0
176
     1
 90
        8
176
     1
 62
     7
176
     1
 40
1.0
176
     1
 90
        1
176
     1
 90
        6
176
     1
 90
        2
176
     1
 62
     7
176
     1
 90
        5
176
     1
 90
        0
176
     1
 90
        0
176
     1
290
     0
176
     1
 90
        1
176
     1
 40
50.0
176
     1
 90
        0
176
     1
290
     0
176
     1
290
     1
176
     1
290
     1
176
     1
290
     0
176
     1
290
     0
176
     1
290
     0
176
     1
290
     0
176
     1
290
     0
176
     1
290
     0
176
     1
 90
       50
176
     1
 40
0.0
176
     1
 40
1.0
176
     1
 90
        0
176
     1
 62
    18
176
     1
 90
       50
176
     1
 90
        3
176
     1
 62
     5
420
      255
176
     1
290
     0
176
     1
 90
       50
176
     1
 90
       50
176
     1
 90
       50
176
     1
290
     0
176
     1
 90
       50
176
     1
 62
   256
176
     0
 40
1.0
176
     0
 90
        2
176
     1
  1
strokes_ogs.tif
176
     1
290
     0
176
     1
 40
1.0
176
     1
 40
1.0
176
     1
  0
VISUALSTYLE
  5
39
102
{ACAD_REACTORS
330
29
102
}
330
29
100
AcDbVisualStyle
  2
ColorChange
 70
    16
177
     3
291
     1
 70
    58
 90
        2
176
     1
 90
        2
176
     1
 90
        3
176
     1
 90
        0
176
     1
 40
0.6
176
     1
 40
30.0
176
     1
 62
     8
420
  8421504
176
     1
 90
        1
176
     1
 90
        4
176
     1
 62
     7
176
     1
 62
   257
176
     1
 90
        1
176
     1
 90
        1
176
     1
 40
1.0
176
     1
 90
        8
176
     1
 62
     8
420
  8421504
176
     1
 40
1.0
176
     1
 90
        1
176
     1
 90
        6
176
     1
 90
        2
176
     1
 62
     7
176
     1
 90
        5
176
     1
 90
        0
176
     1
 90
        0
176
     1
290
     0
176
     1
 90
        1
176
     1
 40
0.0
176
     1
 90
        0
176
     1
290
     0
176
     1
290
     1
176
     1
290
     1
176
     1
290
     0
176
     1
290
     0
176
     1
290
     0
176
     1
290
     0
176
     1
290
     0
176
     1
290
     0
176
     1
 90
       50
176
     1
 40
0.0
176
     1
 40
1.0
176
     1
 90
        0
176
     1
 62
    18
176
     1
 90
       50
176
     1
 90
        3
176
     1
 62
     5
420
      255
176
     1
290
     0
176
     1
 90
       50
176
     1
 90
       50
176
     1
 90
       50
176
     1
290
     0
176
     1
 90
       50
176
     1
 62
   256
176
     0
 40
1.0
176
     0
 90
        2
176
     1
  1
strokes_ogs.tif
176
     1
290
     0
176
     1
 40
1.0
176
     1
 40
1.0
176
     1
  0
VISUALSTYLE
  5
32
102
{ACAD_REACTORS
330
29
102
}
330
29
100
AcDbVisualStyle
  2
Conceptual
 70
     9
177
     3
291
     0
 70
    58
 90
        3
176
     1
 90
        2
176
     1
 90
        0
176
     1
 90
        0
176
     1
 40
0.6
176
     1
 40
30.0
176
     1
 62
     7
420
 16777215
176
     1
 90
        2
176
     1
 90
        2
176
     1
 62
     7
176
     1
 62
   257
176
     1
 90
        1
176
     1
 90
        1
176
     1
 40
179.0
176
     1
 90
        8
176
     1
 62
     7
176
     1
 40
1.0
176
     1
 90
        1
176
     1
 90
        6
176
     1
 90
        2
176
     1
 62
     7
176
     1
 90
        3
176
     1
 90
        0
176
     1
 90
        0
176
     1
290
     0
176
     1
 90
        1
176
     1
 40
0.0
176
     1
 90
        0
176
     1
290
     0
176
     1
290
     1
176
     1
290
     1
176
     1
290
     0
176
     1
290
     0
176
     1
290
     0
176
     1
290
     0
176
     1
290
     0
176
     1
290
     0
176
     1
 90
       50
176
     1
 40
0.0
176
     1
 40
1.0
176
     1
 90
        0
176
     1
 62
    18
176
     1
 90
       50
176
     1
 90
        3
176
     1
 62
     5
420
      255
176
     1
290
     0
176
     1
 90
       50
176
     1
 90
       50
176
     1
 90
       50
176
     1
290
     0
176
     1
 90
       50
176
     1
 62
   256
176
     0
 40
1.0
176
     0
 90
        2
176
     1
  1
strokes_ogs.tif
176
     1
290
     0
176
     1
 40
1.0
176
     1
 40
1.0
176
     1
  0
VISUALSTYLE
  5
34
102
{ACAD_REACTORS
330
29
102
}
330
29
100
AcDbVisualStyle
  2
Dim
 70
    11
177
     3
291
     1
 70
    58
 90
        2
176
     1
 90
        2
176
     1
 90
        0
176
     1
 90
        0
176
     1
 40
0.6
176
     1
 40
30.0
176
     1
 62
     7
420
 16777215
176
     1
 90
        1
176
     1
 90
        4
176
     1
 62
     7
176
     1
 62
   257
176
     1
 90
        1
176
     1
 90
        1
176
     1
 40
1.0
176
     1
 90
        8
176
     1
 62
     7
176
     1
 40
1.0
176
     1
 90
        1
176
     1
 90
        6
176
     1
 90
        2
176
     1
 62
     7
176
     1
 90
        5
176
     1
 90
        0
176
     1
 90
        0
176
     1
290
     0
176
     1
 90
        1
176
     1
 40
-50.0
176
     1
 90
        0
176
     1
290
     0
176
     1
290
     1
176
     1
290
     1
176
     1
290
     0
176
     1
290
     0
176
     1
290
     0
176
     1
290
     0
176
     1
290
     0
176
     1
290
     0
176
     1
 90
       50
176
     1
 40
0.0
176
     1
 40
1.0
176
     1
 90
        0
176
     1
 62
    18
176
     1
 90
       50
176
     1
 90
        3
176
     1
 62
     5
420
      255
176
     1
290
     0
176
     1
 90
       50
176
     1
 90
       50
176
     1
 90
       50
176
     1
290
     0
176
     1
 90
       50
176
     1
 62
   256
176
     0
 40
1.0
176
     0
 90
        2
176
     1
  1
strokes_ogs.tif
176
     1
290
     0
176
     1
 40
1.0
176
     1
 40
1.0
176
     1
  0
VISUALSTYLE
  5
41
102
{ACAD_REACTORS
330
29
102
}
330
29
100
AcDbVisualStyle
  2
EdgeColorOff
 70
    22
177
     3
291
     1
 70
    58
 90
        2
176
     0
 90
        2
176
     0
 90
        0
176
     0
 90
        0
176
     0
 40
0.6
176
     0
 40
30.0
176
     0
 62
     7
420
 16777215
176
     0
 90
        1
176
     0
 90
        4
176
     0
 62
     7
176
     0
 62
   257
176
     0
 90
        1
176
     0
 90
        1
176
     0
 40
1.0
176
     0
 90
        8
176
     2
 62
     7
176
     0
 40
1.0
176
     0
 90
        1
176
     0
 90
        6
176
     0
 90
        2
176
     0
 62
     7
176
     0
 90
        5
176
     0
 90
        0
176
     0
 90
        0
176
     0
290
     0
176
     0
 90
        1
176
     0
 40
0.0
176
     0
 90
        0
176
     0
290
     0
176
     1
290
     1
176
     1
290
     1
176
     1
290
     0
176
     1
290
     0
176
     1
290
     0
176
     1
290
     0
176
     1
290
     0
176
     1
290
     0
176
     1
 90
       50
176
     0
 40
0.0
176
     0
 40
1.0
176
     0
 90
        0
176
     0
 62
    18
176
     0
 90
       50
176
     0
 90
        3
176
     0
 62
     5
420
      255
176
     0
290
     0
176
     1
 90
       50
176
     0
 90
       50
176
     0
 90
       50
176
     0
290
     0
176
     1
 90
       50
176
     0
 62
   256
176
     0
 40
1.0
176
     0
 90
        2
176
     0
  1
strokes_ogs.tif
176
     0
290
     0
176
     1
 40
1.0
176
     0
 40
1.0
176
     0
  0
VISUALSTYLE
  5
38
102
{ACAD_REACTORS
330
29
102
}
330
29
100
AcDbVisualStyle
  2
Facepattern
 70
    15
177
     3
291
     1
 70
    58
 90
        2
176
     1
 90
        2
176
     1
 90
        0
176
     1
 90
        0
176
     1
 40
0.6
176
     1
 40
30.0
176
     1
 62
     7
420
 16777215
176
     1
 90
        1
176
     1
 90
        4
176
     1
 62
     7
176
     1
 62
   257
176
     1
 90
        1
176
     1
 90
        1
176
     1
 40
1.0
176
     1
 90
        8
176
     1
 62
     7
176
     1
 40
1.0
176
     1
 90
        1
176
     1
 90
        6
176
     1
 90
        2
176
     1
 62
     7
176
     1
 90
        5
176
     1
 90
        0
176
     1
 90
        0
176
     1
290
     0
176
     1
 90
        1
176
     1
 40
0.0
176
     1
 90
        0
176
     1
290
     0
176
     1
290
     1
176
     1
290
     1
176
     1
290
     0
176
     1
290
     0
176
     1
290
     0
176
     1
290
     0
176
     1
290
     0
176
     1
290
     0
176
     1
 90
       50
176
     1
 40
0.0
176
     1
 40
1.0
176
     1
 90
        0
176
     1
 62
    18
176
     1
 90
       50
176
     1
 90
        3
176
     1
 62
     5
420
      255
176
     1
290
     0
176
     1
 90
       50
176
     1
 90
       50
176
     1
 90
       50
176
     1
290
     0
176
     1
 90
       50
176
     1
 62
   256
176
     0
 40
1.0
176
     0
 90
        2
176
     1
  1
strokes_ogs.tif
176
     1
290
     0
176
     1
 40
1.0
176
     1
 40
1.0
176
     1
  0
VISUALSTYLE
  5
2A
102
{ACAD_REACTORS
330
29
102
}
330
29
100
AcDbVisualStyle
  2
Flat
 70
     0
177
     3
291
     1
 70
    58
 90
        2
176
     1
 90
        1
176
     1
 90
        1
176
     1
 90
        2
176
     1
 40
0.6
176
     1
 40
30.0
176
     1
 62
     7
420
 16777215
176
     1
 90
        0
176
     1
 90
        0
176
     1
 62
     7
176
     1
 62
   257
176
     1
 90
        1
176
     1
 90
        1
176
     1
 40
1.0
176
     1
 90
        8
176
     1
 62
     7
176
     1
 40
1.0
176
     1
 90
        1
176
     1
 90
        6
176
     1
 90
        2
176
     1
 62
     7
176
     1
 90
        5
176
     1
 90
        0
176
     1
 90
        0
176
     1
290
     0
176
     1
 90
       13
176
     1
 40
0.0
176
     1
 90
        0
176
     1
290
     0
176
     1
290
     1
176
     1
290
     1
176
     1
290
     0
176
     1
290
     0
176
     1
290
     0
176
     1
290
     0
176
     1
290
     0
176
     1
290
     0
176
     1
 90
       50
176
     1
 40
0.0
176
     1
 40
1.0
176
     1
 90
        0
176
     1
 62
    18
176
     1
 90
       50
176
     1
 90
        3
176
     1
 62
     5
420
      255
176
     1
290
     0
176
     1
 90
       50
176
     1
 90
       50
176
     1
 90
       50
176
     1
290
     0
176
     1
 90
       50
176
     1
 62
   256
176
     0
 40
1.0
176
     0
 90
        2
176
     1
  1
strokes_ogs.tif
176
     1
290
     0
176
     1
 40
1.0
176
     1
 40
1.0
176
     1
  0
VISUALSTYLE
  5
2B
102
{ACAD_REACTORS
330
29
102
}
330
29
100
AcDbVisualStyle
  2
FlatWithEdges
 70
     1
177
     3
291
     1
 70
    58
 90
        2
176
     1
 90
        1
176
     1
 90
        1
176
     1
 90
        2
176
     1
 40
0.6
176
     1
 40
30.0
176
     1
 62
     7
420
 16777215
176
     1
 90
        1
176
     1
 90
        0
176
     1
 62
     7
176
     1
 62
   257
176
     1
 90
        1
176
     1
 90
        1
176
     1
 40
1.0
176
     1
 90
        0
176
     1
 62
   257
176
     1
 40
1.0
176
     1
 90
        1
176
     1
 90
        6
176
     1
 90
        2
176
     1
 62
     7
176
     1
 90
        5
176
     1
 90
        0
176
     1
 90
        0
176
     1
290
     0
176
     1
 90
       13
176
     1
 40
0.0
176
     1
 90
        0
176
     1
290
     0
176
     1
290
     1
176
     1
290
     1
176
     1
290
     0
176
     1
290
     0
176
     1
290
     0
176
     1
290
     0
176
     1
290
     0
176
     1
290
     0
176
     1
 90
       50
176
     1
 40
0.0
176
     1
 40
1.0
176
     1
 90
        0
176
     1
 62
    18
176
     1
 90
       50
176
     1
 90
        3
176
     1
 62
     5
420
      255
176
     1
290
     0
176
     1
 90
       50
176
     1
 90
       50
176
     1
 90
       50
176
     1
290
     0
176
     1
 90
       50
176
     1
 62
   256
176
     0
 40
1.0
176
     0
 90
        2
176
     1
  1
strokes_ogs.tif
176
     1
290
     0
176
     1
 40
1.0
176
     1
 40
1.0
176
     1
  0
VISUALSTYLE
  5
2C
102
{ACAD_REACTORS
330
29
102
}
330
29
100
AcDbVisualStyle
  2
Gouraud
 70
     2
177
     3
291
     1
 70
    58
 90
        2
176
     1
 90
        2
176
     1
 90
        1
176
     1
 90
        2
176
     1
 40
0.6
176
     1
 40
30.0
176
     1
 62
     7
420
 16777215
176
     1
 90
        0
176
     1
 90
        0
176
     1
 62
     7
176
     1
 62
   257
176
     1
 90
        1
176
     1
 90
        1
176
     1
 40
1.0
176
     1
 90
        0
176
     1
 62
     7
176
     1
 40
1.0
176
     1
 90
        1
176
     1
 90
        6
176
     1
 90
        2
176
     1
 62
     7
176
     1
 90
        5
176
     1
 90
        0
176
     1
 90
        0
176
     1
290
     0
176
     1
 90
       13
176
     1
 40
0.0
176
     1
 90
        0
176
     1
290
     0
176
     1
290
     1
176
     1
290
     1
176
     1
290
     0
176
     1
290
     0
176
     1
290
     0
176
     1
290
     0
176
     1
290
     0
176
     1
290
     0
176
     1
 90
       50
176
     1
 40
0.0
176
     1
 40
1.0
176
     1
 90
        0
176
     1
 62
    18
176
     1
 90
       50
176
     1
 90
        3
176
     1
 62
     5
420
      255
176
     1
290
     0
176
     1
 90
       50
176
     1
 90
       50
176
     1
 90
       50
176
     1
290
     0
176
     1
 90
       50
176
     1
 62
   256
176
     0
 40
1.0
176
     0
 90
        2
176
     1
  1
strokes_ogs.tif
176
     1
290
     0
176
     1
 40
1.0
176
     1
 40
1.0
176
     1
  0
VISUALSTYLE
  5
2D
102
{ACAD_REACTORS
330
29
102
}
330
29
100
AcDbVisualStyle
  2
GouraudWithEdges
 70
     3
177
     3
291
     1
 70
    58
 90
        2
176
     1
 90
        2
176
     1
 90
        1
176
     1
 90
        2
176
     1
 40
0.6
176
     1
 40
30.0
176
     1
 62
     7
420
 16777215
176
     1
 90
        1
176
     1
 90
        0
176
     1
 62
     7
176
     1
 62
   257
176
     1
 90
        1
176
     1
 90
        1
176
     1
 40
1.0
176
     1
 90
        0
176
     1
 62
   257
176
     1
 40
1.0
176
     1
 90
        1
176
     1
 90
        6
176
     1
 90
        2
176
     1
 62
     7
176
     1
 90
        5
176
     1
 90
        0
176
     1
 90
        0
176
     1
290
     0
176
     1
 90
       13
176
     1
 40
0.0
176
     1
 90
        0
176
     1
290
     0
176
     1
290
     1
176
     1
290
     1
176
     1
290
     0
176
     1
290
     0
176
     1
290
     0
176
     1
290
     0
176
     1
290
     0
176
     1
290
     0
176
     1
 90
       50
176
     1
 40
0.0
176
     1
 40
1.0
176
     1
 90
        0
176
     1
 62
    18
176
     1
 90
       50
176
     1
 90
        3
176
     1
 62
     5
420
      255
176
     1
290
     0
176
     1
 90
       50
176
     1
 90
       50
176
     1
 90
       50
176
     1
290
     0
176
     1
 90
       50
176
     1
 62
   256
176
     0
 40
1.0
176
     0
 90
        2
176
     1
  1
strokes_ogs.tif
176
     1
290
     0
176
     1
 40
1.0
176
     1
 40
1.0
176
     1
  0
VISUALSTYLE
  5
31
102
{ACAD_REACTORS
330
29
102
}
330
29
100
AcDbVisualStyle
  2
Hidden
 70
     6
177
     3
291
     0
 70
    58
 90
        1
176
     1
 90
        2
176
     1
 90
        2
176
     1
 90
        0
176
     1
 40
0.6
176
     1
 40
30.0
176
     1
 62
     7
420
 16777215
176
     1
 90
        2
176
     1
 90
        2
176
     1
 62
     7
176
     1
 62
   257
176
     1
 90
        2
176
     1
 90
        1
176
     1
 40
40.0
176
     1
 90
        0
176
     1
 62
   257
176
     1
 40
1.0
176
     1
 90
        1
176
     1
 90
        6
176
     1
 90
        2
176
     1
 62
     7
176
     1
 90
        3
176
     1
 90
        0
176
     1
 90
        0
176
     1
290
     0
176
     1
 90
        1
176
     1
 40
0.0
176
     1
 90
        0
176
     1
290
     0
176
     1
290
     1
176
     1
290
     1
176
     1
290
     0
176
     1
290
     0
176
     1
290
     0
176
     1
290
     0
176
     1
290
     0
176
     1
290
     0
176
     1
 90
       50
176
     1
 40
0.0
176
     1
 40
1.0
176
     1
 90
        0
176
     1
 62
    18
176
     1
 90
       50
176
     1
 90
        3
176
     1
 62
     5
420
      255
176
     1
290
     0
176
     1
 90
       50
176
     1
 90
       50
176
     1
 90
       50
176
     1
290
     0
176
     1
 90
       50
176
     1
 62
   256
176
     0
 40
1.0
176
     0
 90
        2
176
     1
  1
strokes_ogs.tif
176
     1
290
     0
176
     1
 40
1.0
176
     1
 40
1.0
176
     1
  0
VISUALSTYLE
  5
3F
102
{ACAD_REACTORS
330
29
102
}
330
29
100
AcDbVisualStyle
  2
JitterOff
 70
    20
177
     3
291
     1
 70
    58
 90
        2
176
     0
 90
        2
176
     0
 90
        0
176
     0
 90
        0
176
     0
 40
0.6
176
     0
 40
30.0
176
     0
 62
     7
420
 16777215
176
     0
 90
        1
176
     0
 90
        4
176
     0
 62
     7
176
     0
 62
   257
176
     0
 90
        1
176
     0
 90
        1
176
     0
 40
1.0
176
     0
 90
       10
176
     2
 62
     7
176
     0
 40
1.0
176
     0
 90
        1
176
     0
 90
        6
176
     0
 90
        2
176
     0
 62
     7
176
     0
 90
        5
176
     0
 90
        0
176
     0
 90
        0
176
     0
290
     0
176
     0
 90
        1
176
     0
 40
0.0
176
     0
 90
        0
176
     0
290
     0
176
     1
290
     1
176
     1
290
     1
176
     1
290
     0
176
     1
290
     0
176
     1
290
     0
176
     1
290
     0
176
     1
290
     0
176
     1
290
     0
176
     1
 90
       50
176
     0
 40
0.0
176
     0
 40
1.0
176
     0
 90
        0
176
     0
 62
    18
176
     0
 90
       50
176
     0
 90
        3
176
     0
 62
     5
420
      255
176
     0
290
     0
176
     1
 90
       50
176
     0
 90
       50
176
     0
 90
       50
176
     0
290
     0
176
     1
 90
       50
176
     0
 62
   256
176
     0
 40
1.0
176
     0
 90
        2
176
     0
  1
strokes_ogs.tif
176
     0
290
     0
176
     1
 40
1.0
176
     0
 40
1.0
176
     0
  0
VISUALSTYLE
  5
37
102
{ACAD_REACTORS
330
29
102
}
330
29
100
AcDbVisualStyle
  2
Linepattern
 70
    14
177
     3
291
     1
 70
    58
 90
        2
176
     1
 90
        2
176
     1
 90
        0
176
     1
 90
        0
176
     1
 40
0.6
176
     1
 40
30.0
176
     1
 62
     7
420
 16777215
176
     1
 90
        1
176
     1
 90
        4
176
     1
 62
     7
176
     1
 62
   257
176
     1
 90
        7
176
     1
 90
        7
176
     1
 40
1.0
176
     1
 90
        8
176
     1
 62
     7
176
     1
 40
1.0
176
     1
 90
        1
176
     1
 90
        6
176
     1
 90
        2
176
     1
 62
     7
176
     1
 90
        5
176
     1
 90
        0
176
     1
 90
        0
176
     1
290
     0
176
     1
 90
        1
176
     1
 40
0.0
176
     1
 90
        0
176
     1
290
     0
176
     1
290
     1
176
     1
290
     1
176
     1
290
     0
176
     1
290
     0
176
     1
290
     0
176
     1
290
     0
176
     1
290
     0
176
     1
290
     0
176
     1
 90
       50
176
     1
 40
0.0
176
     1
 40
1.0
176
     1
 90
        0
176
     1
 62
    18
176
     1
 90
       50
176
     1
 90
        3
176
     1
 62
     5
420
      255
176
     1
290
     0
176
     1
 90
       50
176
     1
 90
       50
176
     1
 90
       50
176
     1
290
     0
176
     1
 90
       50
176
     1
 62
   256
176
     0
 40
1.0
176
     0
 90
        2
176
     1
  1
strokes_ogs.tif
176
     1
290
     0
176
     1
 40
1.0
176
     1
 40
1.0
176
     1
  0
VISUALSTYLE
  5
40
102
{ACAD_REACTORS
330
29
102
}
330
29
100
AcDbVisualStyle
  2
OverhangOff
 70
    21
177
     3
291
     1
 70
    58
 90
        2
176
     0
 90
        2
176
     0
 90
        0
176
     0
 90
        0
176
     0
 40
0.6
176
     0
 40
30.0
176
     0
 62
     7
420
 16777215
176
     0
 90
        1
176
     0
 90
        4
176
     0
 62
     7
176
     0
 62
   257
176
     0
 90
        1
176
     0
 90
        1
176
     0
 40
1.0
176
     0
 90
        9
176
     2
 62
     7
176
     0
 40
1.0
176
     0
 90
        1
176
     0
 90
        6
176
     0
 90
        2
176
     0
 62
     7
176
     0
 90
        5
176
     0
 90
        0
176
     0
 90
        0
176
     0
290
     0
176
     0
 90
        1
176
     0
 40
0.0
176
     0
 90
        0
176
     0
290
     0
176
     1
290
     1
176
     1
290
     1
176
     1
290
     0
176
     1
290
     0
176
     1
290
     0
176
     1
290
     0
176
     1
290
     0
176
     1
290
     0
176
     1
 90
       50
176
     0
 40
0.0
176
     0
 40
1.0
176
     0
 90
        0
176
     0
 62
    18
176
     0
 90
       50
176
     0
 90
        3
176
     0
 62
     5
420
      255
176
     0
290
     0
176
     1
 90
       50
176
     0
 90
       50
176
     0
 90
       50
176
     0
290
     0
176
     1
 90
       50
176
     0
 62
   256
176
     0
 40
1.0
176
     0
 90
        2
176
     0
  1
strokes_ogs.tif
176
     0
290
     0
176
     1
 40
1.0
176
     0
 40
1.0
176
     0
  0
VISUALSTYLE
  5
33
102
{ACAD_REACTORS
330
29
102
}
330
29
100
AcDbVisualStyle
  2
Realistic
 70
     8
177
     3
291
     0
 70
    58
 90
        2
176
     1
 90
        3
176
     1
 90
        0
176
     1
 90
        2
176
     1
 40
0.6
176
     1
 40
30.0
176
     1
 62
     7
420
 16777215
176
     1
 90
        0
176
     1
 90
        0
176
     1
 62
     7
176
     1
 62
   257
176
     1
 90
        1
176
     1
 90
        1
176
     1
 40
1.0
176
     1
 90
        8
176
     1
 62
   257
176
     1
 40
1.0
176
     1
 90
        1
176
     1
 90
        6
176
     1
 90
        2
176
     1
 62
     7
176
     1
 90
        3
176
     1
 90
        0
176
     1
 90
        0
176
     1
290
     0
176
     1
 90
       13
176
     1
 40
0.0
176
     1
 90
        0
176
     1
290
     0
176
     1
290
     1
176
     1
290
     1
176
     1
290
     0
176
     1
290
     0
176
     1
290
     0
176
     1
290
     0
176
     1
290
     0
176
     1
290
     0
176
     1
 90
       50
176
     1
 40
0.0
176
     1
 40
1.0
176
     1
 90
        0
176
     1
 62
    18
176
     1
 90
       50
176
     1
 90
        3
176
     1
 62
     5
420
      255
176
     1
290
     0
176
     1
 90
       50
176
     1
 90
       50
176
     1
 90
       50
176
     1
290
     0
176
     1
 90
       50
176
     1
 62
   256
176
     0
 40
1.0
176
     0
 90
        2
176
     1
  1
strokes_ogs.tif
176
     1
290
     0
176
     1
 40
1.0
176
     1
 40
1.0
176
     1
  0
VISUALSTYLE
  5
3E
102
{ACAD_REACTORS
330
29
102
}
330
29
100
AcDbVisualStyle
  2
Shaded
 70
    27
177
     3
291
     0
 70
    58
 90
        2
176
     1
 90
        2
176
     1
 90
        1
176
     1
 90
        2
176
     1
 40
0.6
176
     1
 40
30.0
176
     1
 62
     7
420
 16777215
176
     1
 90
        0
176
     1
 90
        4
176
     1
 62
     7
176
     1
 62
   257
176
     1
 90
        1
176
     1
 90
        1
176
     1
 40
1.0
176
     1
 90
        8
176
     1
 62
   257
176
     1
 40
1.0
176
     1
 90
        1
176
     1
 90
        6
176
     1
 90
        2
176
     1
 62
     8
420
  7895160
176
     1
 90
        3
176
     1
 90
        0
176
     1
 90
        0
176
     1
290
     0
176
     1
 90
        5
176
     1
 40
0.0
176
     1
 90
        0
176
     1
290
     0
176
     1
290
     1
176
     1
290
     1
176
     1
290
     0
176
     1
290
     0
176
     1
290
     0
176
     1
290
     0
176
     1
290
     0
176
     1
290
     0
176
     1
 90
       50
176
     1
 40
0.0
176
     1
 40
1.0
176
     1
 90
        0
176
     1
 62
    18
176
     1
 90
       50
176
     1
 90
        3
176
     1
 62
     5
420
      255
176
     1
290
     0
176
     1
 90
       50
176
     1
 90
       50
176
     1
 90
       50
176
     1
290
     0
176
     1
 90
       50
176
     1
 62
   256
176
     0
 40
1.0
176
     0
 90
        2
176
     1
  1
strokes_ogs.tif
176
     1
290
     0
176
     1
 40
1.0
176
     1
 40
1.0
176
     1
  0
VISUALSTYLE
  5
3D
102
{ACAD_REACTORS
330
29
102
}
330
29
100
AcDbVisualStyle
  2
Shaded with edges
 70
    26
177
     3
291
     0
 70
    58
 90
        2
176
     1
 90
        2
176
     1
 90
        1
176
     1
 90
        2
176
     1
 40
0.6
176
     1
 40
30.0
176
     1
 62
     7
420
 16777215
176
     1
 90
        1
176
     1
 90
       10
176
     1
 62
     7
176
     1
 62
   257
176
     1
 90
        2
176
     1
 90
        1
176
     1
 40
1.0
176
     1
 90
        8
176
     1
 62
   257
176
     1
 40
1.0
176
     1
 90
        1
176
     1
 90
        6
176
     1
 90
        2
176
     1
 62
     7
176
     1
 90
        3
176
     1
 90
        0
176
     1
 90
        0
176
     1
290
     0
176
     1
 90
        5
176
     1
 40
0.0
176
     1
 90
        0
176
     1
290
     0
176
     1
290
     1
176
     1
290
     1
176
     1
290
     0
176
     1
290
     0
176
     1
290
     0
176
     1
290
     0
176
     1
290
     0
176
     1
290
     0
176
     1
 90
       50
176
     1
 40
0.0
176
     1
 40
1.0
176
     1
 90
        0
176
     1
 62
    18
176
     1
 90
       50
176
     1
 90
        3
176
     1
 62
     5
420
      255
176
     1
290
     0
176
     1
 90
       50
176
     1
 90
       50
176
     1
 90
       50
176
     1
290
     0
176
     1
 90
       50
176
     1
 62
   256
176
     0
 40
1.0
176
     0
 90
        2
176
     1
  1
strokes_ogs.tif
176
     1
290
     0
176
     1
 40
1.0
176
     1
 40
1.0
176
     1
  0
VISUALSTYLE
  5
3A
102
{ACAD_REACTORS
330
29
102
}
330
29
100
AcDbVisualStyle
  2
Shades of Gray
 70
    23
177
     3
291
     0
 70
    58
 90
        2
176
     1
 90
        2
176
     1
 90
        3
176
     1
 90
        0
176
     1
 40
0.6
176
     1
 40
30.0
176
     1
 62
     7
420
 16777215
176
     1
 90
        2
176
     1
 90
        2
176
     1
 62
     7
176
     1
 62
     7
176
     1
 90
        1
176
     1
 90
        1
176
     1
 40
40.0
176
     1
 90
        8
176
     1
 62
     7
176
     1
 40
1.0
176
     1
 90
        1
176
     1
 90
        6
176
     1
 90
        2
176
     1
 62
     7
176
     1
 90
        3
176
     1
 90
        0
176
     1
 90
        0
176
     1
290
     0
176
     1
 90
        1
176
     1
 40
0.0
176
     1
 90
        0
176
     1
290
     0
176
     1
290
     1
176
     1
290
     1
176
     1
290
     0
176
     1
290
     0
176
     1
290
     0
176
     1
290
     0
176
     1
290
     0
176
     1
290
     0
176
     1
 90
       50
176
     1
 40
0.0
176
     1
 40
1.0
176
     1
 90
        0
176
     1
 62
    18
176
     1
 90
       50
176
     1
 90
        3
176
     1
 62
     5
420
      255
176
     1
290
     0
176
     1
 90
       50
176
     1
 90
       50
176
     1
 90
       50
176
     1
290
     0
176
     1
 90
       50
176
     1
 62
   256
176
     0
 40
1.0
176
     0
 90
        2
176
     1
  1
strokes_ogs.tif
176
     1
290
     0
176
     1
 40
1.0
176
     1
 40
1.0
176
     1
  0
VISUALSTYLE
  5
3B
102
{ACAD_REACTORS
330
29
102
}
330
29
100
AcDbVisualStyle
  2
Sketchy
 70
    24
177
     3
291
     0
 70
    58
 90
        1
176
     1
 90
        2
176
     1
 90
        2
176
     1
 90
        0
176
     1
 40
0.6
176
     1
 40
30.0
176
     1
 62
     7
420
 16777215
176
     1
 90
        2
176
     1
 90
        2
176
     1
 62
     7
176
     1
 62
     7
176
     1
 90
        1
176
     1
 90
        1
176
     1
 40
40.0
176
     1
 90
       11
176
     1
 62
     7
176
     1
 40
1.0
176
     1
 90
        1
176
     1
 90
        6
176
     1
 90
        2
176
     1
 62
     7
176
     1
 90
        6
176
     1
 90
        0
176
     1
 90
        0
176
     1
290
     0
176
     1
 90
        1
176
     1
 40
0.0
176
     1
 90
        0
176
     1
290
     0
176
     1
290
     1
176
     1
290
     1
176
     1
290
     0
176
     1
290
     0
176
     1
290
     0
176
     1
290
     0
176
     1
290
     0
176
     1
290
     0
176
     1
 90
       50
176
     1
 40
0.0
176
     1
 40
1.0
176
     1
 90
        0
176
     1
 62
    18
176
     1
 90
       50
176
     1
 90
        3
176
     1
 62
     5
420
      255
176
     1
290
     0
176
     1
 90
       50
176
     1
 90
       50
176
     1
 90
       50
176
     1
290
     0
176
     1
 90
       50
176
     1
 62
   256
176
     0
 40
1.0
176
     0
 90
        2
176
     1
  1
strokes_ogs.tif
176
     1
290
     0
176
     1
 40
1.0
176
     1
 40
1.0
176
     1
  0
VISUALSTYLE
  5
36
102
{ACAD_REACTORS
330
29
102
}
330
29
100
AcDbVisualStyle
  2
Thicken
 70
    13
177
     3
291
     1
 70
    58
 90
        2
176
     1
 90
        2
176
     1
 90
        0
176
     1
 90
        0
176
     1
 40
0.6
176
     1
 40
30.0
176
     1
 62
     7
420
 16777215
176
     1
 90
        1
176
     1
 90
        4
176
     1
 62
     7
176
     1
 62
   257
176
     1
 90
        1
176
     1
 90
        1
176
     1
 40
1.0
176
     1
 90
       12
176
     1
 62
     7
176
     1
 40
1.0
176
     1
 90
        1
176
     1
 90
        6
176
     1
 90
        2
176
     1
 62
     7
176
     1
 90
        5
176
     1
 90
        0
176
     1
 90
        0
176
     1
290
     0
176
     1
 90
        1
176
     1
 40
0.0
176
     1
 90
        0
176
     1
290
     0
176
     1
290
     1
176
     1
290
     1
176
     1
290
     0
176
     1
290
     0
176
     1
290
     0
176
     1
290
     0
176
     1
290
     0
176
     1
290
     0
176
     1
 90
       50
176
     1
 40
0.0
176
     1
 40
1.0
176
     1
 90
        0
176
     1
 62
    18
176
     1
 90
       50
176
     1
 90
        3
176
     1
 62
     5
420
      255
176
     1
290
     0
176
     1
 90
       50
176
     1
 90
       50
176
     1
 90
       50
176
     1
290
     0
176
     1
 90
       50
176
     1
 62
   256
176
     0
 40
1.0
176
     0
 90
        2
176
     1
  1
strokes_ogs.tif
176
     1
290
     0
176
     1
 40
1.0
176
     1
 40
1.0
176
     1
  0
VISUALSTYLE
  5
30
102
{ACAD_REACTORS
330
29
102
}
330
29
100
AcDbVisualStyle
  2
Wireframe
 70
     5
177
     3
291
     0
 70
    58
 90
        0
176
     1
 90
        2
176
     1
 90
        0
176
     1
 90
        0
176
     1
 40
0.6
176
     1
 40
30.0
176
     1
 62
     7
420
 16777215
176
     1
 90
        1
176
     1
 90
        4
176
     1
 62
     7
176
     1
 62
   257
176
     1
 90
        1
176
     1
 90
        1
176
     1
 40
1.0
176
     1
 90
        0
176
     1
 62
   257
176
     1
 40
1.0
176
     1
 90
        1
176
     1
 90
        6
176
     1
 90
        2
176
     1
 62
     7
176
     1
 90
        3
176
     1
 90
        0
176
     1
 90
        0
176
     1
290
     0
176
     1
 90
        1
176
     1
 40
0.0
176
     1
 90
        0
176
     1
290
     0
176
     1
290
     1
176
     1
290
     1
176
     1
290
     0
176
     1
290
     0
176
     1
290
     0
176
     1
290
     0
176
     1
290
     0
176
     1
290
     0
176
     1
 90
       50
176
     1
 40
0.0
176
     1
 40
1.0
176
     1
 90
        0
176
     1
 62
    18
176
     1
 90
       50
176
     1
 90
        3
176
     1
 62
     5
420
      255
176
     1
290
     0
176
     1
 90
       50
176
     1
 90
       50
176
     1
 90
       50
176
     1
290
     0
176
     1
 90
       50
176
     1
 62
   256
176
     0
 40
1.0
176
     0
 90
        2
176
     1
  1
strokes_ogs.tif
176
     1
290
     0
176
     1
 40
1.0
176
     1
 40
1.0
176
     1
  0
VISUALSTYLE
  5
3C
102
{ACAD_REACTORS
330
29
102
}
330
29
100
AcDbVisualStyle
  2
X-Ray
 70
    25
177
     3
291
     0
 70
    58
 90
        2
176
     1
 90
        2
176
     1
 90
        1
176
     1
 90
        1
176
     1
 40
0.5
176
     1
 40
30.0
176
     1
 62
     7
420
 16777215
176
     1
 90
        1
176
     1
 90
        0
176
     1
 62
     7
176
     1
 62
   257
176
     1
 90
        1
176
     1
 90
        1
176
     1
 40
1.0
176
     1
 90
        8
176
     1
 62
     7
176
     1
 40
1.0
176
     1
 90
        1
176
     1
 90
        6
176
     1
 90
        2
176
     1
 62
     7
176
     1
 90
        3
176
     1
 90
        0
176
     1
 90
        0
176
     1
290
     0
176
     1
 90
       13
176
     1
 40
0.0
176
     1
 90
        0
176
     1
290
     0
176
     1
290
     1
176
     1
290
     1
176
     1
290
     0
176
     1
290
     0
176
     1
290
     0
176
     1
290
     0
176
     1
290
     0
176
     1
290
     0
176
     1
 90
       50
176
     1
 40
0.0
176
     1
 40
1.0
176
     1
 90
        0
176
     1
 62
    18
176
     1
 90
       50
176
     1
 90
        3
176
     1
 62
     5
420
      255
176
     1
290
     0
176
     1
 90
       50
176
     1
 90
       50
176
     1
 90
       50
176
     1
290
     0
176
     1
 90
       50
176
     1
 62
   256
176
     0
 40
1.0
176
     0
 90
        2
176
     1
  1
strokes_ogs.tif
176
     1
290
     0
176
     1
 40
1.0
176
     1
 40
1.0
176
     1
  0
DICTIONARYVAR
  5
7EA
102
{ACAD_REACTORS
330
7E4
102
}
330
7E4
100
DictionaryVariables
280
     0
  1
1:1
  0
DICTIONARYVAR
  5
7E6
102
{ACAD_REACTORS
330
7E4
102
}
330
7E4
100
DictionaryVariables
280
     0
  1
STANDARD
  0
DICTIONARYVAR
  5
7E5
102
{ACAD_REACTORS
330
7E4
102
}
330
7E4
100
DictionaryVariables
280
     0
  1
STANDARD
  0
DICTIONARYVAR
  5
7E7
102
{ACAD_REACTORS
330
7E4
102
}
330
7E4
100
DictionaryVariables
280
     0
  1
Imperial24
  0
DICTIONARYVAR
  5
7E8
102
{ACAD_REACTORS
330
7E4
102
}
330
7E4
100
DictionaryVariables
280
     0
  1
Imperial24
  0
DICTIONARYVAR
  5
7EC
102
{ACAD_REACTORS
330
7E4
102
}
330
7E4
100
DictionaryVariables
280
     0
  1
1
  0
DICTIONARYVAR
  5
7ED
102
{ACAD_REACTORS
330
7E4
102
}
330
7E4
100
DictionaryVariables
280
     0
  1
15
  0
DICTIONARYVAR
  5
7EB
102
{ACAD_REACTORS
330
7E4
102
}
330
7E4
100
DictionaryVariables
280
     0
  1
0
  0
DICTIONARYVAR
  5
7E9
102
{ACAD_REACTORS
330
7E4
102
}
330
7E4
100
DictionaryVariables
280
     0
  1
0
  0
DICTIONARY
  5
1080
330
6A
100
AcDbDictionary
280
     1
281
     1
  3
ACAD_XREC_ROUNDTRIP
360
148E
  0
DICTIONARY
  5
1A
330
19
100
AcDbDictionary
280
     1
281
     1
  3
BUMPTILE
360
1C
  3
DIFFUSETILE
360
1B
  3
OPACITYTILE
360
1F
  3
REFLECTIONTILE
360
1E
  3
REFRACTIONTILE
360
20
  3
SPECULARTILE
360
1D
  0
DICTIONARY
  5
12
330
11
100
AcDbDictionary
280
     1
281
     1
  3
BUMPTILE
360
14
  3
DIFFUSETILE
360
13
  3
OPACITYTILE
360
17
  3
REFLECTIONTILE
360
16
  3
REFRACTIONTILE
360
18
  3
SPECULARTILE
360
15
  0
DICTIONARY
  5
22
330
21
100
AcDbDictionary
280
     1
281
     1
  3
BUMPTILE
360
24
  3
DIFFUSETILE
360
23
  3
OPACITYTILE
360
27
  3
REFLECTIONTILE
360
26
  3
REFRACTIONTILE
360
28
  3
SPECULARTILE
360
25
  0
DICTIONARY
  5
107E
330
68
100
AcDbDictionary
280
     1
281
     1
  3
ACAD_XREC_ROUNDTRIP
360
148D
  0
DICTIONARY
  5
107C
330
64
100
AcDbDictionary
280
     1
281
     1
  3
ACAD_ROUNDTRIP_2008_TABLESTYLE_CELLSTYLEMAP
360
148C
  0
XRECORD
  5
148E
102
{ACAD_REACTORS
330
1080
102
}
330
1080
100
AcDbXrecord
280
     1
102
DISPLAYNAME
  1
Imperial24
102
FLAGS
 90
        0
  0
XRECORD
  5
1C
102
{ACAD_REACTORS
330
1A
102
}
330
1A
100
AcDbXrecord
280
     1
270
     1
271
     1
  0
XRECORD
  5
1B
102
{ACAD_REACTORS
330
1A
102
}
330
1A
100
AcDbXrecord
280
     1
270
     1
271
     1
  0
XRECORD
  5
1F
102
{ACAD_REACTORS
330
1A
102
}
330
1A
100
AcDbXrecord
280
     1
270
     1
271
     1
  0
XRECORD
  5
1E
102
{ACAD_REACTORS
330
1A
102
}
330
1A
100
AcDbXrecord
280
     1
270
     1
271
     1
  0
XRECORD
  5
20
102
{ACAD_REACTORS
330
1A
102
}
330
1A
100
AcDbXrecord
280
     1
270
     1
271
     1
  0
XRECORD
  5
1D
102
{ACAD_REACTORS
330
1A
102
}
330
1A
100
AcDbXrecord
280
     1
270
     1
271
     1
  0
XRECORD
  5
14
102
{ACAD_REACTORS
330
12
102
}
330
12
100
AcDbXrecord
280
     1
270
     1
271
     1
  0
XRECORD
  5
13
102
{ACAD_REACTORS
330
12
102
}
330
12
100
AcDbXrecord
280
     1
270
     1
271
     1
  0
XRECORD
  5
17
102
{ACAD_REACTORS
330
12
102
}
330
12
100
AcDbXrecord
280
     1
270
     1
271
     1
  0
XRECORD
  5
16
102
{ACAD_REACTORS
330
12
102
}
330
12
100
AcDbXrecord
280
     1
270
     1
271
     1
  0
XRECORD
  5
18
102
{ACAD_REACTORS
330
12
102
}
330
12
100
AcDbXrecord
280
     1
270
     1
271
     1
  0
XRECORD
  5
15
102
{ACAD_REACTORS
330
12
102
}
330
12
100
AcDbXrecord
280
     1
270
     1
271
     1
  0
XRECORD
  5
24
102
{ACAD_REACTORS
330
22
102
}
330
22
100
AcDbXrecord
280
     1
270
     1
271
     1
  0
XRECORD
  5
23
102
{ACAD_REACTORS
330
22
102
}
330
22
100
AcDbXrecord
280
     1
270
     1
271
     1
  0
XRECORD
  5
27
102
{ACAD_REACTORS
330
22
102
}
330
22
100
AcDbXrecord
280
     1
270
     1
271
     1
  0
XRECORD
  5
26
102
{ACAD_REACTORS
330
22
102
}
330
22
100
AcDbXrecord
280
     1
270
     1
271
     1
  0
XRECORD
  5
28
102
{ACAD_REACTORS
330
22
102
}
330
22
100
AcDbXrecord
280
     1
270
     1
271
     1
  0
XRECORD
  5
25
102
{ACAD_REACTORS
330
22
102
}
330
22
100
AcDbXrecord
280
     1
270
     1
271
     1
  0
XRECORD
  5
148D
102
{ACAD_REACTORS
330
107E
102
}
330
107E
100
AcDbXrecord
280
     1
102
DISPLAYNAME
  1
Imperial24
102
FLAGS
 90
        0
  0
CELLSTYLEMAP
  5
148C
102
{ACAD_REACTORS
330
107C
102
}
330
107C
100
AcDbCellStyleMap
 90
        3
300
CELLSTYLE
  1
TABLEFORMAT_BEGIN
 90
        5
170
     1
 91
        0
 92
    32768
 62
   257
 93
        1
300
CONTENTFORMAT
  1
CONTENTFORMAT_BEGIN
 90
        0
 91
        0
 92
      512
 93
        0
300

 40
0.0
140
1.0
 94
        5
 62
     0
340
55
144
0.25
309
CONTENTFORMAT_END
171
     1
301
MARGIN
  1
CELLMARGIN_BEGIN
 40
0.06
 40
0.06
 40
0.06
 40
0.06
 40
0.18
 40
0.18
309
CELLMARGIN_END
 94
        6
 95
        1
302
GRIDFORMAT
  1
GRIDFORMAT_BEGIN
 90
        0
 91
        1
 62
     0
 92
       -2
340
0
 93
        0
 40
0.045
309
GRIDFORMAT_END
 95
        2
302
GRIDFORMAT
  1
GRIDFORMAT_BEGIN
 90
        0
 91
        1
 62
     0
 92
       -2
340
0
 93
        0
 40
0.045
309
GRIDFORMAT_END
 95
        4
302
GRIDFORMAT
  1
GRIDFORMAT_BEGIN
 90
        0
 91
        1
 62
     0
 92
       -2
340
0
 93
        0
 40
0.045
309
GRIDFORMAT_END
 95
        8
302
GRIDFORMAT
  1
GRIDFORMAT_BEGIN
 90
        0
 91
        1
 62
     0
 92
       -2
340
0
 93
        0
 40
0.045
309
GRIDFORMAT_END
 95
       16
302
GRIDFORMAT
  1
GRIDFORMAT_BEGIN
 90
        0
 91
        1
 62
     0
 92
       -2
340
0
 93
        0
 40
0.045
309
GRIDFORMAT_END
 95
       32
302
GRIDFORMAT
  1
GRIDFORMAT_BEGIN
 90
        0
 91
        1
 62
     0
 92
       -2
340
0
 93
        0
 40
0.045
309
GRIDFORMAT_END
309
TABLEFORMAT_END
  1
CELLSTYLE_BEGIN
 90
        1
 91
        1
300
_TITLE
309
CELLSTYLE_END
300
CELLSTYLE
  1
TABLEFORMAT_BEGIN
 90
        5
170
     1
 91
        0
 92
        0
 62
   257
 93
        1
300
CONTENTFORMAT
  1
CONTENTFORMAT_BEGIN
 90
        0
 91
        0
 92
      512
 93
        0
300

 40
0.0
140
1.0
 94
        5
 62
     0
340
55
144
0.18
309
CONTENTFORMAT_END
171
     1
301
MARGIN
  1
CELLMARGIN_BEGIN
 40
0.06
 40
0.06
 40
0.06
 40
0.06
 40
0.18
 40
0.18
309
CELLMARGIN_END
 94
        6
 95
        1
302
GRIDFORMAT
  1
GRIDFORMAT_BEGIN
 90
        0
 91
        1
 62
     0
 92
       -2
340
0
 93
        0
 40
0.045
309
GRIDFORMAT_END
 95
        2
302
GRIDFORMAT
  1
GRIDFORMAT_BEGIN
 90
        0
 91
        1
 62
     0
 92
       -2
340
0
 93
        0
 40
0.045
309
GRIDFORMAT_END
 95
        4
302
GRIDFORMAT
  1
GRIDFORMAT_BEGIN
 90
        0
 91
        1
 62
     0
 92
       -2
340
0
 93
        0
 40
0.045
309
GRIDFORMAT_END
 95
        8
302
GRIDFORMAT
  1
GRIDFORMAT_BEGIN
 90
        0
 91
        1
 62
     0
 92
       -2
340
0
 93
        0
 40
0.045
309
GRIDFORMAT_END
 95
       16
302
GRIDFORMAT
  1
GRIDFORMAT_BEGIN
 90
        0
 91
        1
 62
     0
 92
       -2
340
0
 93
        0
 40
0.045
309
GRIDFORMAT_END
 95
       32
302
GRIDFORMAT
  1
GRIDFORMAT_BEGIN
 90
        0
 91
        1
 62
     0
 92
       -2
340
0
 93
        0
 40
0.045
309
GRIDFORMAT_END
309
TABLEFORMAT_END
  1
CELLSTYLE_BEGIN
 90
        2
 91
        1
300
_HEADER
309
CELLSTYLE_END
300
CELLSTYLE
  1
TABLEFORMAT_BEGIN
 90
        5
170
     1
 91
        0
 92
        0
 62
   257
 93
        1
300
CONTENTFORMAT
  1
CONTENTFORMAT_BEGIN
 90
        0
 91
        0
 92
      512
 93
        0
300

 40
0.0
140
1.0
 94
        2
 62
     0
340
55
144
0.18
309
CONTENTFORMAT_END
171
     1
301
MARGIN
  1
CELLMARGIN_BEGIN
 40
0.06
 40
0.06
 40
0.06
 40
0.06
 40
0.18
 40
0.18
309
CELLMARGIN_END
 94
        6
 95
        1
302
GRIDFORMAT
  1
GRIDFORMAT_BEGIN
 90
        0
 91
        1
 62
     0
 92
       -2
340
0
 93
        0
 40
0.045
309
GRIDFORMAT_END
 95
        2
302
GRIDFORMAT
  1
GRIDFORMAT_BEGIN
 90
        0
 91
        1
 62
     0
 92
       -2
340
0
 93
        0
 40
0.045
309
GRIDFORMAT_END
 95
        4
302
GRIDFORMAT
  1
GRIDFORMAT_BEGIN
 90
        0
 91
        1
 62
     0
 92
       -2
340
0
 93
        0
 40
0.045
309
GRIDFORMAT_END
 95
        8
302
GRIDFORMAT
  1
GRIDFORMAT_BEGIN
 90
        0
 91
        1
 62
     0
 92
       -2
340
0
 93
        0
 40
0.045
309
GRIDFORMAT_END
 95
       16
302
GRIDFORMAT
  1
GRIDFORMAT_BEGIN
 90
        0
 91
        1
 62
     0
 92
       -2
340
0
 93
        0
 40
0.045
309
GRIDFORMAT_END
 95
       32
302
GRIDFORMAT
  1
GRIDFORMAT_BEGIN
 90
        0
 91
        1
 62
     0
 92
       -2
340
0
 93
        0
 40
0.045
309
GRIDFORMAT_END
309
TABLEFORMAT_END
  1
CELLSTYLE_BEGIN
 90
        3
 91
        2
300
_DATA
309
CELLSTYLE_END
  0
ENDSEC
  0
SECTION
  2
ACDSDATA
 70
     2
 71
     6
  0
ACDSSCHEMA
 90
        0
  1
AcDb_Thumbnail_Schema
  2
AcDbDs::ID
280
    10
 91
        8
  2
Thumbnail_Data
280
    15
 91
        0
101
ACDSRECORD
 95
        0
 90
        1
  2
AcDbDs::TreatedAsObjectData
280
     1
291
     1
101
ACDSRECORD
 95
        0
 90
        2
  2
AcDbDs::Legacy
280
     1
291
     1
101
ACDSRECORD
  1
AcDbDs::ID
 90
        3
  2
AcDs:Indexable
280
     1
291
     1
101
ACDSRECORD
  1
AcDbDs::ID
 90
        4
  2
AcDbDs::HandleAttribute
280
     7
282
     1
  0
ACDSSCHEMA
 90
        1
  1
AcDbDs::TreatedAsObjectDataSchema
  2
AcDbDs::TreatedAsObjectData
280
     1
 91
        0
  0
ACDSSCHEMA
 90
        2
  1
AcDbDs::LegacySchema
  2
AcDbDs::Legacy
280
     1
 91
        0
  0
ACDSSCHEMA
 90
        3
  1
AcDbDs::IndexedPropertySchema
  2
AcDs:Indexable
280
     1
 91
        0
  0
ACDSSCHEMA
 90
        4
  1
AcDbDs::HandleAttributeSchema
  2
AcDbDs::HandleAttribute
280
     7
 91
        1
284
     1
  0
ACDSRECORD
 90
        0
  2
AcDbDs::ID
280
    10
320
72
  2
Thumbnail_Data
280
    15
 94
     1336
310
89504E470D0A1A0A0000000D49484452000001000000006608030000001376BFA700000300504C5445212830000000C8C8C80000000000000000000000000000000000000000000000000000330000660000990000CC0000FF0033000033330033660033990033CC0033FF0066000066330066660066990066CC0066FF0099
310
000099330099660099990099CC0099FF00CC0000CC3300CC6600CC9900CCCC00CCFF00FF0000FF3300FF6600FF9900FFCC00FFFF3300003300333300663300993300CC3300FF3333003333333333663333993333CC3333FF3366003366333366663366993366CC3366FF3399003399333399663399993399CC3399FF33CC00
310
33CC3333CC6633CC9933CCCC33CCFF33FF0033FF3333FF6633FF9933FFCC33FFFF6600006600336600666600996600CC6600FF6633006633336633666633996633CC6633FF6666006666336666666666996666CC6666FF6699006699336699666699996699CC6699FF66CC0066CC3366CC6666CC9966CCCC66CCFF66FF0066
310
FF3366FF6666FF9966FFCC66FFFF9900009900339900669900999900CC9900FF9933009933339933669933999933CC9933FF9966009966339966669966999966CC9966FF9999009999339999669999999999CC9999FF99CC0099CC3399CC6699CC9999CCCC99CCFF99FF0099FF3399FF6699FF9999FFCC99FFFFCC0000CC00
310
33CC0066CC0099CC00CCCC00FFCC3300CC3333CC3366CC3399CC33CCCC33FFCC6600CC6633CC6666CC6699CC66CCCC66FFCC9900CC9933CC9966CC9999CC99CCCC99FFCCCC00CCCC33CCCC66CCCC99CCCCCCCCCCFFCCFF00CCFF33CCFF66CCFF99CCFFCCCCFFFFFF0000FF0033FF0066FF0099FF00CCFF00FFFF3300FF3333
310
FF3366FF3399FF33CCFF33FFFF6600FF6633FF6666FF6699FF66CCFF66FFFF9900FF9933FF9966FF9999FF99CCFF99FFFFCC00FFCC33FFCC66FFCC99FFCCCCFFCCFFFFFF00FFFF33FFFF66FFFF99FFFFCCFFFFFF0000000D0D0D1A1A1A2828283535354343435050505D5D5D6B6B6B787878868686939393A1A1A1AEAEAEBB
310
BBBBC9C9C9D6D6D6E4E4E4F1F1F1FFFFFF000000000000000000000000000000000000000000000000000000000000B21171F6000001394944415478DAEDDBDB6E8520104051FEFF7FE7BDE925A90AB6949EA66798B59F94A8093B3A1722AD01000000000000000000000000C05F126F9C8E0643ED3A1497ABE370703A7C7E
310
015F4FF446CCFB6D9F57BF9EC745684B24E0E73745FF9878C8A3FFE11358FB6CBE1F6AB1ED2B10839B46B3CD27203A0E43D504743E3615503E06C802D2E00A1B15420F7A71F2BE01E505AC36437B05C1D566481628DB0CED1404979A21020A0BF858FFAA1B03B64C83E59BA1D27540F54A5033A419FAC57A802CA017500A13
310
40000182A034A819D20C11E0131004A541851001041020084A830A21A570B220D8469B1BEE86E26E721904F48BFB6DB0C763722B484A014BC9EC66660410904EC0CC1FEEF3FFC16714305304C6EC4E0802F20A38E4F23EAB13B0B380EA41501D4000012AC153303C84B7A854093E571A7C012014741066666DE30000000049
310
454E44AE426082000049454E44AE426082D139201E6028EADD9F049301AC5F2E9F0DC0C401D6B7C3000000003920ED7B4022090200000059013EF0A247A0778E83DB0000000049454E44AE426082824E44AE42608200000000F0651E7D804CF48FF38C580000000049454E44AE4260820590F8878A000000000000B876E1F9
310
6ABFF975F99ED96BCF7BCCAFCB0F587732EF02803187C2A700469C0C01B0FC66CA9C3962D7CB5B6200003001C00FED2F95B06F34C7830000000049454E44AE426082
  0
ENDSEC
  0
EOF
