0
SECTION
2
HEADER
9
$INSUNITS
70
4
9
$ACADVER
1
AC1014
9
$HANDSEED
5
FFFF
0
ENDSEC
0
SECTION
2
TABLES
0
TABLE
2
VPORT
5
8
100
AcDbSymbolTable
0
ENDTAB
0
TABLE
2
LTYPE
5
5
100
AcDbSymbolTable
0
LTYPE
5
14
100
AcDbSymbolTableRecord
100
AcDbLinetypeTableRecord
2
BYBLOCK
70
0
0
LTYPE
5
15
100
AcDbSymbolTableRecord
100
AcDbLinetypeTableRecord
2
BYLAYER
70
0
0
ENDTAB
0
TABLE
2
LAYER
5
2
100
AcDbSymbolTable
70
2
0
LAYER
5
50
100
AcDbSymbolTableRecord
100
AcDbLayerTableRecord
2
0
70
0
6
CONTINUOUS
0
ENDTAB
0
TABLE
2
STYLE
5
3
100
AcDbSymbolTable
70
1
0
STYLE
5
11
100
AcDbSymbolTableRecord
100
AcDbTextStyleTableRecord
2
STANDARD
70
0
0
ENDTAB
0
TABLE
2
VIEW
5
6
100
AcDbSymbolTable
70
0
0
ENDTAB
0
TABLE
2
UCS
5
7
100
AcDbSymbolTable
70
0
0
ENDTAB
0
TABLE
2
APPID
5
9
100
AcDbSymbolTable
70
2
0
APPID
5
12
100
AcDbSymbolTableRecord
100
AcDbRegAppTableRecord
2
ACAD
70
0
0
ENDTAB
0
TABLE
2
DIMSTYLE
5
A
100
AcDbSymbolTable
70
1
0
ENDTAB
0
TABLE
2
BLOCK_RECORD
5
1
100
AcDbSymbolTable
70
1
0
BLOCK_RECORD
5
1F
100
AcDbSymbolTableRecord
100
AcDbBlockTableRecord
2
*MODEL_SPACE
0
BLOCK_RECORD
5
1B
100
AcDbSymbolTableRecord
100
AcDbBlockTableRecord
2
*PAPER_SPACE
0
ENDTAB
0
ENDSEC
0
SECTION
2
BLOCKS
0
BLOCK
5
20
100
AcDbEntity
100
AcDbBlockBegin
2
*MODEL_SPACE
0
ENDBLK
5
21
100
AcDbEntity
100
AcDbBlockEnd
0
BLOCK
5
1C
100
AcDbEntity
100
AcDbBlockBegin
2
*PAPER_SPACE
0
ENDBLK
5
1D
100
AcDbEntity
100
AcDbBlockEnd
0
ENDSEC
0
SECTION
2
ENTITIES
0
LWPOLYLINE
5
100
100
AcDbEntity
8
0
100
AcDbPolyline
90
4
70
1
43
0.0
10
-9.8834305553178581
20
237.23723748062935
10
-7.4018170914739301
20
225.49664147292725
10
65.976907956663524
20
241.00672562195206
10
63.495294492819454
20
252.74732162965415
0
LWPOLYLINE
5
101
100
AcDbEntity
8
0
100
AcDbPolyline
90
4
70
1
43
0.0
10
108.69505621094007
20
264.10101579257662
10
110.35624078685304
20
252.21655258194954
10
184.63413585327217
20
262.59895618140581
10
182.97295127735921
20
274.48341939203294
0
LWPOLYLINE
5
102
100
AcDbEntity
8
0
100
AcDbPolyline
90
4
70
1
43
0.0
10
-822.89737019612392
20
389.78979960050458
10
-887.80666202708949
20
427.36351160773791
10
-893.81845594824676
20
416.97802491478342
10
-828.90916411728108
20
379.40431290754992
0
LWPOLYLINE
5
103
100
AcDbEntity
8
0
100
AcDbPolyline
90
4
70
1
43
0.0
10
-837.5
20
26.000000000000014
10
-837.5
20
13.999999999999986
10
-762.5
20
13.999999999999986
10
-762.5
20
26.000000000000014
0
LWPOLYLINE
5
104
100
AcDbEntity
8
0
100
AcDbPolyline
90
4
70
1
43
0.0
10
-562.5
20
26.000000000000014
10
-562.5
20
13.999999999999986
10
-487.5
20
13.999999999999986
10
-487.5
20
26.000000000000014
0
LWPOLYLINE
5
105
100
AcDbEntity
8
0
100
AcDbPolyline
90
4
70
1
43
0.0
10
-287.5
20
26.000000000000014
10
-287.5
20
13.999999999999986
10
-212.5
20
13.999999999999986
10
-212.5
20
26.000000000000014
0
LWPOLYLINE
5
106
100
AcDbEntity
8
0
100
AcDbPolyline
90
4
70
1
43
0.0
10
-12.5
20
26.000000000000014
10
-12.5
20
13.999999999999986
10
62.5
20
13.999999999999986
10
62.5
20
26.000000000000014
0
LWPOLYLINE
5
107
100
AcDbEntity
8
0
100
AcDbPolyline
90
4
70
1
43
0.0
10
-271.58294024258919
20
224.5272088994426
10
-271.59656315415106
20
212.52721663210011
10
-196.59661148326023
20
212.44207343483845
10
-196.58298857169854
20
224.442065702181
0
LWPOLYLINE
5
108
100
AcDbEntity
8
0
100
AcDbPolyline
90
4
70
1
43
0.0
10
264.50656197505992
20
169.07298693938017
10
267.06793545522078
20
94.116737260683578
10
279.06093540381232
20
94.526557017509248
10
276.49956192365141
20
169.48280669620587
0
LWPOLYLINE
5
109
100
AcDbEntity
8
0
100
AcDbPolyline
90
4
70
1
43
0.0
10
205.94035159240906
20
244.96084218192181
10
263.35759406821552
20
196.70879283192613
10
271.07792196421497
20
205.89555162805516
10
213.66067948840839
20
254.14760097805078
0
LWPOLYLINE
5
110
100
AcDbEntity
8
0
100
AcDbPolyline
90
4
70
1
43
0.0
10
-774.45028398967429
20
361.33690367068886
10
-779.34356571040598
20
350.37990618042932
10
-710.86233139628416
20
319.79689542585641
10
-705.96904967555247
20
330.75389291611606
0
LWPOLYLINE
5
111
100
AcDbEntity
8
0
100
AcDbPolyline
90
4
70
1
43
0.0
10
-654.81322418938714
20
307.52096439823583
10
-658.53438189117583
20
296.11250326807374
10
-587.2314998276629
20
272.85526763189483
10
-583.51034212587456
20
284.26372876205704
0
LWPOLYLINE
5
112
100
AcDbEntity
8
0
100
AcDbPolyline
90
4
70
1
43
0.0
10
-530.2062512890634
20
266.50531248275621
10
-532.71451518942604
20
254.77038120020757
10
-459.37119467349703
20
239.09373182294206
10
-456.86293077313479
20
250.82866310549082
0
LWPOLYLINE
5
113
100
AcDbEntity
8
0
100
AcDbPolyline
90
4
70
1
43
0.0
10
-401.99458535948327
20
238.73932398971283
10
-403.26247439423923
20
226.80649291760153
10
-328.68228019354348
20
218.88218645037668
10
-327.41439115878779
20
230.81501752248806
0
LWPOLYLINE
5
114
100
AcDbEntity
8
0
100
AcDbPolyline
90
4
70
1
43
0.0
10
-140.40013321267224
20
224.02467811895059
10
-139.15934074557015
20
212.08899908281765
10
-64.561346769739458
20
219.84395200220575
10
-65.802139236841697
20
231.77963103833872
0
LWPOLYLINE
5
115
100
AcDbEntity
8
0
100
AcDbPolyline
90
8
70
1
43
0.0
10
-925
20
1.4210854715202004e-13
42
-0.41421356237309681
10
-950
20
25
10
-950.00000000000102
20
450.55682483756266
42
-0.60813195073085191
10
-910.58188983628838
20
470.9802941634905
42
0.2215281689217263
10
111.8270614462776
20
286.30744201585622
42
-0.49175290121972209
10
300.00000000000034
20
141.24598344682857
10
300
20
24.999999999999968
42
-0.41421356237309548
10
275
20
0
0
ENDSEC
0
SECTION
2
OBJECTS
0
DICTIONARY
5
C
100
AcDbDictionary
3
ACAD_GROUP
350
D
3
ACAD_MLINESTYLE
350
17
0
DICTIONARY
5
D
100
AcDbDictionary
0
DICTIONARY
5
1A
330
C
100
AcDbDictionary
0
DICTIONARY
5
17
100
AcDbDictionary
0
ENDSEC
0
EOF
