0
SECTION
2
HEADER
9
$INSUNITS
70
4
9
$ACADVER
1
AC1014
9
$HANDSEED
5
FFFF
0
ENDSEC
0
SECTION
2
TABLES
0
TABLE
2
VPORT
5
8
100
AcDbSymbolTable
0
ENDTAB
0
TABLE
2
LTYPE
5
5
100
AcDbSymbolTable
0
LTYPE
5
14
100
AcDbSymbolTableRecord
100
AcDbLinetypeTableRecord
2
BYBLOCK
70
0
0
LTYPE
5
15
100
AcDbSymbolTableRecord
100
AcDbLinetypeTableRecord
2
BYLAYER
70
0
0
ENDTAB
0
TABLE
2
LAYER
5
2
100
AcDbSymbolTable
70
2
0
LAYER
5
50
100
AcDbSymbolTableRecord
100
AcDbLayerTableRecord
2
0
70
0
6
CONTINUOUS
0
ENDTAB
0
TABLE
2
STYLE
5
3
100
AcDbSymbolTable
70
1
0
STYLE
5
11
100
AcDbSymbolTableRecord
100
AcDbTextStyleTableRecord
2
STANDARD
70
0
0
ENDTAB
0
TABLE
2
VIEW
5
6
100
AcDbSymbolTable
70
0
0
ENDTAB
0
TABLE
2
UCS
5
7
100
AcDbSymbolTable
70
0
0
ENDTAB
0
TABLE
2
APPID
5
9
100
AcDbSymbolTable
70
2
0
APPID
5
12
100
AcDbSymbolTableRecord
100
AcDbRegAppTableRecord
2
ACAD
70
0
0
ENDTAB
0
TABLE
2
DIMSTYLE
5
A
100
AcDbSymbolTable
70
1
0
ENDTAB
0
TABLE
2
BLOCK_RECORD
5
1
100
AcDbSymbolTable
70
1
0
BLOCK_RECORD
5
1F
100
AcDbSymbolTableRecord
100
AcDbBlockTableRecord
2
*MODEL_SPACE
0
BLOCK_RECORD
5
1B
100
AcDbSymbolTableRecord
100
AcDbBlockTableRecord
2
*PAPER_SPACE
0
ENDTAB
0
ENDSEC
0
SECTION
2
BLOCKS
0
BLOCK
5
20
100
AcDbEntity
100
AcDbBlockBegin
2
*MODEL_SPACE
0
ENDBLK
5
21
100
AcDbEntity
100
AcDbBlockEnd
0
BLOCK
5
1C
100
AcDbEntity
100
AcDbBlockBegin
2
*PAPER_SPACE
0
ENDBLK
5
1D
100
AcDbEntity
100
AcDbBlockEnd
0
ENDSEC
0
SECTION
2
ENTITIES
0
LWPOLYLINE
5
100
100
AcDbEntity
8
0
100
AcDbPolyline
90
4
70
1
43
0.0
10
28.867513459481273
20
527.35026918962637
10
471.13248654051904
20
-238.67513459481353
10
500.00000000000045
20
-188.6751345948133
10
86.602540378444047
20
527.35026918962637
0
LWPOLYLINE
5
101
100
AcDbEntity
8
0
100
AcDbPolyline
90
4
70
1
43
0.0
10
-471.13248654051949
20
-238.67513459481279
10
-28.867513459481255
20
527.35026918962637
10
-86.602540378443891
20
527.35026918962637
10
-500.00000000000068
20
-188.6751345948129
0
LWPOLYLINE
5
102
100
AcDbEntity
8
0
100
AcDbPolyline
90
4
70
1
43
0.0
10
442.26497308103797
20
-288.67513459481307
10
-442.2649730810391
20
-288.67513459481125
10
-413.39745962155683
20
-338.67513459481313
10
413.39745962155638
20
-338.67513459481347
0
LINE
5
103
100
AcDbEntity
8
0
100
AcDbLine
10
770
20
-564.99999999999989
30
0
11
730
21
-565.00000000000011
31
0
0
LINE
5
104
100
AcDbEntity
8
0
100
AcDbLine
10
730
20
-565.00000000000011
30
0
11
770
21
-1035
31
0
0
LWPOLYLINE
5
105
100
AcDbEntity
8
0
100
AcDbPolyline
90
4
70
1
43
0.0
10
493.20508080000002
20
-1020
10
400.00000000000006
20
-1020
10
399.99999999999994
20
-550
10
493.20508080000002
20
-550
0
LINE
5
106
100
AcDbEntity
8
0
100
AcDbLine
10
629.99999999999989
20
-564.9999999999975
30
0
11
670
21
-1035
31
0
0
LINE
5
107
100
AcDbEntity
8
0
100
AcDbLine
10
630.00000000000136
20
-1034.9999999999975
30
0
11
670
21
-1035
31
0
0
LINE
5
108
100
AcDbEntity
8
0
100
AcDbLine
10
670
20
-564.99999999999989
30
0
11
630.00000000000136
21
-1034.9999999999975
31
0
0
LINE
5
109
100
AcDbEntity
8
0
100
AcDbLine
10
770
20
-1035
30
0
11
770
21
-564.99999999999989
31
0
0
LINE
5
110
100
AcDbEntity
8
0
100
AcDbLine
10
629.99999999999989
20
-564.9999999999975
30
0
11
630.00000000000136
21
-1034.9999999999975
31
0
0
LINE
5
111
100
AcDbEntity
8
0
100
AcDbLine
10
730
20
-1035.0000000000002
30
0
11
770
21
-1035
31
0
0
LINE
5
112
100
AcDbEntity
8
0
100
AcDbLine
10
670
20
-1035
30
0
11
670
21
-564.99999999999989
31
0
0
LINE
5
113
100
AcDbEntity
8
0
100
AcDbLine
10
670
20
-564.99999999999989
30
0
11
629.99999999999989
21
-564.9999999999975
31
0
0
LINE
5
114
100
AcDbEntity
8
0
100
AcDbLine
10
730
20
-565.00000000000011
30
0
11
730
21
-1035.0000000000002
31
0
0
LINE
5
115
100
AcDbEntity
8
0
100
AcDbLine
10
770
20
-564.99999999999989
30
0
11
730
21
-1035.0000000000002
31
0
0
LINE
5
116
100
AcDbEntity
8
0
100
AcDbLine
10
-130
20
-564.99999999999989
30
0
11
-170
21
-565.00000000000011
31
0
0
LINE
5
117
100
AcDbEntity
8
0
100
AcDbLine
10
-170
20
-565.00000000000011
30
0
11
-130
21
-1035
31
0
0
LWPOLYLINE
5
118
100
AcDbEntity
8
0
100
AcDbPolyline
90
4
70
1
43
0.0
10
-406.79491919999998
20
-1020
10
-499.99999999999994
20
-1020
10
-500.00000000000006
20
-550
10
-406.79491919999998
20
-550
0
LINE
5
119
100
AcDbEntity
8
0
100
AcDbLine
10
-270.00000000000011
20
-564.9999999999975
30
0
11
-230
21
-1035
31
0
0
LINE
5
120
100
AcDbEntity
8
0
100
AcDbLine
10
-269.99999999999858
20
-1034.9999999999975
30
0
11
-230
21
-1035
31
0
0
LINE
5
121
100
AcDbEntity
8
0
100
AcDbLine
10
-230
20
-564.99999999999989
30
0
11
-269.99999999999858
21
-1034.9999999999975
31
0
0
LINE
5
122
100
AcDbEntity
8
0
100
AcDbLine
10
-130
20
-1035
30
0
11
-130
21
-564.99999999999989
31
0
0
LINE
5
123
100
AcDbEntity
8
0
100
AcDbLine
10
-270.00000000000011
20
-564.9999999999975
30
0
11
-269.99999999999858
21
-1034.9999999999975
31
0
0
LINE
5
124
100
AcDbEntity
8
0
100
AcDbLine
10
-170
20
-1035.0000000000002
30
0
11
-130
21
-1035
31
0
0
LINE
5
125
100
AcDbEntity
8
0
100
AcDbLine
10
-230
20
-1035
30
0
11
-230
21
-564.99999999999989
31
0
0
LINE
5
126
100
AcDbEntity
8
0
100
AcDbLine
10
-230
20
-564.99999999999989
30
0
11
-270.00000000000011
21
-564.9999999999975
31
0
0
LINE
5
127
100
AcDbEntity
8
0
100
AcDbLine
10
-170
20
-565.00000000000011
30
0
11
-170
21
-1035.0000000000002
31
0
0
LINE
5
128
100
AcDbEntity
8
0
100
AcDbLine
10
-130
20
-564.99999999999989
30
0
11
-170
21
-1035.0000000000002
31
0
0
LINE
5
129
100
AcDbEntity
8
0
100
AcDbLine
10
1670
20
-564.99999999999989
30
0
11
1630
21
-565.00000000000011
31
0
0
LINE
5
130
100
AcDbEntity
8
0
100
AcDbLine
10
1630
20
-565.00000000000011
30
0
11
1670
21
-1035
31
0
0
LWPOLYLINE
5
131
100
AcDbEntity
8
0
100
AcDbPolyline
90
4
70
1
43
0.0
10
1393.2050807999999
20
-1020
10
1300
20
-1020
10
1300
20
-550
10
1393.2050807999999
20
-550
0
LINE
5
132
100
AcDbEntity
8
0
100
AcDbLine
10
1530
20
-564.9999999999975
30
0
11
1570
21
-1035
31
0
0
LINE
5
133
100
AcDbEntity
8
0
100
AcDbLine
10
1530.0000000000014
20
-1034.9999999999975
30
0
11
1570
21
-1035
31
0
0
LINE
5
134
100
AcDbEntity
8
0
100
AcDbLine
10
1570
20
-564.99999999999989
30
0
11
1530.0000000000014
21
-1034.9999999999975
31
0
0
LINE
5
135
100
AcDbEntity
8
0
100
AcDbLine
10
1670
20
-1035
30
0
11
1670
21
-564.99999999999989
31
0
0
LINE
5
136
100
AcDbEntity
8
0
100
AcDbLine
10
1530
20
-564.9999999999975
30
0
11
1530.0000000000014
21
-1034.9999999999975
31
0
0
LINE
5
137
100
AcDbEntity
8
0
100
AcDbLine
10
1630
20
-1035.0000000000002
30
0
11
1670
21
-1035
31
0
0
LINE
5
138
100
AcDbEntity
8
0
100
AcDbLine
10
1570
20
-1035
30
0
11
1570
21
-564.99999999999989
31
0
0
LINE
5
139
100
AcDbEntity
8
0
100
AcDbLine
10
1570
20
-564.99999999999989
30
0
11
1530
21
-564.9999999999975
31
0
0
LINE
5
140
100
AcDbEntity
8
0
100
AcDbLine
10
1630
20
-565.00000000000011
30
0
11
1630
21
-1035.0000000000002
31
0
0
LINE
5
141
100
AcDbEntity
8
0
100
AcDbLine
10
1670
20
-564.99999999999989
30
0
11
1630
21
-1035.0000000000002
31
0
0
LWPOLYLINE
5
142
100
AcDbEntity
8
0
100
AcDbPolyline
90
9
70
1
43
0.0
10
1128.8675134594812
20
527.35026918962637
10
1571.1324865405188
20
-238.67513459481353
10
1556.6987298107783
20
-263.67513459481336
10
1542.2649730810376
20
-288.67513459481307
10
657.73502691896078
20
-288.67513459481125
10
643.3012701892211
20
-263.67513459481302
10
628.86751345948039
20
-238.67513459481279
10
1071.1324865405186
20
527.35026918962637
10
1099.9999999999998
20
527.35026918962637
0
ENDSEC
0
SECTION
2
OBJECTS
0
DICTIONARY
5
C
100
AcDbDictionary
3
ACAD_GROUP
350
D
3
ACAD_MLINESTYLE
350
17
0
DICTIONARY
5
D
100
AcDbDictionary
0
DICTIONARY
5
1A
330
C
100
AcDbDictionary
0
DICTIONARY
5
17
100
AcDbDictionary
0
ENDSEC
0
EOF
