0
SECTION
2
HEADER
9
$INSUNITS
70
4
9
$ACADVER
1
AC1014
9
$HANDSEED
5
FFFF
0
ENDSEC
0
SECTION
2
TABLES
0
TABLE
2
VPORT
5
8
100
AcDbSymbolTable
0
ENDTAB
0
TABLE
2
LTYPE
5
5
100
AcDbSymbolTable
0
LTYPE
5
14
100
AcDbSymbolTableRecord
100
AcDbLinetypeTableRecord
2
BYBLOCK
70
0
0
LTYPE
5
15
100
AcDbSymbolTableRecord
100
AcDbLinetypeTableRecord
2
BYLAYER
70
0
0
ENDTAB
0
TABLE
2
LAYER
5
2
100
AcDbSymbolTable
70
2
0
LAYER
5
50
100
AcDbSymbolTableRecord
100
AcDbLayerTableRecord
2
0
70
0
6
CONTINUOUS
0
ENDTAB
0
TABLE
2
STYLE
5
3
100
AcDbSymbolTable
70
1
0
STYLE
5
11
100
AcDbSymbolTableRecord
100
AcDbTextStyleTableRecord
2
STANDARD
70
0
0
ENDTAB
0
TABLE
2
VIEW
5
6
100
AcDbSymbolTable
70
0
0
ENDTAB
0
TABLE
2
UCS
5
7
100
AcDbSymbolTable
70
0
0
ENDTAB
0
TABLE
2
APPID
5
9
100
AcDbSymbolTable
70
2
0
APPID
5
12
100
AcDbSymbolTableRecord
100
AcDbRegAppTableRecord
2
ACAD
70
0
0
ENDTAB
0
TABLE
2
DIMSTYLE
5
A
100
AcDbSymbolTable
70
1
0
ENDTAB
0
TABLE
2
BLOCK_RECORD
5
1
100
AcDbSymbolTable
70
1
0
BLOCK_RECORD
5
1F
100
AcDbSymbolTableRecord
100
AcDbBlockTableRecord
2
*MODEL_SPACE
0
BLOCK_RECORD
5
1B
100
AcDbSymbolTableRecord
100
AcDbBlockTableRecord
2
*PAPER_SPACE
0
ENDTAB
0
ENDSEC
0
SECTION
2
BLOCKS
0
BLOCK
5
20
100
AcDbEntity
100
AcDbBlockBegin
2
*MODEL_SPACE
0
ENDBLK
5
21
100
AcDbEntity
100
AcDbBlockEnd
0
BLOCK
5
1C
100
AcDbEntity
100
AcDbBlockBegin
2
*PAPER_SPACE
0
ENDBLK
5
1D
100
AcDbEntity
100
AcDbBlockEnd
0
ENDSEC
0
SECTION
2
ENTITIES
0
CIRCLE
5
100
100
AcDbEntity
8
0
100
AcDbCircle
10
0
20
0
30
0
40
4.9999999999999991
210
0
220
0
230
1
0
LWPOLYLINE
5
101
100
AcDbEntity
8
0
100
AcDbPolyline
90
8
70
1
43
0.0
10
20.60137778019374
20
-1.6317263229551215
10
6.601377541775161
20
-1.6317263229551215
10
5.601377541775161
20
-0.63172632295512154
10
5.601377541775161
20
0.71792936238160276
10
6.6013775417751619
20
1.7179293623816028
10
20.60137778019374
20
1.717929362381603
42
-0.4142135623730922
10
21.60137778019374
20
0.7179293623816031
10
21.60137778019374
20
-0.63172632295512154
42
-0.4142135623730922
0
LWPOLYLINE
5
102
100
AcDbEntity
8
0
100
AcDbPolyline
90
8
70
1
43
0.0
10
20.321724703802779
20
3.7559023280879833
10
6.798762905461162
20
0.13243563494542393
10
5.5740180340695735
20
0.83954241613197145
10
5.2247014383735344
20
2.1432096991965857
10
5.9318082195600823
20
3.3679545705881746
10
19.454770017901698
20
6.9914212637307385
42
-0.41421356237309293
10
20.679514889293294
20
6.2843144825441861
10
21.028831484989329
20
4.9806471994795727
42
-0.41421356237309243
0
LWPOLYLINE
5
103
100
AcDbEntity
8
0
100
AcDbPolyline
90
8
70
1
43
0.0
10
18.657179672085608
20
8.8875724423939602
10
6.5328238126269191
20
1.8875723231846733
10
5.1667984088424816
20
2.2535977269691121
10
4.4919705661741185
20
3.4224338368328122
10
4.8579959699585569
20
4.788459240617251
10
16.982351829417247
20
11.788459359826538
42
-0.41421356237309176
10
18.348377233201685
20
11.422433956042099
10
19.023205075870045
20
10.253597846178399
42
-0.41421356237309209
0
LWPOLYLINE
5
104
100
AcDbEntity
8
0
100
AcDbPolyline
90
8
70
1
43
0.0
10
15.721178678163012
20
13.413569182158703
10
5.8216835729639538
20
3.5140740769596412
10
4.4074700105908597
20
3.5140740769596412
10
3.4531193232222841
20
4.4684247643282156
10
3.4531193232222845
20
5.8826383267013105
10
13.35261442842134
20
15.782133431900371
42
-0.41421356237309181
10
14.766827990794438
20
15.782133431900371
10
15.72117867816301
20
14.827782744531797
42
-0.41421356237309181
0
LWPOLYLINE
5
105
100
AcDbEntity
8
0
100
AcDbPolyline
90
8
70
1
43
0.0
10
11.713805337799778
20
17.025453349130483
10
4.7138052185904877
20
4.9010974896717983
10
3.3477798148060489
20
4.535072085887359
10
2.1789437049423492
20
5.2098999285557213
10
1.8129183011579098
20
6.5759253323401605
10
8.8129184203672022
20
18.700281191798847
42
-0.41421356237309231
10
10.178943824151641
20
19.066306595583285
10
11.347779934015341
20
18.391478752914921
42
-0.41421356237309209
0
LWPOLYLINE
5
106
100
AcDbEntity
8
0
100
AcDbPolyline
90
8
70
1
43
0.0
10
6.908155521644086
20
19.477081006250994
10
3.284688828501523
20
5.954119207909379
10
2.0599439571099336
20
5.2470124267228311
10
0.75627667404531984
20
5.5963290224188702
10
0.04916989285877249
20
6.8210738938104587
10
3.6726365860013335
20
20.344035692152076
42
-0.41421356237309243
10
4.8973814573929237
20
21.051142473338626
10
6.2010487404575372
20
20.701825877642584
42
-0.41421356237309265
0
LWPOLYLINE
5
107
100
AcDbEntity
8
0
100
AcDbPolyline
90
8
70
1
43
0.0
10
1.6317263229551173
20
20.601377780193744
10
1.6317263229551204
20
6.6013775417751619
10
0.63172632295512043
20
5.6013775417751619
10
-0.7179293623816041
20
5.6013775417751619
10
-1.7179293623816045
20
6.6013775417751619
10
-1.7179293623816076
20
20.601377780193744
42
-0.41421356237309209
10
-0.71792936238160787
20
21.601377780193744
10
0.63172632295511688
20
21.601377780193744
42
-0.41421356237309231
0
LWPOLYLINE
5
108
100
AcDbEntity
8
0
100
AcDbPolyline
90
8
70
1
43
0.0
10
-3.7559023280879833
20
20.321724703802779
10
-0.13243563494542393
20
6.798762905461162
10
-0.83954241613197145
20
5.5740180340695735
10
-2.1432096991965857
20
5.2247014383735344
10
-3.3679545705881746
20
5.9318082195600823
10
-6.9914212637307385
20
19.454770017901698
42
-0.41421356237309293
10
-6.2843144825441861
20
20.679514889293294
10
-4.9806471994795727
20
21.028831484989329
42
-0.41421356237309243
0
LWPOLYLINE
5
109
100
AcDbEntity
8
0
100
AcDbPolyline
90
8
70
1
43
0.0
10
-8.8875724423939584
20
18.657179672085611
10
-1.8875723231846719
20
6.53282381262692
10
-2.2535977269691116
20
5.1667984088424816
10
-3.4224338368328118
20
4.4919705661741194
10
-4.7884592406172501
20
4.8579959699585595
10
-11.788459359826536
20
16.982351829417247
42
-0.41421356237309209
10
-11.422433956042097
20
18.348377233201688
10
-10.253597846178398
20
19.023205075870049
42
-0.41421356237309209
0
LWPOLYLINE
5
110
100
AcDbEntity
8
0
100
AcDbPolyline
90
8
70
1
43
0.0
10
-13.4135691821587
20
15.721178678163017
10
-3.5140740769596395
20
5.8216835729639556
10
-3.5140740769596404
20
4.4074700105908606
10
-4.4684247643282156
20
3.4531193232222854
10
-5.8826383267013105
20
3.4531193232222854
10
-15.782133431900371
20
13.352614428421345
42
-0.41421356237309231
10
-15.78213343190037
20
14.766827990794445
10
-14.827782744531792
20
15.721178678163017
42
-0.41421356237309093
0
LWPOLYLINE
5
111
100
AcDbEntity
8
0
100
AcDbPolyline
90
8
70
1
43
0.0
10
-17.02545334913048
20
11.713805337799784
10
-4.9010974896717947
20
4.7138052185904886
10
-4.5350720858873581
20
3.3477798148060502
10
-5.2098999285557204
20
2.1789437049423506
10
-6.5759253323401579
20
1.812918301157912
10
-18.700281191798844
20
8.8129184203672057
42
-0.41421356237309209
10
-19.066306595583281
20
10.178943824151645
10
-18.391478752914917
20
11.347779934015346
42
-0.41421356237309209
0
LWPOLYLINE
5
112
100
AcDbEntity
8
0
100
AcDbPolyline
90
8
70
1
43
0.0
10
-19.477081006250994
20
6.9081555216440869
10
-5.9541192079093772
20
3.2846888285015234
10
-5.2470124267228311
20
2.0599439571099341
10
-5.5963290224188702
20
0.75627667404532029
10
-6.8210738938104587
20
0.049169892858773045
10
-20.344035692152076
20
3.6726365860013384
42
-0.41421356237309287
10
-21.051142473338622
20
4.8973814573929255
10
-20.701825877642584
20
6.2010487404575398
42
-0.41421356237309243
0
LWPOLYLINE
5
113
100
AcDbEntity
8
0
100
AcDbPolyline
90
8
70
1
43
0.0
10
-20.60137778019374
20
1.631726322955124
10
-6.601377541775161
20
1.6317263229551224
10
-5.601377541775161
20
0.63172632295512221
10
-5.601377541775161
20
-0.71792936238160199
10
-6.6013775417751619
20
-1.7179293623816019
10
-20.60137778019374
20
-1.7179293623816005
42
-0.4142135623730922
10
-21.60137778019374
20
-0.71792936238160054
10
-21.60137778019374
20
0.63172632295512399
42
-0.4142135623730922
0
LWPOLYLINE
5
114
100
AcDbEntity
8
0
100
AcDbPolyline
90
8
70
1
43
0.0
10
-20.321724703802786
20
-3.7559023280879744
10
-6.7987629054611638
20
-0.13243563494542088
10
-5.5740180340695753
20
-0.83954241613196923
10
-5.2247014383735371
20
-2.1432096991965839
10
-5.9318082195600841
20
-3.3679545705881733
10
-19.454770017901708
20
-6.9914212637307251
42
-0.41421356237309231
10
-20.679514889293298
20
-6.284314482544179
10
-21.028831484989333
20
-4.9806471994795647
42
-0.41421356237309276
0
LWPOLYLINE
5
115
100
AcDbEntity
8
0
100
AcDbPolyline
90
8
70
1
43
0.0
10
-18.657179672085611
20
-8.8875724423939584
10
-6.53282381262692
20
-1.8875723231846719
10
-5.1667984088424816
20
-2.2535977269691116
10
-4.4919705661741194
20
-3.4224338368328118
10
-4.8579959699585595
20
-4.7884592406172501
10
-16.982351829417247
20
-11.788459359826536
42
-0.41421356237309209
10
-18.348377233201688
20
-11.422433956042097
10
-19.023205075870049
20
-10.253597846178398
42
-0.41421356237309209
0
LWPOLYLINE
5
116
100
AcDbEntity
8
0
100
AcDbPolyline
90
8
70
1
43
0.0
10
-15.721178678163021
20
-13.413569182158689
10
-5.8216835729639556
20
-3.5140740769596372
10
-4.4074700105908615
20
-3.5140740769596386
10
-3.4531193232222872
20
-4.4684247643282138
10
-3.4531193232222881
20
-5.8826383267013078
10
-13.352614428421347
20
-15.782133431900363
42
-0.41421356237309276
10
-14.766827990794448
20
-15.782133431900363
10
-15.721178678163025
20
-14.827782744531788
42
-0.41421356237309181
0
LWPOLYLINE
5
117
100
AcDbEntity
8
0
100
AcDbPolyline
90
8
70
1
43
0.0
10
-11.71380533779978
20
-17.02545334913048
10
-4.7138052185904877
20
-4.9010974896717947
10
-3.3477798148060489
20
-4.5350720858873581
10
-2.1789437049423501
20
-5.2098999285557204
10
-1.812918301157912
20
-6.5759253323401579
10
-8.812918420367204
20
-18.700281191798844
42
-0.41421356237309209
10
-10.178943824151643
20
-19.066306595583281
10
-11.347779934015342
20
-18.391478752914917
42
-0.41421356237309209
0
LWPOLYLINE
5
118
100
AcDbEntity
8
0
100
AcDbPolyline
90
8
70
1
43
0.0
10
-6.9081555216440949
20
-19.477081006250991
10
-3.2846888285015257
20
-5.9541192079093763
10
-2.0599439571099363
20
-5.2470124267228293
10
-0.75627667404532251
20
-5.5963290224188702
10
-0.049169892858775266
20
-6.8210738938104587
10
-3.6726365860013432
20
-20.344035692152076
42
-0.41421356237309154
10
-4.8973814573929344
20
-21.051142473338622
10
-6.2010487404575461
20
-20.70182587764258
42
-0.41421356237309265
0
LWPOLYLINE
5
119
100
AcDbEntity
8
0
100
AcDbPolyline
90
8
70
1
43
0.0
10
-1.631726322955126
20
-20.60137778019374
10
-1.6317263229551229
20
-6.601377541775161
10
-0.63172632295512277
20
-5.601377541775161
10
0.71792936238160143
20
-5.601377541775161
10
1.7179293623816014
20
-6.6013775417751619
10
1.7179293623815983
20
-20.60137778019374
42
-0.41421356237309231
10
0.71792936238159832
20
-21.60137778019374
10
-0.63172632295512632
20
-21.60137778019374
42
-0.41421356237309215
0
LWPOLYLINE
5
120
100
AcDbEntity
8
0
100
AcDbPolyline
90
8
70
1
43
0.0
10
3.7559023280879709
20
-20.321724703802783
10
0.13243563494541977
20
-6.7987629054611629
10
0.83954241613196812
20
-5.5740180340695744
10
2.1432096991965826
20
-5.2247014383735362
10
3.3679545705881715
20
-5.9318082195600841
10
6.9914212637307234
20
-19.454770017901705
42
-0.41421356237309243
10
6.2843144825441755
20
-20.679514889293298
10
4.9806471994795602
20
-21.028831484989333
42
-0.41421356237309243
0
LWPOLYLINE
5
121
100
AcDbEntity
8
0
100
AcDbPolyline
90
8
70
1
43
0.0
10
8.8875724423939495
20
-18.657179672085611
10
1.8875723231846688
20
-6.53282381262692
10
2.253597726969109
20
-5.1667984088424834
10
3.4224338368328091
20
-4.4919705661741212
10
4.7884592406172475
20
-4.8579959699585595
10
11.788459359826525
20
-16.982351829417254
42
-0.41421356237309176
10
11.422433956042088
20
-18.348377233201692
10
10.253597846178389
20
-19.023205075870052
42
-0.4142135623730927
0
LWPOLYLINE
5
122
100
AcDbEntity
8
0
100
AcDbPolyline
90
8
70
1
43
0.0
10
13.413569182158698
20
-15.721178678163017
10
3.514074076959639
20
-5.8216835729639547
10
3.5140740769596395
20
-4.4074700105908606
10
4.4684247643282147
20
-3.4531193232222863
10
5.8826383267013096
20
-3.4531193232222854
10
15.78213343190037
20
-13.352614428421345
42
-0.41421356237309231
10
15.782133431900366
20
-14.766827990794445
10
14.82778274453179
20
-15.721178678163017
42
-0.41421356237309093
0
LWPOLYLINE
5
123
100
AcDbEntity
8
0
100
AcDbPolyline
90
8
70
1
43
0.0
10
17.02545334913048
20
-11.713805337799785
10
4.9010974896717947
20
-4.7138052185904886
10
4.5350720858873581
20
-3.3477798148060502
10
5.2098999285557204
20
-2.178943704942351
10
6.5759253323401579
20
-1.8129183011579131
10
18.700281191798844
20
-8.8129184203672075
42
-0.41421356237309209
10
19.066306595583281
20
-10.178943824151647
10
18.391478752914917
20
-11.347779934015348
42
-0.41421356237309209
0
LWPOLYLINE
5
124
100
AcDbEntity
8
0
100
AcDbPolyline
90
8
70
1
43
0.0
10
19.477081006250991
20
-6.9081555216440975
10
5.9541192079093763
20
-3.2846888285015261
10
5.2470124267228293
20
-2.0599439571099367
10
5.5963290224188702
20
-0.75627667404532306
10
6.8210738938104587
20
-0.049169892858776376
10
20.344035692152076
20
-3.6726365860013455
42
-0.41421356237309154
10
21.051142473338622
20
-4.8973814573929362
10
20.70182587764258
20
-6.2010487404575487
42
-0.41421356237309265
0
CIRCLE
5
125
100
AcDbEntity
8
0
100
AcDbCircle
10
0
20
0
30
0
40
25.793719049745619
210
0
220
0
230
1
0
CIRCLE
5
126
100
AcDbEntity
8
0
100
AcDbCircle
10
31.118165269886006
20
0
30
0
40
5.5500036624956355
210
0
220
0
230
1
0
CIRCLE
5
127
100
AcDbEntity
8
0
100
AcDbCircle
10
30.618083551943101
20
5.5563629624216233
30
0
40
5.5500036624956355
210
0
220
0
230
1
0
CIRCLE
5
128
100
AcDbEntity
8
0
100
AcDbCircle
10
29.133911435997689
20
10.934139847440346
30
0
40
5.5500036624956355
210
0
220
0
230
1
0
CIRCLE
5
129
100
AcDbEntity
8
0
100
AcDbCircle
10
26.713351435037129
20
15.960484481122094
30
0
40
5.5500036624956355
210
0
220
0
230
1
0
CIRCLE
5
130
100
AcDbEntity
8
0
100
AcDbCircle
10
23.434202339135709
20
20.47384601125021
30
0
40
5.5500036624956355
210
0
220
0
230
1
0
CIRCLE
5
131
100
AcDbEntity
8
0
100
AcDbCircle
10
19.401858698328553
20
24.329161284640133
30
0
40
5.5500036624956355
210
0
220
0
230
1
0
CIRCLE
5
132
100
AcDbEntity
8
0
100
AcDbCircle
10
14.745923355054602
20
27.402517296241136
30
0
40
5.5500036624956355
210
0
220
0
230
1
0
CIRCLE
5
133
100
AcDbEntity
8
0
100
AcDbCircle
10
9.6160419021630474
20
29.595133855074621
30
0
40
5.5500036624956355
210
0
220
0
230
1
0
CIRCLE
5
134
100
AcDbEntity
8
0
100
AcDbCircle
10
4.1770929504303433
20
30.836538460848757
30
0
40
5.5500036624956355
210
0
220
0
230
1
0
CIRCLE
5
135
100
AcDbEntity
8
0
100
AcDbCircle
10
-1.3961112056527241
20
31.086831348102852
30
0
40
5.5500036624956355
210
0
220
0
230
1
0
CIRCLE
5
136
100
AcDbEntity
8
0
100
AcDbCircle
10
-6.9244431988619777
20
30.337967897498899
30
0
40
5.5500036624956355
210
0
220
0
230
1
0
CIRCLE
5
137
100
AcDbEntity
8
0
100
AcDbCircle
10
-12.230217890208975
20
28.61401719650619
30
0
40
5.5500036624956355
210
0
220
0
230
1
0
CIRCLE
5
138
100
AcDbEntity
8
0
100
AcDbCircle
10
-17.142903315507851
20
25.970388439126001
30
0
40
5.5500036624956355
210
0
220
0
230
1
0
CIRCLE
5
139
100
AcDbEntity
8
0
100
AcDbCircle
10
-21.504601723018475
20
22.492050028805522
30
0
40
5.5500036624956355
210
0
220
0
230
1
0
CIRCLE
5
140
100
AcDbEntity
8
0
100
AcDbCircle
10
-25.175124537106047
20
18.290798624038821
30
0
40
5.5500036624956355
210
0
220
0
230
1
0
CIRCLE
5
141
100
AcDbEntity
8
0
100
AcDbCircle
10
-28.036498134409573
20
13.501665901776281
30
0
40
5.5500036624956355
210
0
220
0
230
1
0
CIRCLE
5
142
100
AcDbEntity
8
0
100
AcDbCircle
10
-29.996755613165654
20
8.2785785282229405
30
0
40
5.5500036624956355
210
0
220
0
230
1
0
CIRCLE
5
143
100
AcDbEntity
8
0
100
AcDbCircle
10
-30.992892685101872
20
2.7894108291354112
30
0
40
5.5500036624956355
210
0
220
0
230
1
0
CIRCLE
5
144
100
AcDbEntity
8
0
100
AcDbCircle
10
-30.992892685101886
20
-2.7894108291354036
30
0
40
5.5500036624956355
210
0
220
0
230
1
0
CIRCLE
5
145
100
AcDbEntity
8
0
100
AcDbCircle
10
-29.996755613165668
20
-8.2785785282229334
30
0
40
5.5500036624956355
210
0
220
0
230
1
0
CIRCLE
5
146
100
AcDbEntity
8
0
100
AcDbCircle
10
-28.036498134409573
20
-13.501665901776274
30
0
40
5.5500036624956355
210
0
220
0
230
1
0
CIRCLE
5
147
100
AcDbEntity
8
0
100
AcDbCircle
10
-25.175124537106058
20
-18.290798624038818
30
0
40
5.5500036624956355
210
0
220
0
230
1
0
CIRCLE
5
148
100
AcDbEntity
8
0
100
AcDbCircle
10
-21.504601723018478
20
-22.492050028805515
30
0
40
5.5500036624956355
210
0
220
0
230
1
0
CIRCLE
5
149
100
AcDbEntity
8
0
100
AcDbCircle
10
-17.142903315507851
20
-25.970388439125998
30
0
40
5.5500036624956355
210
0
220
0
230
1
0
CIRCLE
5
150
100
AcDbEntity
8
0
100
AcDbCircle
10
-12.230217890208975
20
-28.614017196506186
30
0
40
5.5500036624956355
210
0
220
0
230
1
0
CIRCLE
5
151
100
AcDbEntity
8
0
100
AcDbCircle
10
-6.9244431988619919
20
-30.337967897498896
30
0
40
5.5500036624956355
210
0
220
0
230
1
0
CIRCLE
5
152
100
AcDbEntity
8
0
100
AcDbCircle
10
-1.3961112056527241
20
-31.086831348102852
30
0
40
5.5500036624956355
210
0
220
0
230
1
0
CIRCLE
5
153
100
AcDbEntity
8
0
100
AcDbCircle
10
4.1770929504303362
20
-30.836538460848757
30
0
40
5.5500036624956355
210
0
220
0
230
1
0
CIRCLE
5
154
100
AcDbEntity
8
0
100
AcDbCircle
10
9.6160419021630386
20
-29.595133855074621
30
0
40
5.5500036624956355
210
0
220
0
230
1
0
CIRCLE
5
155
100
AcDbEntity
8
0
100
AcDbCircle
10
14.745923355054595
20
-27.402517296241143
30
0
40
5.5500036624956355
210
0
220
0
230
1
0
CIRCLE
5
156
100
AcDbEntity
8
0
100
AcDbCircle
10
19.401858698328542
20
-24.329161284640136
30
0
40
5.5500036624956355
210
0
220
0
230
1
0
CIRCLE
5
157
100
AcDbEntity
8
0
100
AcDbCircle
10
23.434202339135702
20
-20.473846011250217
30
0
40
5.5500036624956355
210
0
220
0
230
1
0
CIRCLE
5
158
100
AcDbEntity
8
0
100
AcDbCircle
10
26.713351435037126
20
-15.960484481122101
30
0
40
5.5500036624956355
210
0
220
0
230
1
0
CIRCLE
5
159
100
AcDbEntity
8
0
100
AcDbCircle
10
29.133911435997682
20
-10.934139847440349
30
0
40
5.5500036624956355
210
0
220
0
230
1
0
CIRCLE
5
160
100
AcDbEntity
8
0
100
AcDbCircle
10
30.618083551943101
20
-5.5563629624216313
30
0
40
5.5500036624956355
210
0
220
0
230
1
0
ENDSEC
0
SECTION
2
OBJECTS
0
DICTIONARY
5
C
100
AcDbDictionary
3
ACAD_GROUP
350
D
3
ACAD_MLINESTYLE
350
17
0
DICTIONARY
5
D
100
AcDbDictionary
0
DICTIONARY
5
1A
330
C
100
AcDbDictionary
0
DICTIONARY
5
17
100
AcDbDictionary
0
ENDSEC
0
EOF
