0
SECTION
2
HEADER
9
$INSUNITS
70
4
9
$ACADVER
1
AC1014
9
$HANDSEED
5
FFFF
0
ENDSEC
0
SECTION
2
TABLES
0
TABLE
2
VPORT
5
8
100
AcDbSymbolTable
0
ENDTAB
0
TABLE
2
LTYPE
5
5
100
AcDbSymbolTable
0
LTYPE
5
14
100
AcDbSymbolTableRecord
100
AcDbLinetypeTableRecord
2
BYBLOCK
70
0
0
LTYPE
5
15
100
AcDbSymbolTableRecord
100
AcDbLinetypeTableRecord
2
BYLAYER
70
0
0
ENDTAB
0
TABLE
2
LAYER
5
2
100
AcDbSymbolTable
70
2
0
LAYER
5
50
100
AcDbSymbolTableRecord
100
AcDbLayerTableRecord
2
0
70
0
6
CONTINUOUS
0
ENDTAB
0
TABLE
2
STYLE
5
3
100
AcDbSymbolTable
70
1
0
STYLE
5
11
100
AcDbSymbolTableRecord
100
AcDbTextStyleTableRecord
2
STANDARD
70
0
0
ENDTAB
0
TABLE
2
VIEW
5
6
100
AcDbSymbolTable
70
0
0
ENDTAB
0
TABLE
2
UCS
5
7
100
AcDbSymbolTable
70
0
0
ENDTAB
0
TABLE
2
APPID
5
9
100
AcDbSymbolTable
70
2
0
APPID
5
12
100
AcDbSymbolTableRecord
100
AcDbRegAppTableRecord
2
ACAD
70
0
0
ENDTAB
0
TABLE
2
DIMSTYLE
5
A
100
AcDbSymbolTable
70
1
0
ENDTAB
0
TABLE
2
BLOCK_RECORD
5
1
100
AcDbSymbolTable
70
1
0
BLOCK_RECORD
5
1F
100
AcDbSymbolTableRecord
100
AcDbBlockTableRecord
2
*MODEL_SPACE
0
BLOCK_RECORD
5
1B
100
AcDbSymbolTableRecord
100
AcDbBlockTableRecord
2
*PAPER_SPACE
0
ENDTAB
0
ENDSEC
0
SECTION
2
BLOCKS
0
BLOCK
5
20
100
AcDbEntity
100
AcDbBlockBegin
2
*MODEL_SPACE
0
ENDBLK
5
21
100
AcDbEntity
100
AcDbBlockEnd
0
BLOCK
5
1C
100
AcDbEntity
100
AcDbBlockBegin
2
*PAPER_SPACE
0
ENDBLK
5
1D
100
AcDbEntity
100
AcDbBlockEnd
0
ENDSEC
0
SECTION
2
ENTITIES
0
LINE
5
100
100
AcDbEntity
8
0
100
AcDbLine
10
-30
20
0
30
0
11
30
21
0
31
0
0
LINE
5
101
100
AcDbEntity
8
0
100
AcDbLine
10
0
20
30
30
0
11
0
21
-30
31
0
0
LWPOLYLINE
5
102
100
AcDbEntity
8
0
100
AcDbPolyline
90
24
70
1
43
0.0
10
-1.5026337284726496
20
24.962344565773403
10
-1.5026337284480515
20
29.962344565773392
42
0.24219909304391218
10
-25.253879851966715
20
16.193873916466977
10
-20.919341396300865
20
13.691326972469621
10
-22.369341396216523
20
11.179853301446059
10
-26.699468415126418
20
13.679853301467364
42
0.24219909304391216
10
-26.651246123325969
20
-13.773564537689682
10
-22.316707667828211
20
-11.27101759340116
10
-20.866707667743874
20
-13.782491264327339
10
-25.196834686678365
20
-16.282491264306039
42
0.24219909304391221
10
-1.3973662713592465
20
-29.967438454156667
10
-1.397366271527144
20
-24.962344565870694
10
1.5026337284676861
20
-24.962344565773307
10
1.5026337284480475
20
-29.962344565773392
42
0.24219909304391213
10
25.253879851966715
20
-16.193873916466991
10
20.919341396300858
20
-13.691326972469632
10
22.36934139621652
20
-11.179853301446068
10
26.699468415126418
20
-13.679853301467373
42
0.24219909304391213
10
26.651246123325976
20
13.773564537689669
10
22.316707667828226
20
11.271017593401151
10
20.866707667743889
20
13.78249126432733
10
25.196834686678386
20
16.282491264306024
42
0.24219909304391246
10
1.3973662713592427
20
29.967438454156667
10
1.3973662715273507
20
24.96234456587079
0
LWPOLYLINE
5
103
100
AcDbEntity
8
0
100
AcDbPolyline
90
4
70
1
43
0.0
10
-0.39999999105930328
20
0.69999998435378075
10
0
20
1.1999999731779099
10
0.37008600579698314
20
0.6895359295473602
10
0
20
0
0
LWPOLYLINE
5
104
100
AcDbEntity
8
0
100
AcDbPolyline
90
4
70
1
43
0.0
10
-0.73505645792491747
20
0.33119778774262643
10
-0.70534228698533863
20
0.97082037155041023
10
-0.10589318224361532
20
0.77537738152323432
10
0
20
0
0
LWPOLYLINE
5
105
100
AcDbEntity
8
0
100
AcDbPolyline
90
4
70
1
43
0.0
10
-0.78934634151332062
20
-0.16411070678743797
10
-1.1412677940448608
20
0.37082038496145525
10
-0.54142477384403986
20
0.56505102786512762
10
0
20
0
0
LWPOLYLINE
5
106
100
AcDbEntity
8
0
100
AcDbPolyline
90
4
70
1
43
0.0
10
-0.54213275153901708
20
-0.59673448924246919
10
-1.1412677940448608
20
-0.37082038496145525
10
-0.77015050418726605
20
0.13889438694060605
10
0
20
0
0
LWPOLYLINE
5
107
100
AcDbEntity
8
0
100
AcDbPolyline
90
4
70
1
43
0.0
10
-0.087842876891310942
20
-0.8014259790661854
10
-0.70534228698533874
20
-0.9708203715504099
10
-0.70470491838382476
20
-0.34031518894864732
10
0
20
0
0
LWPOLYLINE
5
108
100
AcDbEntity
8
0
100
AcDbPolyline
90
4
70
1
43
0.0
10
0.39999999105930323
20
-0.69999998435378075
10
-1.3877787807814457e-16
20
-1.1999999731779099
10
-0.3700860057969832
20
-0.6895359295473602
10
0
20
0
0
LWPOLYLINE
5
109
100
AcDbEntity
8
0
100
AcDbPolyline
90
4
70
1
43
0.0
10
0.73505645792491769
20
-0.33119778774262654
10
0.70534228698533863
20
-0.97082037155041045
10
0.10589318224361527
20
-0.77537738152323443
10
0
20
0
0
LWPOLYLINE
5
110
100
AcDbEntity
8
0
100
AcDbPolyline
90
4
70
1
43
0.0
10
0.7893463415133205
20
0.16411070678743797
10
1.1412677940448606
20
-0.37082038496145525
10
0.54142477384403964
20
-0.56505102786512751
10
0
20
0
0
LWPOLYLINE
5
111
100
AcDbEntity
8
0
100
AcDbPolyline
90
4
70
1
43
0.0
10
0.54213275153901719
20
0.59673448924246886
10
1.1412677940448608
20
0.37082038496145486
10
0.77015050418726594
20
-0.1388943869406063
10
0
20
0
0
LWPOLYLINE
5
112
100
AcDbEntity
8
0
100
AcDbPolyline
90
4
70
1
43
0.0
10
0.087842876891310942
20
0.8014259790661854
10
0.70534228698533885
20
0.97082037155041001
10
0.70470491838382487
20
0.34031518894864732
10
0
20
0
0
LWPOLYLINE
5
113
100
AcDbEntity
8
0
100
AcDbPolyline
90
6
70
1
43
0.0
10
-1.8767013950901386
20
1.4999999664723873
10
-3.6999999172985554
20
1.4999999664723873
10
-2.3999999463558197
20
0.25270012569254868
10
-1.6914191538936565
20
0.25270012569254879
10
-1.3999999687075615
20
0.59999998658895493
10
-1.3999999687075615
20
1.099999975413084
0
LWPOLYLINE
5
114
100
AcDbEntity
8
0
100
AcDbPolyline
90
6
70
1
43
0.0
10
-1.6939444049044239
20
-1.7188395646848385
10
-1.2521515070112856
20
-1.1648487932657738
10
-1.3419845820873513
20
-0.72047017823623782
10
-1.7329003145837185
20
-0.40872528427491256
10
-2.342851378461861
20
-0.5320295519891669
10
-3.4796594128029086
20
-1.9575417385891414
0
LWPOLYLINE
5
115
100
AcDbEntity
8
0
100
AcDbPolyline
90
6
70
1
43
0.0
10
0.28768582360868039
20
-2.3960580049171525
10
0.13001176388649435
20
-1.7052428123098733
10
-0.27342743365867461
20
-1.4984116039362319
10
-0.760891378853918
20
-1.6096720684275236
10
-1.0447864883931546
20
-2.1634299663778207
10
-0.63906439835016982
20
-3.9410145879186769
0
LWPOLYLINE
5
116
100
AcDbEntity
8
0
100
AcDbPolyline
90
6
70
1
43
0.0
10
2.0526827592231101
20
-1.2689958967708168
10
1.4142735248210756
20
-0.96155421307045108
10
1.0010261492181736
20
-1.1480185298458188
10
0.78408428450842305
20
-1.5985029537279165
10
1.0400239371960014
20
-2.1657234901551408
10
2.6827591425982735
20
-2.9568230704984471
0
LWPOLYLINE
5
117
100
AcDbEntity
8
0
100
AcDbPolyline
90
6
70
1
43
0.0
10
2.27196771004503
20
0.81364600444278712
10
1.6335584756429955
20
0.50620432074242139
10
1.5216866245215743
20
0.066855912528783548
10
1.7386284892313246
20
-0.38362851135331438
10
2.3416751254545036
20
-0.53718305313744685
10
3.9844103308567758
20
0.25391652720585883
0
LWPOLYLINE
5
118
100
AcDbEntity
8
0
100
AcDbPolyline
90
6
70
1
43
0.0
10
0.78041463550772328
20
2.283595868957184
10
0.6227405757855371
20
1.5927806763499051
10
0.89648603480991007
20
1.2313864891571307
10
1.3839499800051533
20
1.1201260246658384
10
1.8799971827783062
20
1.495867179430068
10
2.2857192728212921
20
3.2734518009709239
0
LWPOLYLINE
5
119
100
AcDbEntity
8
0
100
AcDbPolyline
90
6
70
1
43
0.0
10
-1.298806577124298
20
2.033951467280287
10
-0.85701367923115945
20
1.4799606958612226
10
-0.40378682409606981
20
1.4686579237434183
10
-0.012871091599702539
20
1.7804028177047437
10
0.0026430165163428276
20
2.4024989157571182
10
-1.1341650178247045
20
3.8280111023570926
0
LWPOLYLINE
5
120
100
AcDbEntity
8
0
100
AcDbPolyline
90
4
70
1
43
0.0
10
-2.8618241240337849
20
2.93098128481869
10
-2.0999999530613422
20
2.5999999418854713
10
-1.9970336895696175
20
2.1197188971061078
10
-2.4809120385475634
20
2.164124603766818
0
LWPOLYLINE
5
121
100
AcDbEntity
8
0
100
AcDbPolyline
90
4
70
1
43
0.0
10
-4.0758515990442152
20
-0.41002725693284336
10
-3.3420903636186754
20
-0.020772627885850825
10
-2.9023931071549418
20
-0.23972069490191289
10
-3.2388041025515162
20
-0.59034551657023959
0
LWPOLYLINE
5
122
100
AcDbEntity
8
0
100
AcDbPolyline
90
4
70
1
43
0.0
10
-2.2206796877535759
20
-3.4422769111821676
10
-2.0675185641518397
20
-2.62590298517474
10
-1.6221913170227604
20
-2.4186457142377713
10
-1.557810617770633
20
-2.9002734220759594
0
LWPOLYLINE
5
123
100
AcDbEntity
8
0
100
AcDbPolyline
90
4
70
1
43
0.0
10
1.3067093220258341
20
-3.8824218416588829
10
0.76393688381410862
20
-3.2536748359678609
10
0.87955362149998495
20
-2.7762811793712534
10
1.2962460357370302
20
-3.0262362859623426
0
LWPOLYLINE
5
124
100
AcDbEntity
8
0
100
AcDbPolyline
90
4
70
1
43
0.0
10
3.8501195603072698
20
-1.3990239383936647
10
3.020132276795513
20
-1.4313631724059575
10
2.7189767434090739
20
-1.0433202906228565
10
3.1742029857343326
20
-0.87338150254878177
0
LWPOLYLINE
5
125
100
AcDbEntity
8
0
100
AcDbPolyline
90
4
70
1
43
0.0
10
3.4943112415509949
20
2.1378675253694999
10
3.0021064658786925
20
1.4687941544653027
10
2.5109549205132717
20
1.4752820568199707
10
2.6619203455327689
20
1.9371473660198961
0
LWPOLYLINE
5
126
100
AcDbEntity
8
0
100
AcDbPolyline
90
4
70
1
43
0.0
10
0.50721528694747975
20
4.0649011379793656
10
0.723433254343544
20
3.2629195250836336
10
0.41213282832498949
20
2.8829669252077137
10
0.14515739186558269
20
3.2889647573706071
0
LWPOLYLINE
5
127
100
AcDbEntity
8
0
100
AcDbPolyline
90
6
70
1
43
0.0
10
-2.0000000298023224
20
5.000000074505806
10
-5.000000074505806
20
8.0000001192092896
10
-5.7308801382751575
20
10.000000149011612
10
-4.6409461553087619
20
11.263421177863808
10
-3.0000000447034836
20
11.000000163912773
10
-2.0000000298023224
20
9.0000001341104507
0
LWPOLYLINE
5
128
100
AcDbEntity
8
0
100
AcDbPolyline
90
6
70
1
43
0.0
10
-10.22753141767376
20
5.314187730971228
10
-9.9936775817797638
20
6.9663079344699321
10
-8.4708097167300149
20
7.6318665224998732
10
-6.5482745203396329
20
6.4900002572779751
10
-4.3857112182925393
20
3.1249860758106318
10
-8.5313943309283662
20
4.0268242353758179
0
LWPOLYLINE
5
129
100
AcDbEntity
8
0
100
AcDbPolyline
90
6
70
1
43
0.0
10
-11.477013736244741
20
-1.0588417433962849
10
-12.173486987987239
20
0.45744114346162768
10
-11.252197155576162
20
1.8406691843853036
10
-9.0175181185659277
20
1.9194711549102896
10
-5.3789900829295618
20
0.25781107814207976
10
-9.3541311672329925
20
-1.224839891009037
0
LWPOLYLINE
5
130
100
AcDbEntity
8
0
100
AcDbPolyline
90
6
70
1
43
0.0
10
-9.0826252862620063
20
-7.0956964456537293
10
-10.4883002892576
20
-6.1966599784710716
10
-10.461091501752813
20
-4.5349276142246202
10
-8.623763428885912
20
-3.2604764768063159
10
-4.6644776023642258
20
-2.6912171152305504
10
-7.2069974510736667
20
-6.0876260063036387
0
LWPOLYLINE
5
131
100
AcDbEntity
8
0
100
AcDbPolyline
90
6
70
1
43
0.0
10
-3.8045674826547193
20
-10.879717662211426
10
-5.4731523554772661
20
-10.883365340746387
10
-6.3486632106634389
20
-9.4707169375855873
10
-5.4920247831352995
20
-7.4052458645628416
10
-2.4690264406720819
20
-4.7858028897489611
10
-2.7716929664090841
20
-9.0176338777067855
0
LWPOLYLINE
5
132
100
AcDbEntity
8
0
100
AcDbPolyline
90
6
70
1
43
0.0
10
2.6814136149061736
20
-11.209505393428593
10
1.2796827797204946
20
-12.114679105519588
10
-0.22057920769912032
20
-11.39962055015134
10
-0.61660707353203337
20
-9.198902013287654
10
0.51032317062625432
20
-5.3609300616394275
10
2.5436044512437084
20
-9.084606708494313
0
LWPOLYLINE
5
133
100
AcDbEntity
8
0
100
AcDbPolyline
90
6
70
1
43
0.0
10
8.3160648356976115
20
-7.9803543648125475
10
7.6262276741634505
20
-9.4996678525225136
10
5.9775371351714597
20
-9.7092251839139152
10
4.4545790251802595
20
-8.0719717691293713
10
3.3276487810219724
20
-4.2339998174811422
10
7.0513254278768596
20
-6.2672810980985982
0
LWPOLYLINE
5
134
100
AcDbEntity
8
0
100
AcDbPolyline
90
6
70
1
43
0.0
10
11.310424229661372
20
-2.2174972118579834
10
11.551499166409355
20
-3.8685791777951346
10
10.277827672884259
20
-4.9362194238907628
10
8.1114677579491801
20
-4.3822475220996271
10
5.0884694154859638
20
-1.7628045472857443
10
9.3203004034437882
20
-1.4601380215487421
0
LWPOLYLINE
5
135
100
AcDbEntity
8
0
100
AcDbPolyline
90
6
70
1
43
0.0
10
10.713803846346426
20
4.2493996377749008
10
11.809251292313176
20
2.9907560518079066
10
11.314980544116459
20
1.4040011255579088
10
9.1930227904616757
20
0.69880934971537023
10
5.2337369639399896
20
1.268068711291136
10
8.6301458550130778
20
3.8105885600005762
0
LWPOLYLINE
5
136
100
AcDbEntity
8
0
100
AcDbPolyline
90
6
70
1
43
0.0
10
6.7156264419370926
20
9.3671421272373312
10
8.3176495730899589
20
8.9005473666344024
10
8.7597070404238515
20
7.2984612378398488
10
7.3558580417977213
20
5.5579991905466519
10
3.7173300061613546
20
3.8963391137784429
10
5.1999809753124726
20
7.8714801980818745
0
LWPOLYLINE
5
137
100
AcDbEntity
8
0
100
AcDbPolyline
90
6
70
1
43
0.0
10
0.58528509256171091
20
11.510883176365487
10
2.1852528841141954
20
11.984477780817016
10
3.4232884445290015
20
10.875711475570514
10
3.18326033887229
20
8.6525635593250687
10
1.020697036825196
20
5.2875493778577258
10
0.11885887726000965
20
9.4332324904935518
0
LWPOLYLINE
5
138
100
AcDbEntity
8
0
100
AcDbPolyline
90
6
70
1
43
0.0
10
-8.3313118199730187
20
10.735972402233253
10
-9.0000001341104507
20
9.0000001341104507
10
-10.603855533503889
20
8.5742645484412101
10
-12.000000178813934
20
9.8679862681718529
10
-12.000000178813934
20
12.000464113694528
10
-9.6353188974174628
20
12.000464113694528
0
LWPOLYLINE
5
139
100
AcDbEntity
8
0
100
AcDbPolyline
90
6
70
1
43
0.0
10
-14.593686790681854
20
4.8861861461141887
10
-12.813050397394603
20
4.5274274789290923
10
-12.437049337907485
20
2.7055144786955596
10
-13.556128323741422
20
1.4802532189907158
10
-15.43007870706707
20
1.8137884038878727
10
-16.582983272676401
20
3.6077429251180506
0
LWPOLYLINE
5
140
100
AcDbEntity
8
0
100
AcDbPolyline
90
6
70
1
43
0.0
10
-14.918662241968242
20
-3.7794213987158591
10
-13.226736006331336
20
-3.1185436796611201
10
-11.925423252910294
20
-4.4479529074533497
10
-12.20442615421673
20
-6.0837280485198741
10
-13.961216269552779
20
-6.8162744630140493
10
-15.900986347224874
20
-5.930411151090011
0
LWPOLYLINE
5
141
100
AcDbEntity
8
0
100
AcDbPolyline
90
6
70
1
43
0.0
10
-10.507067841660016
20
-11.245089353569149
10
-9.4410263889086519
20
-9.7743992545356289
10
-7.6275595461283219
20
-10.189226673219267
10
-6.9779049130827602
20
-11.716168646193701
10
-8.0597663116958103
20
-13.282218349402935
10
-10.170538607530213
20
-13.585701589109858
0
LWPOLYLINE
5
142
100
AcDbEntity
8
0
100
AcDbPolyline
90
6
70
1
43
0.0
10
-2.7595536410185186
20
-15.140520892668841
10
-2.6578576001122869
20
-13.326952128700002
10
-0.90799957721100721
20
-12.695492963873473
10
0.46405183443487763
20
-13.628808481192859
10
0.40060250253710183
20
-15.531151757526667
10
-1.2110167215365475
20
-16.927627764567706
0
LWPOLYLINE
5
143
100
AcDbEntity
8
0
100
AcDbPolyline
90
6
70
1
43
0.0
10
5.86409934257206
20
-14.228944026154792
10
4.9691621971953213
20
-12.648291865746184
10
6.0998438418523637
20
-11.171029940564656
10
7.7586754033530205
20
-11.214397919972415
10
8.7337828527365069
20
-12.849054220510098
10
8.1329944169096997
20
-14.895151729677689
0
LWPOLYLINE
5
144
100
AcDbEntity
8
0
100
AcDbPolyline
90
6
70
1
43
0.0
10
12.62594221864202
20
-8.799777968250865
10
11.018508107315723
20
-7.9538883039777444
10
11.171029940564662
20
-6.0998438418523691
10
12.58997435188736
20
-5.2394952563100343
10
14.294048857152857
20
-6.0874727555603787
10
14.894837292979663
20
-8.13357026472797
0
LWPOLYLINE
5
145
100
AcDbEntity
8
0
100
AcDbPolyline
90
6
70
1
43
0.0
10
15.379137650937867
20
-0.57674458168726961
10
13.569555546421403
20
-0.73418140518558661
10
12.695492963873477
20
0.90799957721100388
10
13.424045400205383
20
2.3989101307263594
10
15.316055346346186
20
2.6068382972526374
10
16.927674570419839
20
1.2103622902115962
0
LWPOLYLINE
5
146
100
AcDbEntity
8
0
100
AcDbPolyline
90
6
70
1
43
0.0
10
13.249565542854999
20
7.8294011344795509
10
11.812364977436188
20
6.7186229022750723
10
10.189226673219265
20
7.627559546128321
10
9.9960768837305274
20
9.2756785011461531
10
11.475322481150403
20
10.473496609727182
10
13.586094776984803
20
10.170013370020259
0
LWPOLYLINE
5
147
100
AcDbEntity
8
0
100
AcDbPolyline
90
6
70
1
43
0.0
10
6.9133499918722574
20
13.749767310354027
10
6.3048319902976226
20
12.038311909784358
10
4.4479529074533568
20
11.925423252910294
10
3.3944245855754502
20
13.207484486264514
10
3.9912558089435275
20
15.014893750804141
10
5.9310258866156236
20
15.900757062728179
0
LWPOLYLINE
5
148
100
AcDbEntity
8
0
100
AcDbPolyline
90
6
70
1
43
0.0
10
-1.6178053341331089
20
15.304679516404477
10
-1.2044406059463586
20
13.535921944584484
10
-2.7055144786955596
20
12.437049337907485
10
-4.2849335346418105
20
12.946007466619927
10
-4.7600063817369866
20
14.789168216170436
10
-3.6071018161276558
20
16.583122737400615
0
ENDSEC
0
SECTION
2
OBJECTS
0
DICTIONARY
5
C
100
AcDbDictionary
3
ACAD_GROUP
350
D
3
ACAD_MLINESTYLE
350
17
0
DICTIONARY
5
D
100
AcDbDictionary
0
DICTIONARY
5
1A
330
C
100
AcDbDictionary
0
DICTIONARY
5
17
100
AcDbDictionary
0
ENDSEC
0
EOF
