999
"DXF R12 Output" (www.mydxf.blogspot.com)
 0 
SECTION
 2 
HEADER
 9 
$ACADVER
 1 
AC1009
 9 
$EXTMIN
 10 
 0 
 20 
 0 
 9 
$EXTMAX
 10 
 8.5 
 20 
 11 
 0 
ENDSEC
 0 
SECTION
 2 
ENTITIES
0
LINE
8
Layer 1
10
0.846666
20
214.463000
11
-0.846666
21
212.769000
0
LINE
8
Layer 1
10
0.000000
20
215.027000
11
0.000000
21
212.205000
0
LINE
8
Layer 1
10
2.257780
20
212.487000
11
1.128890
21
211.358110
0
LINE
8
Layer 1
10
1.693330
20
213.052000
11
0.564440
21
211.923110
0
LINE
8
Layer 1
10
1.128890
20
213.616000
11
0.000000
21
212.487110
0
LINE
8
0
10
-170.667000
20
-49.850500
11
106.667000
21
-49.850500
0
LINE
8
0
10
106.667000
20
-49.850500
11
106.667000
21
-263.184000
0
LINE
8
0
10
106.667000
20
-263.184000
11
-170.667000
21
-263.184000
0
LINE
8
0
10
-170.667000
20
-263.184000
11
-170.667000
21
-49.850500
0
LINE
8
0
10
-170.666000
20
-92.515800
11
106.667000
21
-92.515800
0
LINE
8
0
10
-170.666000
20
-135.185000
11
106.667000
21
-135.185000
0
LINE
8
0
10
-170.666000
20
-177.851000
11
106.667000
21
-177.851000
0
LINE
8
0
10
-170.666000
20
-220.518000
11
106.667000
21
-220.518000
 0 
ENDSEC
 0 
EOF