0
SECTION
2
HEADER
9
$INSUNITS
70
4
9
$ACADVER
1
AC1014
9
$HANDSEED
5
FFFF
0
ENDSEC
0
SECTION
2
TABLES
0
TABLE
2
VPORT
5
8
100
AcDbSymbolTable
0
ENDTAB
0
TABLE
2
LTYPE
5
5
100
AcDbSymbolTable
0
LTYPE
5
14
100
AcDbSymbolTableRecord
100
AcDbLinetypeTableRecord
2
BYBLOCK
70
0
0
LTYPE
5
15
100
AcDbSymbolTableRecord
100
AcDbLinetypeTableRecord
2
BYLAYER
70
0
0
ENDTAB
0
TABLE
2
LAYER
5
2
100
AcDbSymbolTable
70
2
0
LAYER
5
50
100
AcDbSymbolTableRecord
100
AcDbLayerTableRecord
2
0
70
0
6
CONTINUOUS
0
ENDTAB
0
TABLE
2
STYLE
5
3
100
AcDbSymbolTable
70
1
0
STYLE
5
11
100
AcDbSymbolTableRecord
100
AcDbTextStyleTableRecord
2
STANDARD
70
0
0
ENDTAB
0
TABLE
2
VIEW
5
6
100
AcDbSymbolTable
70
0
0
ENDTAB
0
TABLE
2
UCS
5
7
100
AcDbSymbolTable
70
0
0
ENDTAB
0
TABLE
2
APPID
5
9
100
AcDbSymbolTable
70
2
0
APPID
5
12
100
AcDbSymbolTableRecord
100
AcDbRegAppTableRecord
2
ACAD
70
0
0
ENDTAB
0
TABLE
2
DIMSTYLE
5
A
100
AcDbSymbolTable
70
1
0
ENDTAB
0
TABLE
2
BLOCK_RECORD
5
1
100
AcDbSymbolTable
70
1
0
BLOCK_RECORD
5
1F
100
AcDbSymbolTableRecord
100
AcDbBlockTableRecord
2
*MODEL_SPACE
0
BLOCK_RECORD
5
1B
100
AcDbSymbolTableRecord
100
AcDbBlockTableRecord
2
*PAPER_SPACE
0
ENDTAB
0
ENDSEC
0
SECTION
2
BLOCKS
0
BLOCK
5
20
100
AcDbEntity
100
AcDbBlockBegin
2
*MODEL_SPACE
0
ENDBLK
5
21
100
AcDbEntity
100
AcDbBlockEnd
0
BLOCK
5
1C
100
AcDbEntity
100
AcDbBlockBegin
2
*PAPER_SPACE
0
ENDBLK
5
1D
100
AcDbEntity
100
AcDbBlockEnd
0
ENDSEC
0
SECTION
2
ENTITIES
0
LINE
5
100
100
AcDbEntity
8
0
100
AcDbLine
10
136.5
20
-3.5527136788005009e-14
30
0
11
136.5
21
19.999999999999968
31
0
0
ARC
5
101
100
AcDbEntity
8
0
100
AcDbCircle
10
116.5
20
19.999999999999972
30
0
40
20
210
-0
220
0
230
1
100
AcDbArc
50
0
51
90
0
LINE
5
102
100
AcDbEntity
8
0
100
AcDbLine
10
116.5
20
39.999999999999979
30
0
11
-116.5
21
39.999999999999993
31
-1.7763568394002505e-14
0
ARC
5
103
100
AcDbEntity
8
0
100
AcDbCircle
10
-116.50000000000003
20
19.999999999999993
30
-1.7763568394002505e-14
40
20
210
0
220
-0
230
1
100
AcDbArc
50
89.999999999999929
51
180
0
LINE
5
104
100
AcDbEntity
8
0
100
AcDbLine
10
-136.5
20
19.999999999999986
30
-1.7763568394002505e-14
11
-136.5
21
-2.2204460492503131e-14
31
-1.7763568394002505e-14
0
LINE
5
105
100
AcDbEntity
8
0
100
AcDbLine
10
-136.5
20
-2.2204460492503131e-14
30
-1.7763568394002505e-14
11
-159.99999999711812
21
1.0516414180047434e-10
31
0
0
ARC
5
106
100
AcDbEntity
8
0
100
AcDbCircle
10
-1044.0210424650763
20
-32.34303130972463
30
1.7763568394002574e-14
40
884.61250002497923
210
1.1415149144027276e-18
220
1.1113834611699713e-16
230
1
100
AcDbArc
50
-17.424215837288131
51
2.0953042191710849
0
ARC
5
107
100
AcDbEntity
8
0
100
AcDbCircle
10
-179.99999999999997
20
-297.23500000000001
30
0
40
20.000000000000036
210
2.3119880542935714e-15
220
-3.6962242135704504e-29
230
1
100
AcDbArc
50
180
51
269.99999999999579
0
ARC
5
108
100
AcDbEntity
8
0
100
AcDbCircle
10
-1.5685230891904212e-11
20
-1118.7552348881222
30
1.7763568394003656e-14
40
821.48322376973488
210
1.4917709711748592e-17
220
6.0243853011992264e-17
230
1
100
AcDbArc
50
77.342891701310435
51
102.65710829868753
0
ARC
5
109
100
AcDbEntity
8
0
100
AcDbCircle
10
180.00000000000003
20
-297.23500000000007
30
0
40
19.999999999999929
210
-2.9494883487445657e-30
220
-1.6604143285424498e-15
230
1
100
AcDbArc
50
-90.000000000000099
51
0
0
ARC
5
110
100
AcDbEntity
8
0
100
AcDbCircle
10
1044.0210424462666
20
-32.343031316482858
30
6.1136720154628415e-29
40
884.61250000354562
210
1.3240989622386591e-17
220
4.155621284306123e-18
230
1
100
AcDbArc
50
177.90469578034717
51
197.42421583723529
0
LINE
5
111
100
AcDbEntity
8
0
100
AcDbLine
10
159.99999999999986
20
-3.5527136788005009e-13
30
1.1570908059664701e-14
11
136.5
21
-3.5527136788005009e-14
31
0
0
ENDSEC
0
SECTION
2
OBJECTS
0
DICTIONARY
5
C
100
AcDbDictionary
3
ACAD_GROUP
350
D
3
ACAD_MLINESTYLE
350
17
0
DICTIONARY
5
D
100
AcDbDictionary
0
DICTIONARY
5
1A
330
C
100
AcDbDictionary
0
DICTIONARY
5
17
100
AcDbDictionary
0
ENDSEC
0
EOF
