0
SECTION
2
HEADER
9
$INSUNITS
70
4
9
$ACADVER
1
AC1014
9
$HANDSEED
5
FFFF
0
ENDSEC
0
SECTION
2
TABLES
0
TABLE
2
VPORT
5
8
100
AcDbSymbolTable
0
ENDTAB
0
TABLE
2
LTYPE
5
5
100
AcDbSymbolTable
0
LTYPE
5
14
100
AcDbSymbolTableRecord
100
AcDbLinetypeTableRecord
2
BYBLOCK
70
0
0
LTYPE
5
15
100
AcDbSymbolTableRecord
100
AcDbLinetypeTableRecord
2
BYLAYER
70
0
0
ENDTAB
0
TABLE
2
LAYER
5
2
100
AcDbSymbolTable
70
2
0
LAYER
5
50
100
AcDbSymbolTableRecord
100
AcDbLayerTableRecord
2
0
70
0
6
CONTINUOUS
0
ENDTAB
0
TABLE
2
STYLE
5
3
100
AcDbSymbolTable
70
1
0
STYLE
5
11
100
AcDbSymbolTableRecord
100
AcDbTextStyleTableRecord
2
STANDARD
70
0
0
ENDTAB
0
TABLE
2
VIEW
5
6
100
AcDbSymbolTable
70
0
0
ENDTAB
0
TABLE
2
UCS
5
7
100
AcDbSymbolTable
70
0
0
ENDTAB
0
TABLE
2
APPID
5
9
100
AcDbSymbolTable
70
2
0
APPID
5
12
100
AcDbSymbolTableRecord
100
AcDbRegAppTableRecord
2
ACAD
70
0
0
ENDTAB
0
TABLE
2
DIMSTYLE
5
A
100
AcDbSymbolTable
70
1
0
ENDTAB
0
TABLE
2
BLOCK_RECORD
5
1
100
AcDbSymbolTable
70
1
0
BLOCK_RECORD
5
1F
100
AcDbSymbolTableRecord
100
AcDbBlockTableRecord
2
*MODEL_SPACE
0
BLOCK_RECORD
5
1B
100
AcDbSymbolTableRecord
100
AcDbBlockTableRecord
2
*PAPER_SPACE
0
ENDTAB
0
ENDSEC
0
SECTION
2
BLOCKS
0
BLOCK
5
20
100
AcDbEntity
100
AcDbBlockBegin
2
*MODEL_SPACE
0
ENDBLK
5
21
100
AcDbEntity
100
AcDbBlockEnd
0
BLOCK
5
1C
100
AcDbEntity
100
AcDbBlockBegin
2
*PAPER_SPACE
0
ENDBLK
5
1D
100
AcDbEntity
100
AcDbBlockEnd
0
ENDSEC
0
SECTION
2
ENTITIES
0
LWPOLYLINE
5
100
100
AcDbEntity
8
0
100
AcDbPolyline
90
4
70
1
43
0.0
10
75.000000000147296
20
437.48799999999795
10
75.000000000147281
20
463.65599999999813
10
-74.999999999852747
20
463.65599999999813
10
-74.999999999852747
20
437.48799999999818
0
LWPOLYLINE
5
101
100
AcDbEntity
8
0
100
AcDbPolyline
90
4
70
1
43
0.0
10
75.000000000147296
20
557.48799999999801
10
75.000000000147281
20
583.65599999999813
10
-74.999999999852747
20
583.65599999999813
10
-74.999999999852747
20
557.48799999999824
0
LWPOLYLINE
5
102
100
AcDbEntity
8
0
100
AcDbPolyline
90
4
70
1
43
0.0
10
75.000000000147296
20
617.48799999999812
10
75.000000000147281
20
643.65599999999836
10
-74.999999999852747
20
643.65599999999813
10
-74.999999999852747
20
617.48799999999824
0
LWPOLYLINE
5
103
100
AcDbEntity
8
0
100
AcDbPolyline
90
4
70
1
43
0.0
10
75.000000000147296
20
497.48799999999801
10
75.000000000147281
20
523.65599999999813
10
-74.999999999852747
20
523.65599999999813
10
-74.999999999852747
20
497.48799999999812
0
LWPOLYLINE
5
104
100
AcDbEntity
8
0
100
AcDbPolyline
90
4
70
1
43
0.0
10
137.50000000003237
20
140.78010416678876
10
137.5000000000324
20
159.18010416678885
10
-137.49999999996788
20
159.18010416678885
10
-137.49999999996771
20
140.78010416678876
0
LWPOLYLINE
5
105
100
AcDbEntity
8
0
100
AcDbPolyline
90
4
70
1
43
0.0
10
75.000000000147296
20
257.48799999999801
10
75.000000000147281
20
283.65599999999824
10
-74.999999999852747
20
283.65599999999819
10
-74.999999999852747
20
257.48799999999818
0
LWPOLYLINE
5
106
100
AcDbEntity
8
0
100
AcDbPolyline
90
4
70
1
43
0.0
10
75.000000000147281
20
703.65599999999813
10
-74.999999999852747
20
703.65599999999813
10
-74.999999999852747
20
677.48799999999835
10
75.000000000147296
20
677.48799999999824
0
LWPOLYLINE
5
107
100
AcDbEntity
8
0
100
AcDbPolyline
90
4
70
1
43
0.0
10
75.000000000147296
20
377.48799999999801
10
75.000000000147281
20
403.65599999999824
10
-74.999999999852747
20
403.65599999999824
10
-74.999999999852747
20
377.48799999999812
0
LWPOLYLINE
5
108
100
AcDbEntity
8
0
100
AcDbPolyline
90
4
70
1
43
0.0
10
75.000000000147296
20
317.48799999999801
10
75.000000000147281
20
343.65599999999824
10
-74.999999999852747
20
343.65599999999824
10
-74.999999999852747
20
317.48799999999824
0
LWPOLYLINE
5
109
100
AcDbEntity
8
0
100
AcDbPolyline
90
4
70
1
43
0.0
10
75.000000000147296
20
197.48799999999801
10
75.000000000147281
20
223.65599999999816
10
-74.999999999852747
20
223.65599999999816
10
-74.999999999852747
20
197.48799999999812
0
LWPOLYLINE
5
110
100
AcDbEntity
8
0
100
AcDbPolyline
90
10
70
1
43
0.0
10
80.356414774035187
20
765.57200000000012
42
-0.40791291553815329
10
100.35176680263191
20
746.00315803652461
42
0.067634857379252525
10
215.00000000010169
20
19.999999999995389
42
-0.41421356237334372
10
195.00000000008106
20
-6.8833827526759706e-14
10
165.0000000001539
20
-7.1054273576010019e-14
42
0.45658727713496827
10
-165.0000000000405
20
-6.8833827526759706e-14
10
-195.00000000008112
20
4.0412118096355698e-13
42
-0.41421356237318119
10
-215.00000000006878
20
19.999999999982805
42
0.067634857379269456
10
-100.3517668023069
20
746.00315803653166
42
-0.40791291553808656
10
-80.356414773707314
20
765.57200000000034
0
ENDSEC
0
SECTION
2
OBJECTS
0
DICTIONARY
5
C
100
AcDbDictionary
3
ACAD_GROUP
350
D
3
ACAD_MLINESTYLE
350
17
0
DICTIONARY
5
D
100
AcDbDictionary
0
DICTIONARY
5
1A
330
C
100
AcDbDictionary
0
DICTIONARY
5
17
100
AcDbDictionary
0
ENDSEC
0
EOF
