0
SECTION
2
HEADER
9
$INSUNITS
70
4
9
$ACADVER
1
AC1014
9
$HANDSEED
5
FFFF
0
ENDSEC
0
SECTION
2
TABLES
0
TABLE
2
VPORT
5
8
100
AcDbSymbolTable
0
ENDTAB
0
TABLE
2
LTYPE
5
5
100
AcDbSymbolTable
0
LTYPE
5
14
100
AcDbSymbolTableRecord
100
AcDbLinetypeTableRecord
2
BYBLOCK
70
0
0
LTYPE
5
15
100
AcDbSymbolTableRecord
100
AcDbLinetypeTableRecord
2
BYLAYER
70
0
0
ENDTAB
0
TABLE
2
LAYER
5
2
100
AcDbSymbolTable
70
2
0
LAYER
5
50
100
AcDbSymbolTableRecord
100
AcDbLayerTableRecord
2
0
70
0
6
CONTINUOUS
0
ENDTAB
0
TABLE
2
STYLE
5
3
100
AcDbSymbolTable
70
1
0
STYLE
5
11
100
AcDbSymbolTableRecord
100
AcDbTextStyleTableRecord
2
STANDARD
70
0
0
ENDTAB
0
TABLE
2
VIEW
5
6
100
AcDbSymbolTable
70
0
0
ENDTAB
0
TABLE
2
UCS
5
7
100
AcDbSymbolTable
70
0
0
ENDTAB
0
TABLE
2
APPID
5
9
100
AcDbSymbolTable
70
2
0
APPID
5
12
100
AcDbSymbolTableRecord
100
AcDbRegAppTableRecord
2
ACAD
70
0
0
ENDTAB
0
TABLE
2
DIMSTYLE
5
A
100
AcDbSymbolTable
70
1
0
ENDTAB
0
TABLE
2
BLOCK_RECORD
5
1
100
AcDbSymbolTable
70
1
0
BLOCK_RECORD
5
1F
100
AcDbSymbolTableRecord
100
AcDbBlockTableRecord
2
*MODEL_SPACE
0
BLOCK_RECORD
5
1B
100
AcDbSymbolTableRecord
100
AcDbBlockTableRecord
2
*PAPER_SPACE
0
ENDTAB
0
ENDSEC
0
SECTION
2
BLOCKS
0
BLOCK
5
20
100
AcDbEntity
100
AcDbBlockBegin
2
*MODEL_SPACE
0
ENDBLK
5
21
100
AcDbEntity
100
AcDbBlockEnd
0
BLOCK
5
1C
100
AcDbEntity
100
AcDbBlockBegin
2
*PAPER_SPACE
0
ENDBLK
5
1D
100
AcDbEntity
100
AcDbBlockEnd
0
ENDSEC
0
SECTION
2
ENTITIES
0
LWPOLYLINE
5
100
100
AcDbEntity
8
0
100
AcDbPolyline
90
4
70
1
43
0.0
10
145.00000171363354
20
9.8607613152626476e-31
10
115.00000171363354
20
0
10
115.00000171363354
20
20
10
145.00000171363354
20
20
0
LWPOLYLINE
5
101
100
AcDbEntity
8
0
100
AcDbPolyline
90
4
70
1
43
0.0
10
74.900000476837164
20
0
10
32.000000476837158
20
0
10
32.000000476837158
20
20
10
74.900000476837164
20
20
0
LWPOLYLINE
5
102
100
AcDbEntity
8
0
100
AcDbPolyline
90
4
70
1
43
0.0
10
108.00000116229057
20
-1.7347234759768071e-17
10
78.000001162290573
20
0
10
78.000001162290573
20
20
10
108.00000116229057
20
20
0
LWPOLYLINE
5
103
100
AcDbEntity
8
0
100
AcDbPolyline
90
28
70
1
43
0.0
10
25.600000000000001
20
32.899999999999999
10
20.600000000000001
20
32.899999999999999
10
20.600000000000001
20
42.899999999999999
10
12.800000000000001
20
42.899999999999999
10
12.800000000000001
20
47.899999999999999
10
7.8000000000000007
20
47.899999999999999
10
7.8000000000000007
20
42.899999999999999
10
0
20
42.899999999999999
10
0
20
32.899999999999999
10
-5
20
32.899999999999999
10
-5
20
27.899999999999999
10
0
20
27.899999999999999
10
0
20
15
10
-5
20
15
10
-5
20
10
10
0
20
10
10
0
20
0
10
7.8000000000000007
20
0
10
7.8000000000000007
20
-5
10
12.800000000000001
20
-5
10
12.800000000000001
20
0
10
20.600000000000001
20
0
10
20.600000000000001
20
10
10
25.600000000000001
20
10
10
25.600000000000001
20
15
10
20.600000000000001
20
15
10
20.600000000000001
20
27.899999999999999
10
25.600000000000001
20
27.899999999999999
0
LWPOLYLINE
5
104
100
AcDbEntity
8
0
100
AcDbPolyline
90
4
70
1
43
0.0
10
47.000000476837158
20
5
10
42.000000476837158
20
5
10
42.000000476837158
20
8
10
47.000000476837158
20
8
0
LWPOLYLINE
5
105
100
AcDbEntity
8
0
100
AcDbPolyline
90
4
70
1
43
0.0
10
64.900000476837164
20
5.000000074505806
10
59.900000476837157
20
5.000000074505806
10
59.900000476837157
20
8.000000074505806
10
64.900000476837164
20
8.000000074505806
0
LWPOLYLINE
5
106
100
AcDbEntity
8
0
100
AcDbPolyline
90
4
70
1
43
0.0
10
95.500001162290573
20
4.9999999999999991
10
90.500001162290573
20
4.9999999999999991
10
90.500001162290573
20
8
10
95.500001162290573
20
8
0
LWPOLYLINE
5
107
100
AcDbEntity
8
0
100
AcDbPolyline
90
4
70
1
43
0.0
10
94.300001162290556
20
9.8999999999999986
10
86.700001162290562
20
9.8999999999999986
10
86.700001162290562
20
13.599999999999998
10
94.300001162290556
20
13.599999999999998
0
LWPOLYLINE
5
108
100
AcDbEntity
8
0
100
AcDbPolyline
90
4
70
1
43
0.0
10
132.50000171363354
20
5.000000074505806
10
127.50000171363354
20
5.000000074505806
10
127.50000171363354
20
8.000000074505806
10
132.50000171363354
20
8.000000074505806
0
LWPOLYLINE
5
109
100
AcDbEntity
8
0
100
AcDbPolyline
90
4
70
1
43
0.0
10
74.900000476837164
20
25.000000074505806
10
32.000000476837158
20
25
10
32.000000476837158
20
45
10
74.900000476837164
20
45
0
LWPOLYLINE
5
110
100
AcDbEntity
8
0
100
AcDbPolyline
90
4
70
1
43
0.0
10
47.000000476837158
20
30
10
42.000000476837158
20
30
10
42.000000476837158
20
33
10
47.000000476837158
20
33
0
LWPOLYLINE
5
111
100
AcDbEntity
8
0
100
AcDbPolyline
90
4
70
1
43
0.0
10
64.900000476837164
20
30.000000074505806
10
59.900000476837157
20
30.000000074505806
10
59.900000476837157
20
33.000000074505806
10
64.900000476837164
20
33.000000074505806
0
ENDSEC
0
SECTION
2
OBJECTS
0
DICTIONARY
5
C
100
AcDbDictionary
3
ACAD_GROUP
350
D
3
ACAD_MLINESTYLE
350
17
0
DICTIONARY
5
D
100
AcDbDictionary
0
DICTIONARY
5
1A
330
C
100
AcDbDictionary
0
DICTIONARY
5
17
100
AcDbDictionary
0
ENDSEC
0
EOF
