0
SECTION
2
HEADER
9
$INSUNITS
70
4
9
$ACADVER
1
AC1014
9
$HANDSEED
5
FFFF
0
ENDSEC
0
SECTION
2
TABLES
0
TABLE
2
VPORT
5
8
100
AcDbSymbolTable
0
ENDTAB
0
TABLE
2
LTYPE
5
5
100
AcDbSymbolTable
0
LTYPE
5
14
100
AcDbSymbolTableRecord
100
AcDbLinetypeTableRecord
2
BYBLOCK
70
0
0
LTYPE
5
15
100
AcDbSymbolTableRecord
100
AcDbLinetypeTableRecord
2
BYLAYER
70
0
0
ENDTAB
0
TABLE
2
LAYER
5
2
100
AcDbSymbolTable
70
2
0
LAYER
5
50
100
AcDbSymbolTableRecord
100
AcDbLayerTableRecord
2
0
70
0
6
CONTINUOUS
0
ENDTAB
0
TABLE
2
STYLE
5
3
100
AcDbSymbolTable
70
1
0
STYLE
5
11
100
AcDbSymbolTableRecord
100
AcDbTextStyleTableRecord
2
STANDARD
70
0
0
ENDTAB
0
TABLE
2
VIEW
5
6
100
AcDbSymbolTable
70
0
0
ENDTAB
0
TABLE
2
UCS
5
7
100
AcDbSymbolTable
70
0
0
ENDTAB
0
TABLE
2
APPID
5
9
100
AcDbSymbolTable
70
2
0
APPID
5
12
100
AcDbSymbolTableRecord
100
AcDbRegAppTableRecord
2
ACAD
70
0
0
ENDTAB
0
TABLE
2
DIMSTYLE
5
A
100
AcDbSymbolTable
70
1
0
ENDTAB
0
TABLE
2
BLOCK_RECORD
5
1
100
AcDbSymbolTable
70
1
0
BLOCK_RECORD
5
1F
100
AcDbSymbolTableRecord
100
AcDbBlockTableRecord
2
*MODEL_SPACE
0
BLOCK_RECORD
5
1B
100
AcDbSymbolTableRecord
100
AcDbBlockTableRecord
2
*PAPER_SPACE
0
ENDTAB
0
ENDSEC
0
SECTION
2
BLOCKS
0
BLOCK
5
20
100
AcDbEntity
100
AcDbBlockBegin
2
*MODEL_SPACE
0
ENDBLK
5
21
100
AcDbEntity
100
AcDbBlockEnd
0
BLOCK
5
1C
100
AcDbEntity
100
AcDbBlockBegin
2
*PAPER_SPACE
0
ENDBLK
5
1D
100
AcDbEntity
100
AcDbBlockEnd
0
ENDSEC
0
SECTION
2
ENTITIES
0
LWPOLYLINE
5
100
100
AcDbEntity
8
0
100
AcDbPolyline
90
4
70
1
43
0.0
10
1224.463278688525
20
213.16844168734457
10
1227.2332786885249
20
213.16844168734457
10
1227.2332786885247
20
182.83690322580608
10
1224.4632786885247
20
182.83690322580608
0
LWPOLYLINE
5
101
100
AcDbEntity
8
0
100
AcDbPolyline
90
4
70
1
43
0.0
10
1177.7532786885249
20
213.16844168734457
10
1177.7532786885249
20
182.83690322580608
10
1174.9832786885249
20
182.83690322580608
10
1174.9832786885249
20
213.16844168734457
0
LWPOLYLINE
5
102
100
AcDbEntity
8
0
100
AcDbPolyline
90
4
70
1
43
0.0
10
1224.4632786885247
20
121.89223655913941
10
1224.463278688525
20
152.22377502067786
10
1227.2332786885249
20
152.22377502067786
10
1227.2332786885247
20
121.89223655913941
0
LWPOLYLINE
5
103
100
AcDbEntity
8
0
100
AcDbPolyline
90
4
70
1
43
0.0
10
1174.9832786885249
20
121.89223655913941
10
1174.9832786885249
20
152.22377502067786
10
1177.7532786885249
20
152.22377502067786
10
1177.7532786885249
20
121.89223655913941
0
LWPOLYLINE
5
104
100
AcDbEntity
8
0
100
AcDbPolyline
90
4
70
1
43
0.0
10
1192.5299453551697
20
38.522903225806147
10
1209.6866120218363
20
38.522903225806147
10
1209.6866120218363
20
35.752903225804928
10
1192.5299453551697
20
35.752903225806136
0
LWPOLYLINE
5
105
100
AcDbEntity
8
0
100
AcDbPolyline
90
4
70
1
43
0.0
10
1206.4632786885252
20
2.7729032258042623
10
1206.4632786885252
20
0.0029032258042520267
10
1216.6532786885252
20
0.0029032258042521741
10
1216.6532786885252
20
2.7729032258042623
0
LWPOLYLINE
5
106
100
AcDbEntity
8
0
100
AcDbPolyline
90
4
70
1
43
0.0
10
1195.7532786885251
20
0.0029032258042521741
10
1195.7532786885251
20
2.7729032258042623
10
1185.5632786885251
20
2.7729032258042623
10
1185.5632786885251
20
0.0029032258042520267
0
LWPOLYLINE
5
107
100
AcDbEntity
8
0
100
AcDbPolyline
90
4
70
1
43
0.0
10
1224.463278688525
20
91.279108354011214
10
1227.2332786885249
20
91.279108354011214
10
1227.2332786885247
20
60.947569892472735
10
1224.4632786885247
20
60.947569892472742
0
LWPOLYLINE
5
108
100
AcDbEntity
8
0
100
AcDbPolyline
90
4
70
1
43
0.0
10
1174.9832786885249
20
91.279108354011214
10
1177.7532786885249
20
91.279108354011214
10
1177.7532786885249
20
60.947569892472735
10
1174.9832786885249
20
60.947569892472742
0
LWPOLYLINE
5
109
100
AcDbEntity
8
0
100
AcDbPolyline
90
4
70
1
43
0.0
10
1224.4632786885247
20
0.0029032258060723848
10
1224.463278688525
20
30.334441687344537
10
1227.2332786885249
20
30.334441687344537
10
1227.2332786885247
20
0.0029032258060711614
0
LINE
5
110
100
AcDbEntity
8
0
100
AcDbLine
10
1177.7532786885249
20
30.334441687344537
30
0
11
1174.9832786885249
21
30.334441687344537
31
0
0
LINE
5
111
100
AcDbEntity
8
0
100
AcDbLine
10
1177.7532786885249
20
0.0029032258060711614
30
0
11
1177.7532786885249
21
30.334441687344537
31
0
0
LINE
5
112
100
AcDbEntity
8
0
100
AcDbLine
10
1174.9832786885249
20
0.0029032258060708686
30
0
11
1177.7532786885249
21
0.0029032258060711614
31
0
0
LINE
5
113
100
AcDbEntity
8
0
100
AcDbLine
10
1174.9832786885249
20
30.334441687344537
30
0
11
1174.9832786885249
21
0.0029032258060708686
31
0
0
LINE
5
114
100
AcDbEntity
8
0
100
AcDbLine
10
1174.9832786885249
20
0.0029032258060708686
30
0
11
1227.2332786885247
21
0.0029032258060708678
31
0
0
LWPOLYLINE
5
115
100
AcDbEntity
8
0
100
AcDbPolyline
90
4
70
1
43
0.0
10
1449.9796610169492
20
213.17875880052202
10
1452.7496610169489
20
213.17875880052202
10
1452.7496610169489
20
182.84722033898356
10
1449.9796610169492
20
182.84722033898356
0
LWPOLYLINE
5
116
100
AcDbEntity
8
0
100
AcDbPolyline
90
4
70
1
43
0.0
10
1452.7496610169489
20
121.90255367231687
10
1449.9796610169492
20
121.90255367231687
10
1449.9796610169492
20
152.23409213385534
10
1452.7496610169489
20
152.23409213385534
0
LWPOLYLINE
5
117
100
AcDbEntity
8
0
100
AcDbPolyline
90
4
70
1
43
0.0
10
1499.5196610169492
20
152.23409213385534
10
1502.2896610169491
20
152.23409213385534
10
1502.2896610169491
20
121.90255367231687
10
1499.5196610169492
20
121.90255367231687
0
LWPOLYLINE
5
118
100
AcDbEntity
8
0
100
AcDbPolyline
90
4
70
1
43
0.0
10
1499.5196610169492
20
213.17875880052202
10
1502.2896610169491
20
213.17875880052202
10
1502.2896610169491
20
182.84722033898356
10
1499.5196610169492
20
182.84722033898356
0
LWPOLYLINE
5
119
100
AcDbEntity
8
0
100
AcDbPolyline
90
4
70
1
43
0.0
10
1460.2996610169489
20
0.01322033898347643
10
1449.9796610169487
20
0.013220338983476743
10
1449.9796610169487
20
2.7832203389834875
10
1460.2996610169489
20
2.7832203389834853
0
LWPOLYLINE
5
120
100
AcDbEntity
8
0
100
AcDbPolyline
90
4
70
1
43
0.0
10
1470.9446610169491
20
0.013220338983476743
10
1470.9446610169491
20
2.7832203389834875
10
1481.2646610169488
20
2.7832203389834853
10
1481.2646610169488
20
0.01322033898347643
0
LWPOLYLINE
5
121
100
AcDbEntity
8
0
100
AcDbPolyline
90
4
70
1
43
0.0
10
1502.2296610169492
20
0.01322033898347643
10
1491.909661016949
20
0.013220338983476743
10
1491.909661016949
20
2.7832203389834875
10
1502.2296610169492
20
2.7832203389834853
0
LWPOLYLINE
5
122
100
AcDbEntity
8
0
100
AcDbPolyline
90
4
70
1
43
0.0
10
1499.5196610169492
20
0.01322033898353947
10
1499.5196610169492
20
30.344758800522005
10
1502.2896610169491
20
30.344758800522008
10
1502.2896610169491
20
0.013220338983541463
0
LINE
5
123
100
AcDbEntity
8
0
100
AcDbLine
10
1449.9796610169492
20
0.013220338983537415
30
0
11
1452.7496610169489
21
0.013220338983541463
31
0
0
LWPOLYLINE
5
124
100
AcDbEntity
8
0
100
AcDbPolyline
90
4
70
1
43
0.0
10
1499.5196610169492
20
60.9578870056502
10
1499.5196610169492
20
91.289425467188678
10
1502.2896610169491
20
91.289425467188678
10
1502.2896610169491
20
60.957887005650207
0
LINE
5
125
100
AcDbEntity
8
0
100
AcDbLine
10
1449.9796610169492
20
0.013220338983537415
30
0
11
1502.2296610169492
21
0.013220338983537416
31
0
0
LWPOLYLINE
5
126
100
AcDbEntity
8
0
100
AcDbPolyline
90
4
70
1
43
0.0
10
1449.9796610169492
20
91.289425467188678
10
1452.7496610169489
20
91.289425467188678
10
1452.7496610169489
20
60.957887005650207
10
1449.9796610169492
20
60.9578870056502
0
LINE
5
127
100
AcDbEntity
8
0
100
AcDbLine
10
1452.7496610169489
20
0.013220338983541463
30
0
11
1452.7496610169489
21
30.344758800522008
31
0
0
LINE
5
128
100
AcDbEntity
8
0
100
AcDbLine
10
1449.9796610169492
20
30.344758800522005
30
0
11
1449.9796610169492
21
0.013220338983537415
31
0
0
CIRCLE
5
129
100
AcDbEntity
8
0
100
AcDbCircle
10
1483.8746610169492
20
29.763220338983487
30
0
40
4.7499999999999662
210
0
220
0
230
1
0
LINE
5
130
100
AcDbEntity
8
0
100
AcDbLine
10
1452.7496610169489
20
30.344758800522008
30
0
11
1449.9796610169492
21
30.344758800522005
31
0
0
LINE
5
131
100
AcDbEntity
8
0
100
AcDbLine
10
1174.9832786885249
20
396.00290322580435
30
0
11
1174.9832786885249
21
0.0029032258060708686
31
0
0
LINE
5
132
100
AcDbEntity
8
0
100
AcDbLine
10
1502.2296610169492
20
0.013220338983537416
30
0
11
1502.2296610169492
21
396.0132203389835
31
0
0
LINE
5
133
100
AcDbEntity
8
0
100
AcDbLine
10
1227.2332786885247
20
0.0029032258060708678
30
0
11
1227.2332786885247
21
396.00290322580435
31
0
0
LINE
5
134
100
AcDbEntity
8
0
100
AcDbLine
10
1192.5299453551916
20
335.75244168734457
30
0
11
1192.5299453551704
21
35.752441687344572
31
0
0
LINE
5
135
100
AcDbEntity
8
0
100
AcDbLine
10
1449.9796610169492
20
396.0132203389835
30
0
11
1449.9796610169492
21
0.013220338983537415
31
0
0
LWPOLYLINE
5
136
100
AcDbEntity
8
0
100
AcDbPolyline
90
4
70
1
43
0.0
10
1012.1268486206458
20
395.15368094562353
10
1012.1268486206458
20
397.92368094562357
10
1042.3283870821842
20
397.92368094562357
10
1042.3283870821842
20
395.15368094562353
0
LWPOLYLINE
5
137
100
AcDbEntity
8
0
100
AcDbPolyline
90
4
70
1
43
0.0
10
1070.1503101591072
20
337.13021940716203
10
1070.1503101591074
20
367.33175786870049
10
1072.9203101591074
20
367.33175786870049
10
1072.9203101591072
20
337.13021940716203
0
LWPOLYLINE
5
138
100
AcDbEntity
8
0
100
AcDbPolyline
90
4
70
1
43
0.0
10
1072.9203101591072
20
276.20721940716203
10
1070.1503101591072
20
276.20721940716197
10
1070.1503101591074
20
306.40875786870049
10
1072.9203101591074
20
306.40875786870043
0
LWPOLYLINE
5
139
100
AcDbEntity
8
0
100
AcDbPolyline
90
4
70
1
43
0.0
10
1072.9203101591074
20
245.48575786870043
10
1072.9203101591072
20
215.284219407162
10
1070.1503101591072
20
215.28421940716197
10
1070.1503101591074
20
245.48575786870046
0
LWPOLYLINE
5
140
100
AcDbEntity
8
0
100
AcDbPolyline
90
4
70
1
43
0.0
10
1046.7169768257741
20
362.17368094562352
10
1059.6236434924408
20
362.17368094562352
10
1059.6236434924408
20
359.40368094562353
10
1046.7169768257741
20
359.40368094562353
0
LWPOLYLINE
5
141
100
AcDbEntity
8
0
100
AcDbPolyline
90
4
70
1
43
0.0
10
951.20384862064589
20
397.92368094562357
10
981.40538708218423
20
397.92368094562357
10
981.40538708218423
20
395.15368094562353
10
951.20384862064589
20
395.15368094562353
0
LWPOLYLINE
5
142
100
AcDbEntity
8
0
100
AcDbPolyline
90
4
70
1
43
0.0
10
890.28084862064577
20
395.15368094562353
10
890.28084862064577
20
397.92368094562357
10
920.48238708218423
20
397.92368094562357
10
920.48238708218423
20
395.15368094562353
0
LINE
5
143
100
AcDbEntity
8
0
100
AcDbLine
10
1059.6236434924408
20
64.943680945623541
30
0
11
1046.7169768257741
21
64.943680945623541
31
0
0
LINE
5
144
100
AcDbEntity
8
0
100
AcDbLine
10
1033.4203101591074
20
29.173680945623538
30
0
11
1033.4203101591074
21
62.173680945623538
31
0
0
LWPOLYLINE
5
145
100
AcDbEntity
8
0
100
AcDbPolyline
90
4
70
1
43
0.0
10
981.40538708218423
20
1.9236809456235562
10
951.20384862064589
20
1.9236809456235382
10
951.20384862064589
20
4.6936809456235373
10
981.40538708218423
20
4.6936809456235373
0
LWPOLYLINE
5
146
100
AcDbEntity
8
0
100
AcDbPolyline
90
4
70
1
43
0.0
10
1070.1503101591072
20
154.36121940716197
10
1070.1503101591074
20
184.56275786870043
10
1072.9203101591074
20
184.56275786870049
10
1072.9203101591072
20
154.361219407162
0
LWPOLYLINE
5
147
100
AcDbEntity
8
0
100
AcDbPolyline
90
4
70
1
43
0.0
10
1072.9203101591074
20
123.63975786870046
10
1072.9203101591072
20
93.438219407161995
10
1070.1503101591072
20
93.438219407161995
10
1070.1503101591074
20
123.63975786870046
0
LINE
5
148
100
AcDbEntity
8
0
100
AcDbLine
10
1059.6236434924408
20
62.173680945623538
30
0
11
1059.6236434924408
21
64.943680945623541
31
0
0
LWPOLYLINE
5
149
100
AcDbEntity
8
0
100
AcDbPolyline
90
4
70
1
43
0.0
10
1012.1268486206458
20
4.6936809456235373
10
1042.3283870821842
20
4.6936809456235373
10
1042.3283870821842
20
1.9236809456235562
10
1012.1268486206458
20
1.9236809456235382
0
LWPOLYLINE
5
150
100
AcDbEntity
8
0
100
AcDbPolyline
90
4
70
1
43
0.0
10
890.28084862064577
20
1.9236809456235382
10
890.28084862064577
20
4.6936809456235373
10
920.48238708218423
20
4.6936809456235373
10
920.48238708218423
20
1.9236809456235562
0
LWPOLYLINE
5
151
100
AcDbEntity
8
0
100
AcDbPolyline
90
4
70
1
43
0.0
10
1072.9203101591072
20
32.515219407162
10
1070.1503101591072
20
32.515219407162007
10
1070.1503101591074
20
62.716757868700455
10
1072.9203101591074
20
62.716757868700469
0
LINE
5
152
100
AcDbEntity
8
0
100
AcDbLine
10
1033.4203101591074
20
62.173680945623538
30
0
11
1046.7169768257741
21
62.173680945623538
31
0
0
LINE
5
153
100
AcDbEntity
8
0
100
AcDbLine
10
1046.7169768257741
20
64.943680945623541
30
0
11
1046.7169768257741
21
62.173680945623538
31
0
0
LINE
5
154
100
AcDbEntity
8
0
100
AcDbLine
10
1046.7169768257741
20
62.173680945623538
30
0
11
1059.6236434924408
21
62.173680945623538
31
0
0
LINE
5
155
100
AcDbEntity
8
0
100
AcDbLine
10
1033.4203101591074
20
29.173680945623538
30
0
11
1033.4203101591074
21
370.67368094562357
31
0
0
LINE
5
156
100
AcDbEntity
8
0
100
AcDbLine
10
1072.9203101591074
20
1.9236809456235449
30
0
11
1072.9203101591074
21
397.92368094562357
31
0
0
LINE
5
157
100
AcDbEntity
8
0
100
AcDbLine
10
1046.7169768257741
20
62.173680945623538
30
0
11
1046.7169768257741
21
362.17368094562352
31
0
0
LWPOLYLINE
5
158
100
AcDbEntity
8
0
100
AcDbPolyline
90
4
70
1
43
0.0
10
726.10031015910738
20
359.40368094562353
10
726.10031015910738
20
362.17368094562352
10
742.1903101591073
20
362.17368094562352
10
742.1903101591073
20
359.40368094562353
0
LWPOLYLINE
5
159
100
AcDbEntity
8
0
100
AcDbPolyline
90
4
70
1
43
0.0
10
768.43484862064565
20
397.92368094562357
10
798.63638708218423
20
397.92368094562357
10
798.63638708218423
20
395.15368094562353
10
768.43484862064565
20
395.15368094562353
0
LWPOLYLINE
5
160
100
AcDbEntity
8
0
100
AcDbPolyline
90
4
70
1
43
0.0
10
737.71338708218423
20
397.92368094562357
10
737.71338708218423
20
395.15368094562353
10
707.51184862064576
20
395.15368094562353
10
707.51184862064576
20
397.92368094562357
0
LWPOLYLINE
5
161
100
AcDbEntity
8
0
100
AcDbPolyline
90
4
70
1
43
0.0
10
679.6903101591073
20
337.13021940716203
10
676.92031015910732
20
337.13021940716203
10
676.92031015910732
20
367.33175786870049
10
679.6903101591073
20
367.33175786870049
0
LWPOLYLINE
5
162
100
AcDbEntity
8
0
100
AcDbPolyline
90
4
70
1
43
0.0
10
679.6903101591073
20
215.284219407162
10
676.92031015910732
20
215.28421940716197
10
676.92031015910732
20
245.48575786870046
10
679.6903101591073
20
245.48575786870043
0
LWPOLYLINE
5
163
100
AcDbEntity
8
0
100
AcDbPolyline
90
4
70
1
43
0.0
10
693.40031015910745
20
362.17368094562352
10
709.49031015910737
20
362.17368094562352
10
709.49031015910737
20
359.40368094562353
10
693.40031015910745
20
359.40368094562353
0
LWPOLYLINE
5
164
100
AcDbEntity
8
0
100
AcDbPolyline
90
4
70
1
43
0.0
10
859.55938708218423
20
395.15368094562353
10
829.35784862064577
20
395.15368094562353
10
829.35784862064577
20
397.92368094562357
10
859.55938708218423
20
397.92368094562357
0
LWPOLYLINE
5
165
100
AcDbEntity
8
0
100
AcDbPolyline
90
4
70
1
43
0.0
10
679.6903101591073
20
276.20721940716203
10
676.92031015910732
20
276.20721940716197
10
676.92031015910732
20
306.40875786870049
10
679.6903101591073
20
306.40875786870043
0
LWPOLYLINE
5
166
100
AcDbEntity
8
0
100
AcDbPolyline
90
4
70
1
43
0.0
10
693.40031015910745
20
62.173680945623545
10
693.40031015910745
20
64.943680945623555
10
709.49031015910737
20
64.943680945623555
10
709.49031015910737
20
62.173680945623545
0
LWPOLYLINE
5
167
100
AcDbEntity
8
0
100
AcDbPolyline
90
4
70
1
43
0.0
10
829.35784862064577
20
4.6936809456235373
10
859.55938708218423
20
4.6936809456235373
10
859.55938708218423
20
1.9236809456235562
10
829.35784862064577
20
1.9236809456235382
0
LWPOLYLINE
5
168
100
AcDbEntity
8
0
100
AcDbPolyline
90
4
70
1
43
0.0
10
798.63638708218423
20
1.9236809456235562
10
768.43484862064565
20
1.9236809456235382
10
768.43484862064565
20
4.6936809456235373
10
798.63638708218423
20
4.6936809456235373
0
LINE
5
169
100
AcDbEntity
8
0
100
AcDbLine
10
707.51184862064576
20
4.6936809456235373
30
0
11
707.51184862064576
21
1.923680945623538
31
0
0
LINE
5
170
100
AcDbEntity
8
0
100
AcDbLine
10
737.71338708218423
20
4.6936809456235382
30
0
11
707.51184862064576
21
4.6936809456235373
31
0
0
LINE
5
171
100
AcDbEntity
8
0
100
AcDbLine
10
737.71338708218423
20
1.9236809456235562
30
0
11
737.71338708218423
21
4.6936809456235382
31
0
0
LWPOLYLINE
5
172
100
AcDbEntity
8
0
100
AcDbPolyline
90
4
70
1
43
0.0
10
679.6903101591073
20
154.361219407162
10
676.92031015910732
20
154.36121940716197
10
676.92031015910732
20
184.56275786870043
10
679.6903101591073
20
184.56275786870049
0
LWPOLYLINE
5
173
100
AcDbEntity
8
0
100
AcDbPolyline
90
4
70
1
43
0.0
10
676.92031015910732
20
123.63975786870046
10
679.6903101591073
20
123.63975786870046
10
679.6903101591073
20
93.438219407161995
10
676.92031015910732
20
93.438219407161995
0
LINE
5
174
100
AcDbEntity
8
0
100
AcDbLine
10
679.6903101591073
20
62.716757868700469
30
0
11
676.92031015910732
21
62.716757868700455
31
0
0
LINE
5
175
100
AcDbEntity
8
0
100
AcDbLine
10
679.6903101591073
20
32.515219407162
30
0
11
679.6903101591073
21
62.716757868700469
31
0
0
LINE
5
176
100
AcDbEntity
8
0
100
AcDbLine
10
676.92031015910732
20
1.9236809456235451
30
0
11
676.92031015910732
21
32.515219407162007
31
0
0
LINE
5
177
100
AcDbEntity
8
0
100
AcDbLine
10
758.6703101591072
20
29.173680945623545
30
0
11
758.6703101591072
21
62.173680945623545
31
0
0
LWPOLYLINE
5
178
100
AcDbEntity
8
0
100
AcDbPolyline
90
4
70
1
43
0.0
10
726.10031015910738
20
64.943680945623555
10
742.1903101591073
20
64.943680945623555
10
742.1903101591073
20
62.173680945623545
10
726.10031015910738
20
62.173680945623545
0
LINE
5
179
100
AcDbEntity
8
0
100
AcDbLine
10
676.92031015910732
20
32.515219407162007
30
0
11
679.6903101591073
21
32.515219407162
31
0
0
LINE
5
180
100
AcDbEntity
8
0
100
AcDbLine
10
707.51184862064576
20
1.923680945623538
30
0
11
737.71338708218423
21
1.9236809456235562
31
0
0
LINE
5
181
100
AcDbEntity
8
0
100
AcDbLine
10
676.92031015910732
20
1.9236809456235451
30
0
11
707.51184862064576
21
1.923680945623538
31
0
0
LINE
5
182
100
AcDbEntity
8
0
100
AcDbLine
10
676.92031015910732
20
62.716757868700455
30
0
11
676.92031015910732
21
32.515219407162007
31
0
0
LINE
5
183
100
AcDbEntity
8
0
100
AcDbLine
10
676.92031015910732
20
29.173680945623541
30
0
11
758.6703101591072
21
29.173680945623545
31
0
0
LINE
5
184
100
AcDbEntity
8
0
100
AcDbLine
10
758.6703101591072
20
62.173680945623545
30
0
11
742.1903101591073
21
62.173680945623545
31
0
0
LINE
5
185
100
AcDbEntity
8
0
100
AcDbLine
10
676.92031015910732
20
1.9236809456235451
30
0
11
676.92031015910732
21
29.173680945623541
31
0
0
LINE
5
186
100
AcDbEntity
8
0
100
AcDbLine
10
758.6703101591072
20
370.67368094562357
30
0
11
758.6703101591072
21
29.173680945623545
31
0
0
LINE
5
187
100
AcDbEntity
8
0
100
AcDbLine
10
742.1903101591073
20
62.173680945623545
30
0
11
742.1903101591073
21
362.17368094562352
31
0
0
LINE
5
188
100
AcDbEntity
8
0
100
AcDbLine
10
676.92031015910732
20
397.92368094562357
30
0
11
676.92031015910732
21
1.9236809456235451
31
0
0
LINE
5
189
100
AcDbEntity
8
0
100
AcDbLine
10
1072.9203101591074
20
397.92368094562357
30
0
11
676.92031015910732
21
397.92368094562357
31
0
0
LINE
5
190
100
AcDbEntity
8
0
100
AcDbLine
10
676.92031015910732
20
1.9236809456235451
30
0
11
1072.9203101591074
21
1.9236809456235449
31
0
0
LINE
5
191
100
AcDbEntity
8
0
100
AcDbLine
10
1033.4203101591074
20
370.67368094562357
30
0
11
758.6703101591072
21
370.67368094562357
31
0
0
LINE
5
192
100
AcDbEntity
8
0
100
AcDbLine
10
758.6703101591072
20
29.173680945623545
30
0
11
1033.4203101591074
21
29.173680945623538
31
0
0
CIRCLE
5
193
100
AcDbEntity
8
0
100
AcDbCircle
10
934.73919390265735
20
-118.38930672469671
30
0
40
4.7499999999999734
210
0
220
0
230
1
0
LINE
5
194
100
AcDbEntity
8
0
100
AcDbLine
10
931.45252723599071
20
-149.51430672469681
30
0
11
944.48919390265746
21
-149.51430672469681
31
0
0
LINE
5
195
100
AcDbEntity
8
0
100
AcDbLine
10
931.45252723599071
20
-152.28430672469679
30
0
11
931.45252723599071
21
-149.51430672469681
31
0
0
LINE
5
196
100
AcDbEntity
8
0
100
AcDbLine
10
740.51919390265743
20
-149.51430672469681
30
0
11
756.73919390265735
21
-149.51430672469681
31
0
0
LINE
5
197
100
AcDbEntity
8
0
100
AcDbLine
10
944.48919390265746
20
-100.03430672469678
30
0
11
944.48919390265746
21
-152.28430672469679
31
0
0
LINE
5
198
100
AcDbEntity
8
0
100
AcDbLine
10
732.28086056932398
20
-128.38930672469681
30
0
11
752.375
21
-128.38930672469678
31
0
0
LINE
5
199
100
AcDbEntity
8
0
100
AcDbLine
10
756.73919390265735
20
-100.03430672469678
30
0
11
756.73919390265735
21
-152.28430672469679
31
0
0
LINE
5
200
100
AcDbEntity
8
0
100
AcDbLine
10
907.75919390265744
20
-100.03430672469678
30
0
11
907.75919390265744
21
-117.32097339136345
31
0
0
LINE
5
201
100
AcDbEntity
8
0
100
AcDbLine
10
904.98919390265746
20
-152.28430672469679
30
0
11
904.98919390265746
21
-100.03430672469678
31
0
0
CIRCLE
5
202
100
AcDbEntity
8
0
100
AcDbCircle
10
732.28086056932398
20
-128.38930672469681
30
0
40
11.25
210
0
220
0
230
1
0
LINE
5
203
100
AcDbEntity
8
0
100
AcDbLine
10
904.98919390265746
20
-134.99764005803013
30
0
11
904.98919390265746
21
-152.28430672469679
31
0
0
CIRCLE
5
204
100
AcDbEntity
8
0
100
AcDbCircle
10
716.90128807851647
20
-113.00973423388946
30
0
40
2.184999999999973
210
0
220
0
230
1
0
LINE
5
205
100
AcDbEntity
8
0
100
AcDbLine
10
944.48919390265746
20
-149.51430672469681
30
0
11
944.48919390265746
21
-152.28430672469679
31
0
0
LWPOLYLINE
5
206
100
AcDbEntity
8
0
100
AcDbPolyline
90
12
70
1
43
0.0
10
723.97419390265736
20
-152.28430672469679
10
723.97419390265736
20
-149.51430672469681
10
724.00669390265739
20
-149.51430672469681
10
724.00669390265739
20
-152.25
10
723.97419390265736
20
-152.25
10
723.97419390265736
20
-149.51430672469681
10
707.75419390265733
20
-149.51430672469681
10
707.75419390265733
20
-152.25
10
707.72169390265742
20
-152.25
10
707.72169390265742
20
-149.51430672469681
10
707.75419390265733
20
-149.51430672469681
10
707.75419390265733
20
-152.28430672469679
0
LINE
5
207
100
AcDbEntity
8
0
100
AcDbLine
10
944.48919390265746
20
-152.28430672469679
30
0
11
931.45252723599071
21
-152.28430672469679
31
0
0
LINE
5
208
100
AcDbEntity
8
0
100
AcDbLine
10
740.51919390265743
20
-152.28430672469679
30
0
11
740.51919390265743
21
-149.51430672469681
31
0
0
LWPOLYLINE
5
209
100
AcDbEntity
8
0
100
AcDbPolyline
90
4
70
1
43
0.0
10
904.98919390265746
20
-152.28430672469679
10
904.98919390265746
20
-149.51430672469681
10
918.0258605693241
20
-149.51430672469681
10
918.0258605693241
20
-152.28430672469679
0
LINE
5
210
100
AcDbEntity
8
0
100
AcDbLine
10
732.28086056932398
20
-128.38930672469681
30
0
11
752.375
21
-128.38930672469678
31
0
0
LINE
5
211
100
AcDbEntity
8
0
100
AcDbLine
10
732.28086056932398
20
-128.38930672469681
30
0
11
716.90128807851636
21
-143.768879215504
31
0
0
LINE
5
212
100
AcDbEntity
8
0
100
AcDbLine
10
904.98919390265746
20
-100.03430672469678
30
0
11
944.48919390265746
21
-100.03430672469678
31
0
0
LINE
5
213
100
AcDbEntity
8
0
100
AcDbLine
10
732.28086056932398
20
-128.38930672469681
30
0
11
752.37500000000011
21
-128.38930672469678
31
0
0
LINE
5
214
100
AcDbEntity
8
0
100
AcDbLine
10
907.75919390265744
20
-152.28430672469679
30
0
11
907.75919390265744
21
-134.99764005803013
31
0
0
LINE
5
215
100
AcDbEntity
8
0
100
AcDbLine
10
756.73919390265735
20
-128.38930672469678
30
0
11
732.28086056932398
21
-128.38930672469681
31
0
0
LINE
5
216
100
AcDbEntity
8
0
100
AcDbLine
10
904.98919390265746
20
-152.28430672469679
30
0
11
904.98919390265746
21
-118.38930672469671
31
0
0
LINE
5
217
100
AcDbEntity
8
0
100
AcDbLine
10
907.75919390265744
20
-117.32097339136345
30
0
11
904.98919390265746
21
-117.32097339136345
31
0
0
CIRCLE
5
218
100
AcDbEntity
8
0
100
AcDbCircle
10
747.6604330601316
20
-113.00973423388956
30
0
40
2.184999999999965
210
0
220
0
230
1
0
LINE
5
219
100
AcDbEntity
8
0
100
AcDbLine
10
904.98919390265746
20
-118.38930672469671
30
0
11
934.73919390265735
21
-118.38930672469671
31
0
0
CIRCLE
5
220
100
AcDbEntity
8
0
100
AcDbCircle
10
747.66043306013125
20
-143.76887921550417
30
0
40
2.1849999999999605
210
0
220
0
230
1
0
LINE
5
221
100
AcDbEntity
8
0
100
AcDbLine
10
944.48919390265746
20
-152.28430672469679
30
0
11
904.98919390265746
21
-152.28430672469679
31
0
0
LINE
5
222
100
AcDbEntity
8
0
100
AcDbLine
10
907.75919390265744
20
-134.99764005803013
30
0
11
904.98919390265746
21
-134.99764005803013
31
0
0
LINE
5
223
100
AcDbEntity
8
0
100
AcDbLine
10
904.98919390265746
20
-100.03430672469678
30
0
11
907.75919390265744
21
-100.03430672469678
31
0
0
LINE
5
224
100
AcDbEntity
8
0
100
AcDbLine
10
756.73919390265735
20
-149.51430672469681
30
0
11
756.73919390265735
21
-152.28430672469679
31
0
0
LINE
5
225
100
AcDbEntity
8
0
100
AcDbLine
10
732.28086056932398
20
-128.38930672469681
30
0
11
747.66043306013125
21
-143.76887921550417
31
0
0
LINE
5
226
100
AcDbEntity
8
0
100
AcDbLine
10
904.98919390265746
20
-100.03430672469678
30
0
11
944.48919390265746
21
-100.03430672469678
31
0
0
LINE
5
227
100
AcDbEntity
8
0
100
AcDbLine
10
732.28086056932398
20
-128.38930672469681
30
0
11
716.90128807851647
21
-113.00973423388946
31
0
0
LINE
5
228
100
AcDbEntity
8
0
100
AcDbLine
10
674.98919390265746
20
-100.03430672469678
30
0
11
756.73919390265735
21
-100.03430672469678
31
0
0
LINE
5
229
100
AcDbEntity
8
0
100
AcDbLine
10
732.28086056932398
20
-128.38930672469681
30
0
11
752.375
21
-128.38930672469678
31
0
0
LINE
5
230
100
AcDbEntity
8
0
100
AcDbLine
10
904.98919390265746
20
-117.32097339136345
30
0
11
904.98919390265746
21
-100.03430672469678
31
0
0
LINE
5
231
100
AcDbEntity
8
0
100
AcDbLine
10
921.20919390265738
20
-152.28430672469679
30
0
11
904.98919390265746
21
-152.28430672469679
31
0
0
CIRCLE
5
232
100
AcDbEntity
8
0
100
AcDbCircle
10
716.90128807851636
20
-143.768879215504
30
0
40
2.1850000000000485
210
0
220
0
230
1
0
LINE
5
233
100
AcDbEntity
8
0
100
AcDbLine
10
756.73919390265735
20
-152.28430672469679
30
0
11
674.98919390265746
21
-152.28430672469679
31
0
0
LWPOLYLINE
5
234
100
AcDbEntity
8
0
100
AcDbPolyline
90
18
70
1
43
0.0
10
784.98919390265746
20
-152.28430672469679
10
784.98919390265746
20
-134.99764005803013
10
787.75919390265744
20
-134.99764005803013
10
787.75919390265744
20
-152.28430672469679
10
784.98919390265746
20
-152.28430672469679
10
866.73919390265735
20
-152.28430672469679
10
850.51919390265743
20
-152.28430672469679
10
850.51919390265743
20
-149.51430672469681
10
866.73919390265735
20
-149.51430672469681
10
866.73919390265735
20
-152.28430672469679
10
866.73919390265723
20
-128.38930672469726
10
866.73919390265735
20
-152.28430672469679
10
866.73919390265735
20
-100.03430672469678
10
784.98919390265746
20
-100.03430672469678
10
784.98919390265746
20
-117.32097339136345
10
787.75919390265744
20
-117.32097339136345
10
787.75919390265744
20
-100.03430672469678
10
784.98919390265746
20
-100.03430672469678
0
LINE
5
235
100
AcDbEntity
8
0
100
AcDbLine
10
756.73919390265735
20
-152.28430672469679
30
0
11
740.51919390265743
21
-152.28430672469679
31
0
0
LINE
5
236
100
AcDbEntity
8
0
100
AcDbLine
10
732.28086056932398
20
-128.38930672469681
30
0
11
747.66043306013148
21
-113.00973423388952
31
0
0
LINE
5
237
100
AcDbEntity
8
0
100
AcDbLine
10
756.73919390265735
20
-152.28430672469679
30
0
11
756.73919390265735
21
-128.38930672469678
31
0
0
LINE
5
238
100
AcDbEntity
8
0
100
AcDbLine
10
674.98919390265746
20
-117.32097339136345
30
0
11
674.98919390265746
21
-100.03430672469678
31
0
0
LWPOLYLINE
5
239
100
AcDbEntity
8
0
100
AcDbPolyline
90
12
70
1
43
0.0
10
817.75419390265733
20
-149.51430672469681
10
817.75419390265733
20
-152.25
10
817.72169390265742
20
-152.25
10
817.72169390265742
20
-149.51430672469681
10
817.75419390265733
20
-149.51430672469681
10
817.75419390265733
20
-152.28430672469679
10
833.97419390265736
20
-152.28430672469679
10
833.97419390265736
20
-149.51430672469681
10
834.00669390265739
20
-149.51430672469681
10
834.00669390265739
20
-152.25
10
833.97419390265736
20
-152.25
10
833.97419390265736
20
-149.51430672469681
0
LWPOLYLINE
5
240
100
AcDbEntity
8
0
100
AcDbPolyline
90
4
70
1
43
0.0
10
691.20919390265738
20
-149.51430672469681
10
674.98919390265746
20
-149.51430672469681
10
674.98919390265746
20
-152.28430672469679
10
691.20919390265738
20
-152.28430672469679
0
LINE
5
241
100
AcDbEntity
8
0
100
AcDbLine
10
677.75919390265744
20
-152.28430672469679
30
0
11
677.75919390265744
21
-134.99764005803013
31
0
0
LINE
5
242
100
AcDbEntity
8
0
100
AcDbLine
10
677.75919390265744
20
-134.99764005803013
30
0
11
674.98919390265746
21
-134.99764005803013
31
0
0
LINE
5
243
100
AcDbEntity
8
0
100
AcDbLine
10
674.98919390265746
20
-118.38930672469679
30
0
11
704.73919390265735
21
-118.38930672469679
31
0
0
LWPOLYLINE
5
244
100
AcDbEntity
8
0
100
AcDbPolyline
90
4
70
1
43
0.0
10
801.20919390265738
20
-152.28430672469679
10
801.20919390265738
20
-149.51430672469681
10
784.98919390265746
20
-149.51430672469681
10
784.98919390265746
20
-152.28430672469679
0
CIRCLE
5
245
100
AcDbEntity
8
0
100
AcDbCircle
10
814.73919390265735
20
-118.38930672469675
30
0
40
4.7499999999999716
210
0
220
0
230
1
0
LINE
5
246
100
AcDbEntity
8
0
100
AcDbLine
10
674.98919390265746
20
-152.28430672469679
30
0
11
677.75919390265744
21
-152.28430672469679
31
0
0
LINE
5
247
100
AcDbEntity
8
0
100
AcDbLine
10
674.98919390265746
20
-152.28430672469679
30
0
11
674.98919390265746
21
-118.38930672469679
31
0
0
LINE
5
248
100
AcDbEntity
8
0
100
AcDbLine
10
677.75919390265744
20
-117.32097339136345
30
0
11
674.98919390265746
21
-117.32097339136345
31
0
0
LINE
5
249
100
AcDbEntity
8
0
100
AcDbLine
10
674.98919390265746
20
-152.28430672469679
30
0
11
674.98919390265746
21
-100.03430672469678
31
0
0
CIRCLE
5
250
100
AcDbEntity
8
0
100
AcDbCircle
10
704.73919390265735
20
-118.38930672469679
30
0
40
4.7499999999999716
210
0
220
0
230
1
0
LINE
5
251
100
AcDbEntity
8
0
100
AcDbLine
10
674.98919390265746
20
-134.99764005803013
30
0
11
674.98919390265746
21
-152.28430672469679
31
0
0
LINE
5
252
100
AcDbEntity
8
0
100
AcDbLine
10
677.75919390265744
20
-100.03430672469678
30
0
11
677.75919390265744
21
-117.32097339136345
31
0
0
LINE
5
253
100
AcDbEntity
8
0
100
AcDbLine
10
674.98919390265746
20
-100.03430672469678
30
0
11
677.75919390265744
21
-100.03430672469678
31
0
0
CIRCLE
5
254
100
AcDbEntity
8
0
100
AcDbCircle
10
842.28086056932386
20
-128.38930672469724
30
0
40
4.4999999999999538
210
0
220
0
230
1
0
LINE
5
255
100
AcDbEntity
8
0
100
AcDbLine
10
866.73919390265723
20
-128.38930672469726
30
0
11
842.28086056932386
21
-128.38930672469724
31
0
0
LINE
5
256
100
AcDbEntity
8
0
100
AcDbLine
10
784.98919390265746
20
-118.38930672469675
30
0
11
814.73919390265735
21
-118.38930672469675
31
0
0
LINE
5
257
100
AcDbEntity
8
0
100
AcDbLine
10
1174.9832786885249
20
335.75244168734457
30
0
11
1192.5299453551916
21
335.75244168734457
31
0
0
LWPOLYLINE
5
258
100
AcDbEntity
8
0
100
AcDbPolyline
90
4
70
1
43
0.0
10
1192.5299453551902
20
332.98290322580721
10
1192.5299453551904
20
335.75290322580719
10
1209.6866120218569
20
335.75290322580719
10
1209.6866120218569
20
332.98290322580601
0
LWPOLYLINE
5
259
100
AcDbEntity
8
0
100
AcDbPolyline
90
4
70
1
43
0.0
10
1227.2332786885249
20
335.05777502067787
10
1227.2332786885247
20
304.72623655913941
10
1224.4632786885247
20
304.72623655913941
10
1224.463278688525
20
335.05777502067787
0
LWPOLYLINE
5
260
100
AcDbEntity
8
0
100
AcDbPolyline
90
4
70
1
43
0.0
10
1174.9832786885249
20
304.72623655913941
10
1174.9832786885249
20
335.05777502067787
10
1177.7532786885249
20
335.05777502067787
10
1177.7532786885249
20
304.72623655913941
0
LWPOLYLINE
5
261
100
AcDbEntity
8
0
100
AcDbPolyline
90
4
70
1
43
0.0
10
1174.9832786885249
20
243.78156989247273
10
1174.9832786885249
20
274.11310835401122
10
1177.7532786885249
20
274.11310835401122
10
1177.7532786885249
20
243.78156989247273
0
LWPOLYLINE
5
262
100
AcDbEntity
8
0
100
AcDbPolyline
90
4
70
1
43
0.0
10
1224.463278688525
20
274.11310835401122
10
1227.2332786885249
20
274.11310835401122
10
1227.2332786885247
20
243.78156989247273
10
1224.4632786885247
20
243.78156989247273
0
LINE
5
263
100
AcDbEntity
8
0
100
AcDbLine
10
1177.7532786885249
20
365.67090322580606
30
0
11
1177.7532786885249
21
396.00244168734457
31
0
0
LINE
5
264
100
AcDbEntity
8
0
100
AcDbLine
10
1185.5632786885251
20
396.00290322580429
30
0
11
1195.7532786885251
21
396.00290322580429
31
0
0
LINE
5
265
100
AcDbEntity
8
0
100
AcDbLine
10
1177.7532786885249
20
396.00244168734457
30
0
11
1174.9832786885249
21
396.00244168734457
31
0
0
LWPOLYLINE
5
266
100
AcDbEntity
8
0
100
AcDbPolyline
90
4
70
1
43
0.0
10
1216.6532786885252
20
396.00290322580429
10
1206.4632786885252
20
396.00290322580429
10
1206.4632786885252
20
393.23290322580425
10
1216.6532786885252
20
393.23290322580425
0
LINE
5
267
100
AcDbEntity
8
0
100
AcDbLine
10
1195.7532786885251
20
396.00290322580429
30
0
11
1195.7532786885251
21
393.23290322580425
31
0
0
LINE
5
268
100
AcDbEntity
8
0
100
AcDbLine
10
1174.9832786885249
20
396.00290322580435
30
0
11
1185.5632786885251
21
396.00290322580429
31
0
0
LINE
5
269
100
AcDbEntity
8
0
100
AcDbLine
10
1185.5632786885251
20
393.23290322580425
30
0
11
1185.5632786885251
21
396.00290322580429
31
0
0
LINE
5
270
100
AcDbEntity
8
0
100
AcDbLine
10
1195.7532786885251
20
393.23290322580425
30
0
11
1185.5632786885251
21
393.23290322580425
31
0
0
LWPOLYLINE
5
271
100
AcDbEntity
8
0
100
AcDbPolyline
90
4
70
1
43
0.0
10
1224.463278688525
20
396.00244168734457
10
1227.2332786885249
20
396.00244168734446
10
1227.2332786885247
20
365.67090322580606
10
1224.4632786885247
20
365.67090322580611
0
LINE
5
272
100
AcDbEntity
8
0
100
AcDbLine
10
1174.9832786885249
20
365.67090322580606
30
0
11
1177.7532786885249
21
365.67090322580606
31
0
0
LINE
5
273
100
AcDbEntity
8
0
100
AcDbLine
10
1227.2332786885247
20
396.00290322580435
30
0
11
1174.9832786885249
21
396.00290322580435
31
0
0
LINE
5
274
100
AcDbEntity
8
0
100
AcDbLine
10
1174.9832786885249
20
396.00244168734457
30
0
11
1174.9832786885249
21
365.67090322580606
31
0
0
LINE
5
275
100
AcDbEntity
8
0
100
AcDbLine
10
1174.9832786885249
20
396.00244168734457
30
0
11
1174.9832786885249
21
335.75244168734457
31
0
0
LWPOLYLINE
5
276
100
AcDbEntity
8
0
100
AcDbPolyline
90
4
70
1
43
0.0
10
1452.7496610169489
20
243.79188700565021
10
1449.9796610169492
20
243.79188700565021
10
1449.9796610169492
20
274.12342546718867
10
1452.7496610169489
20
274.12342546718867
0
LWPOLYLINE
5
277
100
AcDbEntity
8
0
100
AcDbPolyline
90
4
70
1
43
0.0
10
1499.5196610169492
20
243.79188700565021
10
1499.5196610169492
20
274.12342546718867
10
1502.2896610169491
20
274.12342546718867
10
1502.2896610169491
20
243.79188700565021
0
LWPOLYLINE
5
278
100
AcDbEntity
8
0
100
AcDbPolyline
90
4
70
1
43
0.0
10
1499.5196610169492
20
304.73655367231686
10
1499.5196610169492
20
335.06809213385532
10
1502.2896610169491
20
335.06809213385532
10
1502.2896610169491
20
304.73655367231686
0
LWPOLYLINE
5
279
100
AcDbEntity
8
0
100
AcDbPolyline
90
4
70
1
43
0.0
10
1452.7496610169489
20
335.06809213385532
10
1452.7496610169489
20
304.73655367231686
10
1449.9796610169492
20
304.73655367231686
10
1449.9796610169492
20
335.06809213385532
0
CIRCLE
5
280
100
AcDbEntity
8
0
100
AcDbCircle
10
1483.8746610169492
20
366.2632203389835
30
0
40
4.7499999999999662
210
0
220
0
230
1
0
LWPOLYLINE
5
281
100
AcDbEntity
8
0
100
AcDbPolyline
90
4
70
1
43
0.0
10
1481.2646610169488
20
393.24322033898346
10
1470.9446610169491
20
393.24322033898346
10
1470.9446610169491
20
396.0132203389835
10
1481.2646610169488
20
396.0132203389835
0
LINE
5
282
100
AcDbEntity
8
0
100
AcDbLine
10
1491.909661016949
20
396.0132203389835
30
0
11
1491.909661016949
21
393.24322033898346
31
0
0
LINE
5
283
100
AcDbEntity
8
0
100
AcDbLine
10
1502.2296610169492
20
396.0132203389835
30
0
11
1491.909661016949
21
396.0132203389835
31
0
0
LWPOLYLINE
5
284
100
AcDbEntity
8
0
100
AcDbPolyline
90
4
70
1
43
0.0
10
1449.9796610169492
20
396.01275880052196
10
1452.7496610169489
20
396.01275880052196
10
1452.7496610169489
20
365.68122033898356
10
1449.9796610169492
20
365.68122033898356
0
LINE
5
285
100
AcDbEntity
8
0
100
AcDbLine
10
1502.2296610169492
20
396.0132203389835
30
0
11
1449.9796610169492
21
396.0132203389835
31
0
0
LWPOLYLINE
5
286
100
AcDbEntity
8
0
100
AcDbPolyline
90
4
70
1
43
0.0
10
1499.5196610169492
20
365.68122033898356
10
1499.5196610169492
20
396.01275880052196
10
1502.2896610169491
20
396.01275880052196
10
1502.2896610169491
20
365.68122033898356
0
LINE
5
287
100
AcDbEntity
8
0
100
AcDbLine
10
1449.9796610169492
20
396.0132203389835
30
0
11
1483.8746610169492
21
396.0132203389835
31
0
0
LWPOLYLINE
5
288
100
AcDbEntity
8
0
100
AcDbPolyline
90
4
70
1
43
0.0
10
1460.2996610169489
20
393.24322033898346
10
1449.9796610169487
20
393.24322033898346
10
1449.9796610169487
20
396.0132203389835
10
1460.2996610169489
20
396.0132203389835
0
LINE
5
289
100
AcDbEntity
8
0
100
AcDbLine
10
1502.2296610169492
20
393.24322033898346
30
0
11
1502.2296610169492
21
396.0132203389835
31
0
0
LINE
5
290
100
AcDbEntity
8
0
100
AcDbLine
10
1491.909661016949
20
393.24322033898346
30
0
11
1502.2296610169492
21
393.24322033898346
31
0
0
LINE
5
291
100
AcDbEntity
8
0
100
AcDbLine
10
1483.8746610169492
20
396.0132203389835
30
0
11
1483.8746610169492
21
366.2632203389835
31
0
0
LINE
5
292
100
AcDbEntity
8
0
100
AcDbLine
10
1274.9832786885249
20
30.334441687344537
30
0
11
1274.9832786885249
21
0.0029032258060708686
31
0
0
LINE
5
293
100
AcDbEntity
8
0
100
AcDbLine
10
1277.7532786885249
20
0.0029032258060711614
30
0
11
1277.7532786885249
21
30.334441687344537
31
0
0
LINE
5
294
100
AcDbEntity
8
0
100
AcDbLine
10
1277.7532786885249
20
30.334441687344537
30
0
11
1274.9832786885249
21
30.334441687344537
31
0
0
LINE
5
295
100
AcDbEntity
8
0
100
AcDbLine
10
1602.2296610169492
20
393.24322033898346
30
0
11
1602.2296610169492
21
396.0132203389835
31
0
0
LWPOLYLINE
5
296
100
AcDbEntity
8
0
100
AcDbPolyline
90
4
70
1
43
0.0
10
1549.9796610169492
20
396.01275880052196
10
1552.7496610169489
20
396.01275880052196
10
1552.7496610169489
20
365.68122033898356
10
1549.9796610169492
20
365.68122033898356
0
LWPOLYLINE
5
297
100
AcDbEntity
8
0
100
AcDbPolyline
90
4
70
1
43
0.0
10
1560.2996610169489
20
393.24322033898346
10
1549.9796610169487
20
393.24322033898346
10
1549.9796610169487
20
396.0132203389835
10
1560.2996610169489
20
396.0132203389835
0
LINE
5
298
100
AcDbEntity
8
0
100
AcDbLine
10
1549.9796610169492
20
396.0132203389835
30
0
11
1583.8746610169492
21
396.01322033898339
31
0
0
LWPOLYLINE
5
299
100
AcDbEntity
8
0
100
AcDbPolyline
90
4
70
1
43
0.0
10
1285.5632786885253
20
2.7729032258042623
10
1285.5632786885253
20
0.0029032258042520267
10
1295.7532786885254
20
0.0029032258042521741
10
1295.7532786885254
20
2.7729032258042623
0
LWPOLYLINE
5
300
100
AcDbEntity
8
0
100
AcDbPolyline
90
4
70
1
43
0.0
10
1316.653278688525
20
0.0029032258042521741
10
1316.653278688525
20
2.7729032258042623
10
1306.463278688525
20
2.7729032258042623
10
1306.463278688525
20
0.0029032258042520267
0
LWPOLYLINE
5
301
100
AcDbEntity
8
0
100
AcDbPolyline
90
4
70
1
43
0.0
10
1324.4632786885247
20
0.0029032258060723848
10
1324.4632786885247
20
30.334441687344537
10
1327.2332786885249
20
30.334441687344537
10
1327.2332786885249
20
0.0029032258060711614
0
LWPOLYLINE
5
302
100
AcDbEntity
8
0
100
AcDbPolyline
90
4
70
1
43
0.0
10
1277.7532786885249
20
60.947569892472735
10
1274.9832786885249
20
60.947569892472735
10
1274.9832786885249
20
91.279108354011214
10
1277.7532786885249
20
91.279108354011214
0
LWPOLYLINE
5
303
100
AcDbEntity
8
0
100
AcDbPolyline
90
4
70
1
43
0.0
10
1324.4632786885247
20
91.279108354011214
10
1327.2332786885249
20
91.279108354011214
10
1327.2332786885249
20
60.947569892472735
10
1324.4632786885247
20
60.947569892472735
0
LWPOLYLINE
5
304
100
AcDbEntity
8
0
100
AcDbPolyline
90
4
70
1
43
0.0
10
1292.5299453551697
20
35.752903225806136
10
1292.5299453551697
20
38.522903225806147
10
1309.6866120218363
20
38.522903225806147
10
1309.6866120218363
20
35.752903225804928
0
LINE
5
305
100
AcDbEntity
8
0
100
AcDbLine
10
1274.9832786885249
20
0.0029032258060708686
30
0
11
1277.7532786885249
21
0.0029032258060711614
31
0
0
LINE
5
306
100
AcDbEntity
8
0
100
AcDbLine
10
1274.9832786885249
20
0.0029032258060708686
30
0
11
1327.2332786885249
21
0.0029032258060708678
31
0
0
LWPOLYLINE
5
307
100
AcDbEntity
8
0
100
AcDbPolyline
90
4
70
1
43
0.0
10
1599.5196610169492
20
182.84722033898356
10
1599.5196610169492
20
213.17875880052202
10
1602.2896610169491
20
213.17875880052202
10
1602.2896610169491
20
182.84722033898356
0
LWPOLYLINE
5
308
100
AcDbEntity
8
0
100
AcDbPolyline
90
4
70
1
43
0.0
10
1599.5196610169492
20
121.90255367231687
10
1599.5196610169492
20
152.23409213385534
10
1602.2896610169491
20
152.23409213385534
10
1602.2896610169491
20
121.90255367231687
0
LWPOLYLINE
5
309
100
AcDbEntity
8
0
100
AcDbPolyline
90
4
70
1
43
0.0
10
1552.7496610169489
20
152.23409213385534
10
1552.7496610169489
20
121.90255367231687
10
1549.9796610169492
20
121.90255367231687
10
1549.9796610169492
20
152.23409213385534
0
LWPOLYLINE
5
310
100
AcDbEntity
8
0
100
AcDbPolyline
90
4
70
1
43
0.0
10
1549.9796610169492
20
213.17875880052202
10
1552.7496610169489
20
213.17875880052202
10
1552.7496610169489
20
182.84722033898356
10
1549.9796610169492
20
182.84722033898356
0
LINE
5
311
100
AcDbEntity
8
0
100
AcDbLine
10
1552.7496610169489
20
30.344758800522008
30
0
11
1549.9796610169492
21
30.344758800522005
31
0
0
LWPOLYLINE
5
312
100
AcDbEntity
8
0
100
AcDbPolyline
90
4
70
1
43
0.0
10
1602.2896610169491
20
0.013220338983541463
10
1599.5196610169492
20
0.01322033898353947
10
1599.5196610169492
20
30.344758800522005
10
1602.2896610169491
20
30.344758800522008
0
LWPOLYLINE
5
313
100
AcDbEntity
8
0
100
AcDbPolyline
90
4
70
1
43
0.0
10
1581.2646610169488
20
2.7832203389834853
10
1581.2646610169488
20
0.01322033898347643
10
1570.9446610169491
20
0.013220338983476743
10
1570.9446610169491
20
2.7832203389834875
0
LWPOLYLINE
5
314
100
AcDbEntity
8
0
100
AcDbPolyline
90
4
70
1
43
0.0
10
1602.2896610169491
20
60.957887005650207
10
1599.5196610169492
20
60.9578870056502
10
1599.5196610169492
20
91.289425467188678
10
1602.2896610169491
20
91.289425467188678
0
LINE
5
315
100
AcDbEntity
8
0
100
AcDbLine
10
1552.7496610169489
20
0.013220338983541463
30
0
11
1552.7496610169489
21
30.344758800522008
31
0
0
LWPOLYLINE
5
316
100
AcDbEntity
8
0
100
AcDbPolyline
90
4
70
1
43
0.0
10
1549.9796610169492
20
91.289425467188678
10
1552.7496610169489
20
91.289425467188678
10
1552.7496610169489
20
60.957887005650207
10
1549.9796610169492
20
60.9578870056502
0
LINE
5
317
100
AcDbEntity
8
0
100
AcDbLine
10
1549.9796610169492
20
0.013220338983537415
30
0
11
1552.7496610169489
21
0.013220338983541463
31
0
0
LWPOLYLINE
5
318
100
AcDbEntity
8
0
100
AcDbPolyline
90
4
70
1
43
0.0
10
1602.2296610169492
20
0.01322033898347643
10
1591.909661016949
20
0.013220338983476743
10
1591.909661016949
20
2.7832203389834875
10
1602.2296610169492
20
2.7832203389834853
0
LWPOLYLINE
5
319
100
AcDbEntity
8
0
100
AcDbPolyline
90
4
70
1
43
0.0
10
1549.9796610169487
20
0.013220338983476743
10
1549.9796610169487
20
2.7832203389834875
10
1560.2996610169489
20
2.7832203389834853
10
1560.2996610169489
20
0.01322033898347643
0
LINE
5
320
100
AcDbEntity
8
0
100
AcDbLine
10
1549.9796610169492
20
30.344758800522005
30
0
11
1549.9796610169492
21
0.013220338983537415
31
0
0
LINE
5
321
100
AcDbEntity
8
0
100
AcDbLine
10
1602.2296610169492
20
0.013220338983537416
30
0
11
1602.2296610169492
21
396.0132203389835
31
0
0
CIRCLE
5
322
100
AcDbEntity
8
0
100
AcDbCircle
10
1583.8746610169492
20
29.763220338983487
30
0
40
4.7499999999999662
210
0
220
0
230
1
0
LINE
5
323
100
AcDbEntity
8
0
100
AcDbLine
10
1327.2332786885249
20
0.0029032258060708678
30
0
11
1327.2332786885249
21
396.00290322580435
31
0
0
LINE
5
324
100
AcDbEntity
8
0
100
AcDbLine
10
1549.9796610169492
20
0.013220338983537415
30
0
11
1602.2296610169492
21
0.013220338983537416
31
0
0
LWPOLYLINE
5
325
100
AcDbEntity
8
0
100
AcDbPolyline
90
4
70
1
43
0.0
10
1274.9832786885249
20
274.11310835401122
10
1277.7532786885249
20
274.11310835401122
10
1277.7532786885249
20
243.78156989247273
10
1274.9832786885249
20
243.78156989247273
0
LWPOLYLINE
5
326
100
AcDbEntity
8
0
100
AcDbPolyline
90
4
70
1
43
0.0
10
1327.2332786885249
20
243.78156989247273
10
1324.4632786885247
20
243.78156989247273
10
1324.4632786885247
20
274.11310835401122
10
1327.2332786885249
20
274.11310835401122
0
LWPOLYLINE
5
327
100
AcDbEntity
8
0
100
AcDbPolyline
90
4
70
1
43
0.0
10
1327.2332786885249
20
335.05777502067787
10
1327.2332786885249
20
304.72623655913941
10
1324.4632786885247
20
304.72623655913941
10
1324.4632786885247
20
335.05777502067787
0
LWPOLYLINE
5
328
100
AcDbEntity
8
0
100
AcDbPolyline
90
4
70
1
43
0.0
10
1309.6866120218567
20
335.75290322580719
10
1309.6866120218567
20
332.98290322580601
10
1292.5299453551902
20
332.98290322580721
10
1292.5299453551904
20
335.75290322580719
0
LWPOLYLINE
5
329
100
AcDbEntity
8
0
100
AcDbPolyline
90
4
70
1
43
0.0
10
1277.7532786885249
20
304.72623655913941
10
1274.9832786885249
20
304.72623655913941
10
1274.9832786885249
20
335.05777502067787
10
1277.7532786885249
20
335.05777502067787
0
LINE
5
330
100
AcDbEntity
8
0
100
AcDbLine
10
1274.9832786885249
20
335.75244168734429
30
0
11
1292.5299453551918
21
335.75244168734429
31
0
0
LINE
5
331
100
AcDbEntity
8
0
100
AcDbLine
10
1274.9832786885249
20
396.00244168734457
30
0
11
1274.9832786885249
21
365.67090322580606
31
0
0
LINE
5
332
100
AcDbEntity
8
0
100
AcDbLine
10
1327.2332786885249
20
396.00290322580435
30
0
11
1274.9832786885249
21
396.00290322580435
31
0
0
LINE
5
333
100
AcDbEntity
8
0
100
AcDbLine
10
1274.9832786885249
20
365.67090322580606
30
0
11
1277.7532786885249
21
365.67090322580606
31
0
0
LWPOLYLINE
5
334
100
AcDbEntity
8
0
100
AcDbPolyline
90
4
70
1
43
0.0
10
1316.653278688525
20
393.23290322580425
10
1316.653278688525
20
396.00290322580429
10
1306.463278688525
20
396.00290322580429
10
1306.463278688525
20
393.23290322580425
0
LINE
5
335
100
AcDbEntity
8
0
100
AcDbLine
10
1277.7532786885249
20
365.67090322580606
30
0
11
1277.7532786885249
21
396.00244168734457
31
0
0
LWPOLYLINE
5
336
100
AcDbEntity
8
0
100
AcDbPolyline
90
4
70
1
43
0.0
10
1327.2332786885249
20
365.67090322580606
10
1324.4632786885247
20
365.67090322580606
10
1324.4632786885247
20
396.00244168734457
10
1327.2332786885249
20
396.00244168734457
0
LINE
5
337
100
AcDbEntity
8
0
100
AcDbLine
10
1295.7532786885254
20
393.23290322580425
30
0
11
1285.5632786885253
21
393.23290322580425
31
0
0
LINE
5
338
100
AcDbEntity
8
0
100
AcDbLine
10
1274.9832786885249
20
396.00290322580435
30
0
11
1285.5632786885253
21
396.00290322580429
31
0
0
LINE
5
339
100
AcDbEntity
8
0
100
AcDbLine
10
1295.7532786885254
20
396.00290322580429
30
0
11
1295.7532786885254
21
393.23290322580425
31
0
0
LINE
5
340
100
AcDbEntity
8
0
100
AcDbLine
10
1292.5299453551918
20
335.75244168734429
30
0
11
1292.5299453551704
21
35.752441687344287
31
0
0
LINE
5
341
100
AcDbEntity
8
0
100
AcDbLine
10
1285.5632786885253
20
396.00290322580429
30
0
11
1295.7532786885254
21
396.00290322580429
31
0
0
LINE
5
342
100
AcDbEntity
8
0
100
AcDbLine
10
1274.9832786885249
20
396.00290322580435
30
0
11
1274.9832786885249
21
0.0029032258060708686
31
0
0
LINE
5
343
100
AcDbEntity
8
0
100
AcDbLine
10
1549.9796610169492
20
396.0132203389835
30
0
11
1549.9796610169492
21
0.013220338983537415
31
0
0
LINE
5
344
100
AcDbEntity
8
0
100
AcDbLine
10
1285.5632786885253
20
393.23290322580425
30
0
11
1285.5632786885253
21
396.00290322580429
31
0
0
LINE
5
345
100
AcDbEntity
8
0
100
AcDbLine
10
1277.7532786885249
20
396.00244168734457
30
0
11
1274.9832786885249
21
396.00244168734457
31
0
0
LWPOLYLINE
5
346
100
AcDbEntity
8
0
100
AcDbPolyline
90
4
70
1
43
0.0
10
1599.5196610169492
20
274.12342546718867
10
1602.2896610169491
20
274.12342546718867
10
1602.2896610169491
20
243.79188700565021
10
1599.5196610169492
20
243.79188700565021
0
LWPOLYLINE
5
347
100
AcDbEntity
8
0
100
AcDbPolyline
90
4
70
1
43
0.0
10
1552.7496610169489
20
304.73655367231686
10
1549.9796610169492
20
304.73655367231686
10
1549.9796610169492
20
335.06809213385532
10
1552.7496610169489
20
335.06809213385532
0
LINE
5
348
100
AcDbEntity
8
0
100
AcDbLine
10
1274.9832786885249
20
396.00244168734457
30
0
11
1274.9832786885249
21
335.75244168734429
31
0
0
LWPOLYLINE
5
349
100
AcDbEntity
8
0
100
AcDbPolyline
90
4
70
1
43
0.0
10
1602.2896610169491
20
304.73655367231686
10
1599.5196610169492
20
304.73655367231686
10
1599.5196610169492
20
335.06809213385532
10
1602.2896610169491
20
335.06809213385532
0
LWPOLYLINE
5
350
100
AcDbEntity
8
0
100
AcDbPolyline
90
4
70
1
43
0.0
10
1549.9796610169492
20
274.12342546718867
10
1552.7496610169489
20
274.12342546718867
10
1552.7496610169489
20
243.79188700565021
10
1549.9796610169492
20
243.79188700565021
0
LWPOLYLINE
5
351
100
AcDbEntity
8
0
100
AcDbPolyline
90
4
70
1
43
0.0
10
1570.9446610169491
20
396.0132203389835
10
1581.2646610169488
20
396.0132203389835
10
1581.2646610169488
20
393.24322033898346
10
1570.9446610169491
20
393.24322033898346
0
LWPOLYLINE
5
352
100
AcDbEntity
8
0
100
AcDbPolyline
90
4
70
1
43
0.0
10
1599.5196610169492
20
365.68122033898356
10
1599.5196610169492
20
396.01275880052196
10
1602.2896610169491
20
396.01275880052196
10
1602.2896610169491
20
365.68122033898356
0
LINE
5
353
100
AcDbEntity
8
0
100
AcDbLine
10
1602.2296610169492
20
396.0132203389835
30
0
11
1591.909661016949
21
396.0132203389835
31
0
0
CIRCLE
5
354
100
AcDbEntity
8
0
100
AcDbCircle
10
1583.8746610169492
20
366.2632203389835
30
0
40
4.7499999999999662
210
0
220
0
230
1
0
LINE
5
355
100
AcDbEntity
8
0
100
AcDbLine
10
1591.909661016949
20
396.0132203389835
30
0
11
1591.909661016949
21
393.24322033898346
31
0
0
LINE
5
356
100
AcDbEntity
8
0
100
AcDbLine
10
1602.2296610169492
20
396.0132203389835
30
0
11
1549.9796610169492
21
396.0132203389835
31
0
0
LINE
5
357
100
AcDbEntity
8
0
100
AcDbLine
10
1591.909661016949
20
393.24322033898346
30
0
11
1602.2296610169492
21
393.24322033898346
31
0
0
LINE
5
358
100
AcDbEntity
8
0
100
AcDbLine
10
1583.8746610169492
20
396.01322033898339
30
0
11
1583.8746610169492
21
366.26322033898339
31
0
0
LWPOLYLINE
5
359
100
AcDbEntity
8
0
100
AcDbPolyline
90
4
70
1
43
0.0
10
1277.7532786885249
20
182.83690322580608
10
1274.9832786885249
20
182.83690322580608
10
1274.9832786885249
20
213.16844168734457
10
1277.7532786885249
20
213.16844168734457
0
LWPOLYLINE
5
360
100
AcDbEntity
8
0
100
AcDbPolyline
90
4
70
1
43
0.0
10
1274.9832786885249
20
121.89223655913941
10
1274.9832786885249
20
152.22377502067786
10
1277.7532786885249
20
152.22377502067786
10
1277.7532786885249
20
121.89223655913941
0
LWPOLYLINE
5
361
100
AcDbEntity
8
0
100
AcDbPolyline
90
4
70
1
43
0.0
10
1324.4632786885247
20
121.89223655913941
10
1324.4632786885247
20
152.22377502067786
10
1327.2332786885249
20
152.22377502067786
10
1327.2332786885249
20
121.89223655913941
0
LWPOLYLINE
5
362
100
AcDbEntity
8
0
100
AcDbPolyline
90
4
70
1
43
0.0
10
1324.4632786885247
20
182.83690322580608
10
1324.4632786885247
20
213.16844168734457
10
1327.2332786885249
20
213.16844168734457
10
1327.2332786885249
20
182.83690322580608
0
LINE
5
363
100
AcDbEntity
8
0
100
AcDbLine
10
971.20919390265738
20
-152.28430672469679
30
0
11
954.98919390265746
21
-152.28430672469679
31
0
0
LINE
5
364
100
AcDbEntity
8
0
100
AcDbLine
10
954.98919390265746
20
-100.03430672469678
30
0
11
994.48919390265746
21
-100.03430672469678
31
0
0
LINE
5
365
100
AcDbEntity
8
0
100
AcDbLine
10
957.75919390265744
20
-134.99764005803013
30
0
11
954.98919390265746
21
-134.99764005803013
31
0
0
LWPOLYLINE
5
366
100
AcDbEntity
8
0
100
AcDbPolyline
90
4
70
1
43
0.0
10
954.98919390265746
20
-152.28430672469679
10
954.98919390265746
20
-149.51430672469681
10
968.0258605693241
20
-149.51430672469681
10
968.0258605693241
20
-152.28430672469679
0
LINE
5
367
100
AcDbEntity
8
0
100
AcDbLine
10
994.48919390265746
20
-149.51430672469681
30
0
11
994.48919390265746
21
-152.28430672469679
31
0
0
LINE
5
368
100
AcDbEntity
8
0
100
AcDbLine
10
954.98919390265746
20
-117.32097339136345
30
0
11
954.98919390265746
21
-100.03430672469678
31
0
0
LINE
5
369
100
AcDbEntity
8
0
100
AcDbLine
10
954.98919390265746
20
-100.03430672469678
30
0
11
957.75919390265744
21
-100.03430672469678
31
0
0
LINE
5
370
100
AcDbEntity
8
0
100
AcDbLine
10
957.75919390265744
20
-152.28430672469679
30
0
11
957.75919390265744
21
-134.99764005803013
31
0
0
LINE
5
371
100
AcDbEntity
8
0
100
AcDbLine
10
954.98919390265746
20
-134.99764005803013
30
0
11
954.98919390265746
21
-152.28430672469679
31
0
0
LINE
5
372
100
AcDbEntity
8
0
100
AcDbLine
10
954.98919390265746
20
-152.28430672469679
30
0
11
954.98919390265746
21
-100.03430672469678
31
0
0
LINE
5
373
100
AcDbEntity
8
0
100
AcDbLine
10
994.48919390265746
20
-100.03430672469678
30
0
11
994.48919390265746
21
-152.28430672469679
31
0
0
LINE
5
374
100
AcDbEntity
8
0
100
AcDbLine
10
981.45252723599071
20
-152.28430672469679
30
0
11
981.45252723599071
21
-149.51430672469681
31
0
0
CIRCLE
5
375
100
AcDbEntity
8
0
100
AcDbCircle
10
984.73919390265735
20
-118.38930672469671
30
0
40
4.7499999999999734
210
0
220
0
230
1
0
LINE
5
376
100
AcDbEntity
8
0
100
AcDbLine
10
954.98919390265746
20
-118.38930672469665
30
0
11
984.73919390265735
21
-118.38930672469665
31
0
0
LINE
5
377
100
AcDbEntity
8
0
100
AcDbLine
10
957.75919390265744
20
-117.32097339136345
30
0
11
954.98919390265746
21
-117.32097339136345
31
0
0
LINE
5
378
100
AcDbEntity
8
0
100
AcDbLine
10
957.75919390265744
20
-100.03430672469678
30
0
11
957.75919390265744
21
-117.32097339136345
31
0
0
LINE
5
379
100
AcDbEntity
8
0
100
AcDbLine
10
981.45252723599071
20
-149.51430672469681
30
0
11
994.48919390265746
21
-149.51430672469681
31
0
0
LINE
5
380
100
AcDbEntity
8
0
100
AcDbLine
10
994.48919390265746
20
-152.28430672469679
30
0
11
954.98919390265746
21
-152.28430672469679
31
0
0
LINE
5
381
100
AcDbEntity
8
0
100
AcDbLine
10
954.98919390265746
20
-152.28430672469679
30
0
11
954.98919390265746
21
-118.38930672469665
31
0
0
LINE
5
382
100
AcDbEntity
8
0
100
AcDbLine
10
954.98919390265746
20
-100.03430672469678
30
0
11
994.48919390265746
21
-100.03430672469678
31
0
0
LINE
5
383
100
AcDbEntity
8
0
100
AcDbLine
10
994.48919390265746
20
-152.28430672469679
30
0
11
981.45252723599071
21
-152.28430672469679
31
0
0
LINE
5
384
100
AcDbEntity
8
0
100
AcDbLine
10
3356.9245610862486
20
-223.31107319015391
30
0
11
3354.1545610862486
21
-223.31107319015391
31
0
0
LINE
5
385
100
AcDbEntity
8
0
100
AcDbLine
10
3356.9245610862486
20
-202.2810731901539
30
0
11
3356.9245610862486
21
-212.6010731901539
31
0
0
LINE
5
386
100
AcDbEntity
8
0
100
AcDbLine
10
3475.4045610862486
20
-254.5310731901539
30
0
11
3354.1545610862486
21
-254.5310731901539
31
0
0
LINE
5
387
100
AcDbEntity
8
0
100
AcDbLine
10
3354.1545610862486
20
-202.2810731901539
30
0
11
3475.4045610862486
21
-202.2810731901539
31
0
0
LINE
5
388
100
AcDbEntity
8
0
100
AcDbLine
10
3289.6178944195822
20
-254.5310731901539
30
0
11
3289.6178944195822
21
-251.76107319015389
31
0
0
LWPOLYLINE
5
389
100
AcDbEntity
8
0
100
AcDbPolyline
90
4
70
1
43
0.0
10
3310.9678944195821
20
-223.31107319015391
10
3313.7378944195821
20
-223.31107319015391
10
3313.7378944195821
20
-233.5010731901539
10
3310.9678944195821
20
-233.5010731901539
0
LWPOLYLINE
5
390
100
AcDbEntity
8
0
100
AcDbPolyline
90
4
70
1
43
0.0
10
3310.9678944195821
20
-254.5310731901539
10
3310.9678944195821
20
-244.21107319015391
10
3313.7378944195821
20
-244.21107319015391
10
3313.7378944195821
20
-254.5310731901539
0
LINE
5
391
100
AcDbEntity
8
0
100
AcDbLine
10
3356.9245610862486
20
-233.5010731901539
30
0
11
3356.9245610862486
21
-223.31107319015391
31
0
0
LINE
5
392
100
AcDbEntity
8
0
100
AcDbLine
10
3354.1545610862486
20
-254.5310731901539
30
0
11
3354.1545610862486
21
-202.2810731901539
31
0
0
CIRCLE
5
393
100
AcDbEntity
8
0
100
AcDbCircle
10
3414.7795610862486
20
-230.63607319015389
30
0
40
4.4999999999999236
210
0
220
0
230
1
0
LINE
5
394
100
AcDbEntity
8
0
100
AcDbLine
10
3354.1545610862486
20
-254.5310731901539
30
0
11
3356.9245610862486
21
-254.5310731901539
31
0
0
LINE
5
395
100
AcDbEntity
8
0
100
AcDbLine
10
3354.1545610862486
20
-251.76107319015389
30
0
11
3354.1545610862486
21
-254.5310731901539
31
0
0
LINE
5
396
100
AcDbEntity
8
0
100
AcDbLine
10
3354.1545610862486
20
-244.21107319015391
30
0
11
3354.1545610862486
21
-254.5310731901539
31
0
0
LINE
5
397
100
AcDbEntity
8
0
100
AcDbLine
10
3378.2745610862485
20
-254.5310731901539
30
0
11
3402.7845610862487
21
-254.5310731901539
31
0
0
LWPOLYLINE
5
398
100
AcDbEntity
8
0
100
AcDbPolyline
90
4
70
1
43
0.0
10
3127.7554285714273
20
121.98221794871753
10
3127.7554285714273
20
152.183756410256
10
3124.9854285714273
20
152.183756410256
10
3124.9854285714273
20
121.98221794871753
0
LWPOLYLINE
5
399
100
AcDbEntity
8
0
100
AcDbPolyline
90
4
70
1
43
0.0
10
3472.6345610862491
20
-244.21107319015391
10
3475.4045610862486
20
-244.21107319015391
10
3475.4045610862486
20
-254.5310731901539
10
3472.6345610862491
20
-254.5310731901539
0
CIRCLE
5
400
100
AcDbEntity
8
0
100
AcDbCircle
10
3383.904561086249
20
-220.63607319015389
30
0
40
4.749999999999968
210
0
220
0
230
1
0
LINE
5
401
100
AcDbEntity
8
0
100
AcDbLine
10
3402.7845610862487
20
-251.76107319015389
30
0
11
3402.7845610862487
21
-254.5310731901539
31
0
0
LINE
5
402
100
AcDbEntity
8
0
100
AcDbLine
10
3426.7745610862489
20
-254.5310731901539
30
0
11
3426.7745610862489
21
-251.76107319015389
31
0
0
LINE
5
403
100
AcDbEntity
8
0
100
AcDbLine
10
3378.2745610862485
20
-251.76107319015389
30
0
11
3354.1545610862486
21
-251.76107319015389
31
0
0
LINE
5
404
100
AcDbEntity
8
0
100
AcDbLine
10
3356.9245610862486
20
-244.21107319015391
30
0
11
3354.1545610862486
21
-244.21107319015391
31
0
0
LINE
5
405
100
AcDbEntity
8
0
100
AcDbLine
10
3354.1545610862486
20
-244.21107319015391
30
0
11
3354.1545610862486
21
-233.5010731901539
31
0
0
LINE
5
406
100
AcDbEntity
8
0
100
AcDbLine
10
3356.9245610862486
20
-212.6010731901539
30
0
11
3354.1545610862486
21
-212.6010731901539
31
0
0
LWPOLYLINE
5
407
100
AcDbEntity
8
0
100
AcDbPolyline
90
4
70
1
43
0.0
10
3313.7378944195821
20
-202.2810731901539
10
3310.9678944195821
20
-202.2810731901539
10
3310.9678944195821
20
-212.6010731901539
10
3313.7378944195821
20
-212.6010731901539
0
LINE
5
408
100
AcDbEntity
8
0
100
AcDbLine
10
3265.107894419582
20
-254.5310731901539
30
0
11
3265.107894419582
21
-251.76107319015389
31
0
0
LINE
5
409
100
AcDbEntity
8
0
100
AcDbLine
10
3313.7378944195821
20
-254.5310731901539
30
0
11
3289.6178944195822
21
-254.5310731901539
31
0
0
LINE
5
410
100
AcDbEntity
8
0
100
AcDbLine
10
3313.7378944195821
20
-254.5310731901539
30
0
11
3313.7378944195821
21
-230.63607319015389
31
0
0
CIRCLE
5
411
100
AcDbEntity
8
0
100
AcDbCircle
10
3283.9878944195816
20
-220.63607319015389
30
0
40
4.749999999999968
210
0
220
0
230
1
0
LINE
5
412
100
AcDbEntity
8
0
100
AcDbLine
10
3475.4045610862486
20
-251.76107319015389
30
0
11
3475.4045610862486
21
-254.5310731901539
31
0
0
LWPOLYLINE
5
413
100
AcDbEntity
8
0
100
AcDbPolyline
90
4
70
1
43
0.0
10
3472.6345610862491
20
-212.6010731901539
10
3475.4045610862486
20
-212.6010731901539
10
3475.4045610862486
20
-202.2810731901539
10
3472.6345610862491
20
-202.2810731901539
0
CIRCLE
5
414
100
AcDbEntity
8
0
100
AcDbCircle
10
3445.6545610862486
20
-220.63607319015389
30
0
40
4.749999999999968
210
0
220
0
230
1
0
LINE
5
415
100
AcDbEntity
8
0
100
AcDbLine
10
3451.2845610862491
20
-251.76107319015389
30
0
11
3475.4045610862486
21
-251.76107319015389
31
0
0
LWPOLYLINE
5
416
100
AcDbEntity
8
0
100
AcDbPolyline
90
4
70
1
43
0.0
10
3475.4045610862486
20
-233.5010731901539
10
3472.6345610862491
20
-233.5010731901539
10
3472.6345610862491
20
-223.31107319015391
10
3475.4045610862486
20
-223.31107319015391
0
LINE
5
417
100
AcDbEntity
8
0
100
AcDbLine
10
3451.2845610862491
20
-254.5310731901539
30
0
11
3451.2845610862491
21
-251.76107319015389
31
0
0
LINE
5
418
100
AcDbEntity
8
0
100
AcDbLine
10
3475.4045610862486
20
-202.2810731901539
30
0
11
3475.4045610862486
21
-254.5310731901539
31
0
0
LINE
5
419
100
AcDbEntity
8
0
100
AcDbLine
10
3475.4045610862486
20
-254.5310731901539
30
0
11
3475.4045610862486
21
-220.63607319015389
31
0
0
LINE
5
420
100
AcDbEntity
8
0
100
AcDbLine
10
3475.4045610862486
20
-254.5310731901539
30
0
11
3451.2845610862491
21
-254.5310731901539
31
0
0
LINE
5
421
100
AcDbEntity
8
0
100
AcDbLine
10
3475.4045610862486
20
-254.5310731901539
30
0
11
3475.4045610862486
21
-230.63607319015389
31
0
0
LINE
5
422
100
AcDbEntity
8
0
100
AcDbLine
10
3313.7378944195821
20
-251.76107319015389
30
0
11
3313.7378944195821
21
-254.5310731901539
31
0
0
LWPOLYLINE
5
423
100
AcDbEntity
8
0
100
AcDbPolyline
90
4
70
1
43
0.0
10
3166.6554285712728
20
60.255890717632383
10
3166.6554285712728
20
63.025890717632393
10
3156.4654285712727
20
63.025890717632393
10
3156.4654285712727
20
60.255890717632383
0
LWPOLYLINE
5
424
100
AcDbEntity
8
0
100
AcDbPolyline
90
4
70
1
43
0.0
10
3135.5654285712722
20
60.255890717632383
10
3145.7554285712722
20
60.255890717632383
10
3145.7554285712722
20
63.025890717632393
10
3135.5654285712722
20
63.025890717632393
0
LWPOLYLINE
5
425
100
AcDbEntity
8
0
100
AcDbPolyline
90
4
70
1
43
0.0
10
3145.7554285714282
20
-0.054166666667091468
10
3145.7554285714282
20
2.7158333333329199
10
3135.5654285714281
20
2.7158333333329194
10
3135.5654285714281
20
-0.054166666667091495
0
LINE
5
426
100
AcDbEntity
8
0
100
AcDbLine
10
3310.9678944195821
20
-251.76107319015389
30
0
11
3310.9678944195821
21
-254.5310731901539
31
0
0
LINE
5
427
100
AcDbEntity
8
0
100
AcDbLine
10
3216.6078944195815
20
-254.5310731901539
30
0
11
3241.1178944195817
21
-254.5310731901539
31
0
0
LWPOLYLINE
5
428
100
AcDbEntity
8
0
100
AcDbPolyline
90
4
70
1
43
0.0
10
3127.7554285714273
20
182.90521794871751
10
3127.7554285714273
20
213.10675641025597
10
3124.9854285714273
20
213.10675641025597
10
3124.9854285714273
20
182.90521794871751
0
LINE
5
429
100
AcDbEntity
8
0
100
AcDbLine
10
3124.9854285714282
20
0.0058333333325843581
30
0
11
3124.9854285714282
21
60.255833333332589
31
0
0
LWPOLYLINE
5
430
100
AcDbEntity
8
0
100
AcDbPolyline
90
4
70
1
43
0.0
10
3166.6554285714283
20
-0.054166666667091468
10
3166.6554285714283
20
2.7158333333329199
10
3156.4654285714282
20
2.7158333333329194
10
3156.4654285714282
20
-0.054166666667091495
0
LWPOLYLINE
5
431
100
AcDbEntity
8
0
100
AcDbPolyline
90
4
70
1
43
0.0
10
3127.7554285714273
20
91.260756410255965
10
3124.9854285714273
20
91.260756410255965
10
3124.9854285714273
20
61.05921794871751
10
3127.7554285714273
20
61.05921794871751
0
LINE
5
432
100
AcDbEntity
8
0
100
AcDbLine
10
3378.2745610862485
20
-254.5310731901539
30
0
11
3378.2745610862485
21
-251.76107319015389
31
0
0
LINE
5
433
100
AcDbEntity
8
0
100
AcDbLine
10
3402.7845610862487
20
-254.5310731901539
30
0
11
3426.7745610862489
21
-254.5310731901539
31
0
0
LINE
5
434
100
AcDbEntity
8
0
100
AcDbLine
10
3426.7745610862489
20
-251.76107319015389
30
0
11
3402.7845610862487
21
-251.76107319015389
31
0
0
LINE
5
435
100
AcDbEntity
8
0
100
AcDbLine
10
3356.9245610862486
20
-254.5310731901539
30
0
11
3356.9245610862486
21
-244.21107319015391
31
0
0
LINE
5
436
100
AcDbEntity
8
0
100
AcDbLine
10
3313.7378944195821
20
-254.5310731901539
30
0
11
3313.7378944195821
21
-220.63607319015389
31
0
0
LINE
5
437
100
AcDbEntity
8
0
100
AcDbLine
10
3127.7554285714277
20
0.0058333333327862183
30
0
11
3127.7554285714277
21
30.337371794871256
31
0
0
LINE
5
438
100
AcDbEntity
8
0
100
AcDbLine
10
3124.9854285714282
20
30.337371794871256
30
0
11
3124.9854285714282
21
0.0058333333325843581
31
0
0
LINE
5
439
100
AcDbEntity
8
0
100
AcDbLine
10
3216.6078944195815
20
-254.5310731901539
30
0
11
3216.6078944195815
21
-251.76107319015389
31
0
0
LINE
5
440
100
AcDbEntity
8
0
100
AcDbLine
10
3313.7378944195821
20
-202.2810731901539
30
0
11
3313.7378944195821
21
-254.5310731901539
31
0
0
LINE
5
441
100
AcDbEntity
8
0
100
AcDbLine
10
3289.6178944195822
20
-251.76107319015389
30
0
11
3313.7378944195821
21
-251.76107319015389
31
0
0
LINE
5
442
100
AcDbEntity
8
0
100
AcDbLine
10
3241.1178944195817
20
-251.76107319015389
30
0
11
3241.1178944195817
21
-254.5310731901539
31
0
0
LINE
5
443
100
AcDbEntity
8
0
100
AcDbLine
10
3265.107894419582
20
-251.76107319015389
30
0
11
3241.1178944195817
21
-251.76107319015389
31
0
0
LINE
5
444
100
AcDbEntity
8
0
100
AcDbLine
10
3354.1545610862486
20
-212.6010731901539
30
0
11
3354.1545610862486
21
-202.2810731901539
31
0
0
LINE
5
445
100
AcDbEntity
8
0
100
AcDbLine
10
3354.1545610862486
20
-202.2810731901539
30
0
11
3356.9245610862486
21
-202.2810731901539
31
0
0
LINE
5
446
100
AcDbEntity
8
0
100
AcDbLine
10
3354.1545610862486
20
-254.5310731901539
30
0
11
3378.2745610862485
21
-254.5310731901539
31
0
0
LINE
5
447
100
AcDbEntity
8
0
100
AcDbLine
10
3354.1545610862486
20
-233.5010731901539
30
0
11
3356.9245610862486
21
-233.5010731901539
31
0
0
LINE
5
448
100
AcDbEntity
8
0
100
AcDbLine
10
3354.1545610862486
20
-223.31107319015391
30
0
11
3354.1545610862486
21
-233.5010731901539
31
0
0
CIRCLE
5
449
100
AcDbEntity
8
0
100
AcDbCircle
10
3222.2378944195821
20
-220.63607319015389
30
0
40
4.749999999999968
210
0
220
0
230
1
0
LINE
5
450
100
AcDbEntity
8
0
100
AcDbLine
10
3241.1178944195817
20
-254.5310731901539
30
0
11
3265.107894419582
21
-254.5310731901539
31
0
0
LWPOLYLINE
5
451
100
AcDbEntity
8
0
100
AcDbPolyline
90
4
70
1
43
0.0
10
2875.2517448947578
20
306.42484165316182
10
2878.0217448947578
20
306.42484165316182
10
2878.0217448947578
20
276.22330319162336
10
2875.2517448947578
20
276.22330319162336
0
LINE
5
452
100
AcDbEntity
8
0
100
AcDbLine
10
2990.4045610862486
20
-254.5310731901539
30
0
11
2990.4045610862486
21
-220.63607319015389
31
0
0
LINE
5
453
100
AcDbEntity
8
0
100
AcDbLine
10
3124.9854285714282
20
0.0058333333325843581
30
0
11
3177.2354285714282
21
0.0058333333327910183
31
0
0
LINE
5
454
100
AcDbEntity
8
0
100
AcDbLine
10
3127.7554285714277
20
30.337371794871256
30
0
11
3124.9854285714282
21
30.337371794871256
31
0
0
LINE
5
455
100
AcDbEntity
8
0
100
AcDbLine
10
3472.6345610862491
20
-251.76107319015389
30
0
11
3472.6345610862491
21
-254.5310731901539
31
0
0
LINE
5
456
100
AcDbEntity
8
0
100
AcDbLine
10
3124.9854285714282
20
60.255833333332589
30
0
11
3135.5654285712722
21
60.255890717632383
31
0
0
LINE
5
457
100
AcDbEntity
8
0
100
AcDbLine
10
3124.9854285714282
20
0.0058333333325843581
30
0
11
3127.7554285714277
21
0.0058333333327862183
31
0
0
LWPOLYLINE
5
458
100
AcDbEntity
8
0
100
AcDbPolyline
90
4
70
1
43
0.0
10
3166.6649044110127
20
357.45224141148788
10
3166.6649044110127
20
360.22224141148791
10
3156.4749044110122
20
360.22224141148791
10
3156.4749044110122
20
357.45224141148788
0
LWPOLYLINE
5
459
100
AcDbEntity
8
0
100
AcDbPolyline
90
4
70
1
43
0.0
10
3127.7554285714273
20
274.02975641025597
10
3124.9854285714273
20
274.02975641025597
10
3124.9854285714273
20
243.82821794871751
10
3127.7554285714273
20
243.82821794871751
0
LINE
5
460
100
AcDbEntity
8
0
100
AcDbLine
10
3124.9854285714273
20
304.75121794871757
30
0
11
3124.9854285714273
21
334.95275641025603
31
0
0
LINE
5
461
100
AcDbEntity
8
0
100
AcDbLine
10
3127.7554285714273
20
334.95275641025603
30
0
11
3127.7554285714273
21
304.75121794871757
31
0
0
LWPOLYLINE
5
462
100
AcDbEntity
8
0
100
AcDbPolyline
90
4
70
1
43
0.0
10
3156.4654285714282
20
396.00583333333293
10
3156.4654285714282
20
393.23583333333289
10
3166.6554285714283
20
393.23583333333289
10
3166.6554285714283
20
396.00583333333293
0
LWPOLYLINE
5
463
100
AcDbEntity
8
0
100
AcDbPolyline
90
4
70
1
43
0.0
10
3145.7649044110121
20
357.45224141148788
10
3145.7649044110121
20
360.22224141148791
10
3135.5749044110121
20
360.22224141148791
10
3135.5749044110121
20
357.45224141148788
0
LINE
5
464
100
AcDbEntity
8
0
100
AcDbLine
10
3127.7554285714273
20
365.67429487179447
30
0
11
3124.9854285714273
21
365.67429487179447
31
0
0
LINE
5
465
100
AcDbEntity
8
0
100
AcDbLine
10
3124.9949577385114
20
360.25583318199091
30
0
11
3135.5749044110121
21
360.22224141148791
31
0
0
LINE
5
466
100
AcDbEntity
8
0
100
AcDbLine
10
3135.5654285714281
20
393.23583333333289
30
0
11
3135.5654285714281
21
396.00583333333293
31
0
0
LINE
5
467
100
AcDbEntity
8
0
100
AcDbLine
10
3177.2354285714282
20
396.00583333333259
30
0
11
3124.9854285714273
21
396.00583333333293
31
0
0
LINE
5
468
100
AcDbEntity
8
0
100
AcDbLine
10
3124.9854285714273
20
334.95275641025603
30
0
11
3127.7554285714273
21
334.95275641025603
31
0
0
LINE
5
469
100
AcDbEntity
8
0
100
AcDbLine
10
3124.9854285714273
20
365.67429487179447
30
0
11
3124.9854285714273
21
396.00583333333293
31
0
0
LINE
5
470
100
AcDbEntity
8
0
100
AcDbLine
10
3124.9854285714273
20
396.00583333333293
30
0
11
3127.7554285714273
21
396.00583333333293
31
0
0
LINE
5
471
100
AcDbEntity
8
0
100
AcDbLine
10
3124.9854285714273
20
396.00583333333293
30
0
11
3135.5654285714281
21
396.00583333333293
31
0
0
LINE
5
472
100
AcDbEntity
8
0
100
AcDbLine
10
3127.7554285714273
20
304.75121794871757
30
0
11
3124.9854285714273
21
304.75121794871757
31
0
0
LINE
5
473
100
AcDbEntity
8
0
100
AcDbLine
10
3124.9854285714273
20
365.67429487179447
30
0
11
3124.9854285714273
21
334.95275641025603
31
0
0
LINE
5
474
100
AcDbEntity
8
0
100
AcDbLine
10
3127.7554285714273
20
396.00583333333293
30
0
11
3127.7554285714273
21
365.67429487179447
31
0
0
LINE
5
475
100
AcDbEntity
8
0
100
AcDbLine
10
3135.5654285714281
20
396.00583333333293
30
0
11
3145.7554285714282
21
396.00583333333293
31
0
0
LINE
5
476
100
AcDbEntity
8
0
100
AcDbLine
10
3145.7554285714282
20
396.00583333333293
30
0
11
3145.7554285714282
21
393.23583333333289
31
0
0
LINE
5
477
100
AcDbEntity
8
0
100
AcDbLine
10
3145.7554285714282
20
393.23583333333289
30
0
11
3135.5654285714281
21
393.23583333333289
31
0
0
LINE
5
478
100
AcDbEntity
8
0
100
AcDbLine
10
3124.9854285714282
20
60.255833333332589
30
0
11
3124.9949577385114
21
360.25583318199091
31
0
0
LINE
5
479
100
AcDbEntity
8
0
100
AcDbLine
10
3124.9854285714273
20
396.00583333333293
30
0
11
3124.9854285714282
21
0.0058333333325843581
31
0
0
LINE
5
480
100
AcDbEntity
8
0
100
AcDbLine
10
3177.2354285714282
20
0.0058333333327910183
30
0
11
3177.2354285714282
21
396.00583333333259
31
0
0
LINE
5
481
100
AcDbEntity
8
0
100
AcDbLine
10
2986.5018474598601
20
1.9401712509883915
30
0
11
2986.5017874456653
21
19.840171250887785
31
0
0
LWPOLYLINE
5
482
100
AcDbEntity
8
0
100
AcDbPolyline
90
4
70
1
43
0.0
10
2996.5017448947578
20
62.732841653161849
10
2996.5017448947578
20
32.53130319162338
10
2993.7317448947579
20
32.531303191623365
10
2993.7317448947579
20
62.732841653161834
0
CIRCLE
5
483
100
AcDbEntity
8
0
100
AcDbCircle
10
2986.5017874456653
20
48.006837917554456
30
0
40
2.8850000000000002
210
0
220
0
230
1
0
LINE
5
484
100
AcDbEntity
8
0
100
AcDbLine
10
2996.5018474598037
20
1.9401712509883915
30
0
11
2986.5018474598601
21
1.9401712509883915
31
0
0
LWPOLYLINE
5
485
100
AcDbEntity
8
0
100
AcDbPolyline
90
4
70
1
43
0.0
10
2972.1218474604866
20
64.95976473025685
10
2972.1218474604866
20
62.18976473025684
10
2948.1318474604859
20
62.18976473025684
10
2948.1318474604864
20
64.95976473025685
0
LWPOLYLINE
5
486
100
AcDbEntity
8
0
100
AcDbPolyline
90
4
70
1
43
0.0
10
2948.1318474604859
20
4.7097647302568433
10
2972.1218474604857
20
4.7097647302568433
10
2972.1218474604857
20
1.9397647302568435
10
2948.1318474604855
20
1.9397647302568433
0
CIRCLE
5
487
100
AcDbEntity
8
0
100
AcDbCircle
10
2986.5017874456653
20
19.840171250887785
30
0
40
2.8850000000000002
210
0
220
0
230
1
0
CIRCLE
5
488
100
AcDbEntity
8
0
100
AcDbCircle
10
2986.5017874456653
20
33.923504584221121
30
0
40
2.8850000000000002
210
0
220
0
230
1
0
CIRCLE
5
489
100
AcDbEntity
8
0
100
AcDbCircle
10
2986.5017874456653
20
62.090171250887792
30
0
40
2.8850000000000002
210
0
220
0
230
1
0
CIRCLE
5
490
100
AcDbEntity
8
0
100
AcDbCircle
10
2885.2517874456653
20
48.006837917554456
30
0
40
2.8850000000000002
210
0
220
0
230
1
0
LINE
5
491
100
AcDbEntity
8
0
100
AcDbLine
10
2875.2518474604858
20
62.18976473025684
30
0
11
2875.2518474604858
21
72.18976473025684
31
0
0
LWPOLYLINE
5
492
100
AcDbEntity
8
0
100
AcDbPolyline
90
4
70
1
43
0.0
10
2923.6218474604862
20
62.18976473025684
10
2899.6318474604859
20
62.18976473025684
10
2899.6318474604864
20
64.95976473025685
10
2923.6218474604862
20
64.95976473025685
0
LINE
5
493
100
AcDbEntity
8
0
100
AcDbLine
10
2923.6218474604857
20
1.9397647302568435
30
0
11
2923.6218474604857
21
4.7097647302568433
31
0
0
LINE
5
494
100
AcDbEntity
8
0
100
AcDbLine
10
2875.2518474604854
20
1.9397647302568402
30
0
11
2899.631847460485
21
1.9397647302568435
31
0
0
LINE
5
495
100
AcDbEntity
8
0
100
AcDbLine
10
2875.2518474604854
20
1.9397647302568402
30
0
11
2875.2517560980937
21
29.18976473010369
31
0
0
LINE
5
496
100
AcDbEntity
8
0
100
AcDbLine
10
2878.0217448947578
20
32.53130319162338
30
0
11
2878.0217448947578
21
62.732841653161849
31
0
0
CIRCLE
5
497
100
AcDbEntity
8
0
100
AcDbCircle
10
2885.2517874456653
20
19.840171250887785
30
0
40
2.8850000000000002
210
0
220
0
230
1
0
LINE
5
498
100
AcDbEntity
8
0
100
AcDbLine
10
2875.2518474604854
20
1.9397647302568402
30
0
11
2875.2518474604858
21
62.18976473025684
31
0
0
LINE
5
499
100
AcDbEntity
8
0
100
AcDbLine
10
2875.2517448947578
20
62.732841653161834
30
0
11
2875.2517448947578
21
32.531303191623365
31
0
0
LINE
5
500
100
AcDbEntity
8
0
100
AcDbLine
10
2878.0217448947578
20
62.732841653161849
30
0
11
2875.2517448947578
21
62.732841653161834
31
0
0
CIRCLE
5
501
100
AcDbEntity
8
0
100
AcDbCircle
10
2885.2517874456653
20
33.923504584221121
30
0
40
2.8850000000000002
210
0
220
0
230
1
0
LINE
5
502
100
AcDbEntity
8
0
100
AcDbLine
10
2875.2518474604858
20
72.18976473025684
30
0
11
2895.2518474604858
21
72.18976473025684
31
0
0
LINE
5
503
100
AcDbEntity
8
0
100
AcDbLine
10
2899.6318474604859
20
4.7097647302568433
30
0
11
2899.631847460485
21
1.9397647302568435
31
0
0
CIRCLE
5
504
100
AcDbEntity
8
0
100
AcDbCircle
10
2885.2517874456653
20
62.090171250887792
30
0
40
2.8850000000000002
210
0
220
0
230
1
0
LINE
5
505
100
AcDbEntity
8
0
100
AcDbLine
10
2875.2518474604858
20
62.18976473025684
30
0
11
2899.6318474604859
21
62.18976473025684
31
0
0
LINE
5
506
100
AcDbEntity
8
0
100
AcDbLine
10
2923.6218474604857
20
4.7097647302568433
30
0
11
2899.6318474604859
21
4.7097647302568433
31
0
0
LINE
5
507
100
AcDbEntity
8
0
100
AcDbLine
10
2899.631847460485
20
1.9397647302568435
30
0
11
2923.6218474604857
21
1.9397647302568435
31
0
0
LINE
5
508
100
AcDbEntity
8
0
100
AcDbLine
10
2875.2517448947578
20
32.531303191623365
30
0
11
2878.0217448947578
21
32.53130319162338
31
0
0
LINE
5
509
100
AcDbEntity
8
0
100
AcDbLine
10
2875.2518474604854
20
1.9397647302568402
30
0
11
2875.2517448947578
21
32.531303191623365
31
0
0
LINE
5
510
100
AcDbEntity
8
0
100
AcDbLine
10
2875.2518474604854
20
1.9397647302568402
30
0
11
2996.5018474598037
21
1.9401712509883915
31
0
0
LINE
5
511
100
AcDbEntity
8
0
100
AcDbLine
10
2895.2518474604858
20
72.18976473025684
30
0
11
2976.5018474604858
21
72.18976473025684
31
0
0
LWPOLYLINE
5
512
100
AcDbEntity
8
0
100
AcDbPolyline
90
4
70
1
43
0.0
10
2878.0217448947578
20
184.57884165316185
10
2878.0217448947578
20
154.37730319162338
10
2875.2517448947578
20
154.37730319162338
10
2875.2517448947578
20
184.57884165316182
0
LWPOLYLINE
5
513
100
AcDbEntity
8
0
100
AcDbPolyline
90
4
70
1
43
0.0
10
2996.5017448947578
20
93.454303191623382
10
2993.7317448947579
20
93.454303191623353
10
2993.7317448947579
20
123.65584165316184
10
2996.5017448947578
20
123.65584165316186
0
LINE
5
514
100
AcDbEntity
8
0
100
AcDbLine
10
3192.4878944195821
20
-202.2810731901539
30
0
11
3313.7378944195821
21
-202.2810731901539
31
0
0
LWPOLYLINE
5
515
100
AcDbEntity
8
0
100
AcDbPolyline
90
4
70
1
43
0.0
10
2878.0217448947578
20
123.65584165316186
10
2878.0217448947578
20
93.454303191623382
10
2875.2517448947578
20
93.454303191623353
10
2875.2517448947578
20
123.65584165316184
0
LINE
5
516
100
AcDbEntity
8
0
100
AcDbLine
10
3216.6078944195815
20
-251.76107319015389
30
0
11
3192.4878944195821
21
-251.76107319015389
31
0
0
LINE
5
517
100
AcDbEntity
8
0
100
AcDbLine
10
3313.7378944195821
20
-254.5310731901539
30
0
11
3192.4878944195821
21
-254.5310731901539
31
0
0
LWPOLYLINE
5
518
100
AcDbEntity
8
0
100
AcDbPolyline
90
4
70
1
43
0.0
10
2993.7317448947579
20
154.37730319162338
10
2993.7317448947579
20
184.57884165316182
10
2996.5017448947578
20
184.57884165316185
10
2996.5017448947578
20
154.37730319162338
0
LINE
5
519
100
AcDbEntity
8
0
100
AcDbLine
10
3192.4878944195821
20
-254.5310731901539
30
0
11
3216.6078944195815
21
-254.5310731901539
31
0
0
LINE
5
520
100
AcDbEntity
8
0
100
AcDbLine
10
2875.2518474604854
20
397.93976473025685
30
0
11
2875.2518474604854
21
1.9397647302568402
31
0
0
LINE
5
521
100
AcDbEntity
8
0
100
AcDbLine
10
3192.4878944195821
20
-254.5310731901539
30
0
11
3195.257894419582
21
-254.5310731901539
31
0
0
LINE
5
522
100
AcDbEntity
8
0
100
AcDbLine
10
3192.4878944195821
20
-244.21107319015391
30
0
11
3192.4878944195821
21
-233.5010731901539
31
0
0
LINE
5
523
100
AcDbEntity
8
0
100
AcDbLine
10
3192.4878944195821
20
-251.76107319015389
30
0
11
3192.4878944195821
21
-254.5310731901539
31
0
0
LINE
5
524
100
AcDbEntity
8
0
100
AcDbLine
10
3192.4878944195821
20
-244.21107319015391
30
0
11
3192.4878944195821
21
-254.5310731901539
31
0
0
LINE
5
525
100
AcDbEntity
8
0
100
AcDbLine
10
3192.4878944195821
20
-223.31107319015391
30
0
11
3192.4878944195821
21
-233.5010731901539
31
0
0
LINE
5
526
100
AcDbEntity
8
0
100
AcDbLine
10
3195.257894419582
20
-233.5010731901539
30
0
11
3195.257894419582
21
-223.31107319015391
31
0
0
LWPOLYLINE
5
527
100
AcDbEntity
8
0
100
AcDbPolyline
90
4
70
1
43
0.0
10
2990.4045610862486
20
-254.5310731901539
10
2987.6345610862491
20
-254.5310731901539
10
2987.6345610862491
20
-244.21107319015391
10
2990.4045610862486
20
-244.21107319015391
0
LINE
5
528
100
AcDbEntity
8
0
100
AcDbLine
10
3192.4878944195821
20
-202.2810731901539
30
0
11
3195.257894419582
21
-202.2810731901539
31
0
0
LWPOLYLINE
5
529
100
AcDbEntity
8
0
100
AcDbPolyline
90
4
70
1
43
0.0
10
3149.301227752916
20
-202.2810731901539
10
3149.301227752916
20
-212.6010731901539
10
3152.0712277529155
20
-212.6010731901539
10
3152.0712277529155
20
-202.2810731901539
0
LWPOLYLINE
5
530
100
AcDbEntity
8
0
100
AcDbPolyline
90
4
70
1
43
0.0
10
2987.6345610862491
20
-212.6010731901539
10
2990.4045610862486
20
-212.6010731901539
10
2990.4045610862486
20
-202.2810731901539
10
2987.6345610862491
20
-202.2810731901539
0
LWPOLYLINE
5
531
100
AcDbEntity
8
0
100
AcDbPolyline
90
4
70
1
43
0.0
10
3149.301227752916
20
-244.21107319015391
10
3152.0712277529155
20
-244.21107319015391
10
3152.0712277529155
20
-254.5310731901539
10
3149.301227752916
20
-254.5310731901539
0
LWPOLYLINE
5
532
100
AcDbEntity
8
0
100
AcDbPolyline
90
4
70
1
43
0.0
10
2990.4045610862486
20
-233.5010731901539
10
2987.6345610862491
20
-233.5010731901539
10
2987.6345610862491
20
-223.31107319015391
10
2990.4045610862486
20
-223.31107319015391
0
LINE
5
533
100
AcDbEntity
8
0
100
AcDbLine
10
3195.257894419582
20
-244.21107319015391
30
0
11
3192.4878944195821
21
-244.21107319015391
31
0
0
LINE
5
534
100
AcDbEntity
8
0
100
AcDbLine
10
3195.257894419582
20
-212.6010731901539
30
0
11
3192.4878944195821
21
-212.6010731901539
31
0
0
LINE
5
535
100
AcDbEntity
8
0
100
AcDbLine
10
2990.4045610862486
20
-251.76107319015389
30
0
11
2990.4045610862486
21
-254.5310731901539
31
0
0
LINE
5
536
100
AcDbEntity
8
0
100
AcDbLine
10
3195.257894419582
20
-202.2810731901539
30
0
11
3195.257894419582
21
-212.6010731901539
31
0
0
LWPOLYLINE
5
537
100
AcDbEntity
8
0
100
AcDbPolyline
90
4
70
1
43
0.0
10
3149.301227752916
20
-223.31107319015391
10
3152.0712277529155
20
-223.31107319015391
10
3152.0712277529155
20
-233.5010731901539
10
3149.301227752916
20
-233.5010731901539
0
LINE
5
538
100
AcDbEntity
8
0
100
AcDbLine
10
2966.2845610862491
20
-254.5310731901539
30
0
11
2966.2845610862491
21
-251.76107319015389
31
0
0
LINE
5
539
100
AcDbEntity
8
0
100
AcDbLine
10
2990.4045610862486
20
-254.5310731901539
30
0
11
2966.2845610862491
21
-254.5310731901539
31
0
0
LWPOLYLINE
5
540
100
AcDbEntity
8
0
100
AcDbPolyline
90
4
70
1
43
0.0
10
2996.5017448947578
20
306.42484165316182
10
2996.5017448947578
20
276.22330319162336
10
2993.7317448947579
20
276.22330319162336
10
2993.7317448947579
20
306.42484165316182
0
LINE
5
541
100
AcDbEntity
8
0
100
AcDbLine
10
3152.0712277529155
20
-254.5310731901539
30
0
11
3152.0712277529155
21
-220.63607319015389
31
0
0
LINE
5
542
100
AcDbEntity
8
0
100
AcDbLine
10
2990.4045610862486
20
-202.2810731901539
30
0
11
2990.4045610862486
21
-254.5310731901539
31
0
0
LINE
5
543
100
AcDbEntity
8
0
100
AcDbLine
10
3192.4878944195821
20
-212.6010731901539
30
0
11
3192.4878944195821
21
-202.2810731901539
31
0
0
LWPOLYLINE
5
544
100
AcDbEntity
8
0
100
AcDbPolyline
90
4
70
1
43
0.0
10
2996.5017448947578
20
245.50184165316182
10
2996.5017448947578
20
215.30030319162336
10
2993.7317448947579
20
215.30030319162336
10
2993.7317448947579
20
245.50184165316182
0
LINE
5
545
100
AcDbEntity
8
0
100
AcDbLine
10
3152.0712277529155
20
-251.76107319015389
30
0
11
3152.0712277529155
21
-254.5310731901539
31
0
0
LWPOLYLINE
5
546
100
AcDbEntity
8
0
100
AcDbPolyline
90
4
70
1
43
0.0
10
2875.2517448947578
20
245.50184165316182
10
2878.0217448947578
20
245.50184165316182
10
2878.0217448947578
20
215.30030319162336
10
2875.2517448947578
20
215.30030319162336
0
LINE
5
547
100
AcDbEntity
8
0
100
AcDbLine
10
3195.257894419582
20
-254.5310731901539
30
0
11
3195.257894419582
21
-244.21107319015391
31
0
0
LINE
5
548
100
AcDbEntity
8
0
100
AcDbLine
10
2987.6345610862491
20
-251.76107319015389
30
0
11
2987.6345610862491
21
-254.5310731901539
31
0
0
LINE
5
549
100
AcDbEntity
8
0
100
AcDbLine
10
3192.4878944195821
20
-233.5010731901539
30
0
11
3195.257894419582
21
-233.5010731901539
31
0
0
LINE
5
550
100
AcDbEntity
8
0
100
AcDbLine
10
3195.257894419582
20
-223.31107319015391
30
0
11
3192.4878944195821
21
-223.31107319015391
31
0
0
LINE
5
551
100
AcDbEntity
8
0
100
AcDbLine
10
3192.4878944195821
20
-254.5310731901539
30
0
11
3192.4878944195821
21
-202.2810731901539
31
0
0
LINE
5
552
100
AcDbEntity
8
0
100
AcDbLine
10
3152.0712277529155
20
-202.2810731901539
30
0
11
3152.0712277529155
21
-254.5310731901539
31
0
0
LINE
5
553
100
AcDbEntity
8
0
100
AcDbLine
10
2990.4045610862486
20
-230.63607319015389
30
0
11
2929.7795610862486
21
-230.63607319015389
31
0
0
LINE
5
554
100
AcDbEntity
8
0
100
AcDbLine
10
2990.4045610862486
20
-220.63607319015389
30
0
11
2960.6545610862486
21
-220.63607319015389
31
0
0
LINE
5
555
100
AcDbEntity
8
0
100
AcDbLine
10
3149.301227752916
20
-251.76107319015389
30
0
11
3149.301227752916
21
-254.5310731901539
31
0
0
LINE
5
556
100
AcDbEntity
8
0
100
AcDbLine
10
2871.9245610862486
20
-233.5010731901539
30
0
11
2871.9245610862486
21
-223.31107319015391
31
0
0
LINE
5
557
100
AcDbEntity
8
0
100
AcDbLine
10
2869.1545610862486
20
-244.21107319015391
30
0
11
2869.1545610862486
21
-254.5310731901539
31
0
0
LWPOLYLINE
5
558
100
AcDbEntity
8
0
100
AcDbPolyline
90
4
70
1
43
0.0
10
2972.1218474604857
20
397.93976473025685
10
2972.1218474604857
20
395.16976473025687
10
2948.1318474604855
20
395.16976473025687
10
2948.1318474604859
20
397.93976473025685
0
LINE
5
559
100
AcDbEntity
8
0
100
AcDbLine
10
3054.9412277529154
20
-251.76107319015389
30
0
11
3030.8212277529155
21
-251.76107319015389
31
0
0
LINE
5
560
100
AcDbEntity
8
0
100
AcDbLine
10
2869.1545610862486
20
-202.2810731901539
30
0
11
2871.9245610862486
21
-202.2810731901539
31
0
0
LWPOLYLINE
5
561
100
AcDbEntity
8
0
100
AcDbPolyline
90
4
70
1
43
0.0
10
2993.7317448947579
20
337.14630319162336
10
2993.7317448947579
20
367.34784165316182
10
2996.5017448947578
20
367.34784165316182
10
2996.5017448947578
20
337.14630319162336
0
LINE
5
562
100
AcDbEntity
8
0
100
AcDbLine
10
3030.8212277529155
20
-233.5010731901539
30
0
11
3033.5912277529155
21
-233.5010731901539
31
0
0
LINE
5
563
100
AcDbEntity
8
0
100
AcDbLine
10
2869.1545610862486
20
-254.5310731901539
30
0
11
2869.1545610862486
21
-202.2810731901539
31
0
0
LINE
5
564
100
AcDbEntity
8
0
100
AcDbLine
10
3030.8212277529155
20
-202.2810731901539
30
0
11
3033.5912277529155
21
-202.2810731901539
31
0
0
LINE
5
565
100
AcDbEntity
8
0
100
AcDbLine
10
2869.1545610862486
20
-251.76107319015389
30
0
11
2869.1545610862486
21
-254.5310731901539
31
0
0
LINE
5
566
100
AcDbEntity
8
0
100
AcDbLine
10
2893.2745610862485
20
-254.5310731901539
30
0
11
2893.2745610862485
21
-251.76107319015389
31
0
0
LINE
5
567
100
AcDbEntity
8
0
100
AcDbLine
10
3033.5912277529155
20
-202.2810731901539
30
0
11
3033.5912277529155
21
-212.6010731901539
31
0
0
LINE
5
568
100
AcDbEntity
8
0
100
AcDbLine
10
2869.1545610862486
20
-223.31107319015391
30
0
11
2869.1545610862486
21
-233.5010731901539
31
0
0
LINE
5
569
100
AcDbEntity
8
0
100
AcDbLine
10
3079.4512277529157
20
-251.76107319015389
30
0
11
3079.4512277529157
21
-254.5310731901539
31
0
0
LWPOLYLINE
5
570
100
AcDbEntity
8
0
100
AcDbPolyline
90
4
70
1
43
0.0
10
2878.0217448947578
20
337.14630319162336
10
2875.2517448947578
20
337.14630319162336
10
2875.2517448947578
20
367.34784165316182
10
2878.0217448947578
20
367.34784165316182
0
LINE
5
571
100
AcDbEntity
8
0
100
AcDbLine
10
2871.9245610862486
20
-254.5310731901539
30
0
11
2871.9245610862486
21
-244.21107319015391
31
0
0
LINE
5
572
100
AcDbEntity
8
0
100
AcDbLine
10
3079.4512277529157
20
-254.5310731901539
30
0
11
3103.4412277529154
21
-254.5310731901539
31
0
0
CIRCLE
5
573
100
AcDbEntity
8
0
100
AcDbCircle
10
2986.5018474598037
20
337.78976473025688
30
0
40
2.8850000000000002
210
0
220
0
230
1
0
LINE
5
574
100
AcDbEntity
8
0
100
AcDbLine
10
2871.9245610862486
20
-212.6010731901539
30
0
11
2869.1545610862486
21
-212.6010731901539
31
0
0
LINE
5
575
100
AcDbEntity
8
0
100
AcDbLine
10
2986.5018474598037
20
397.93976473025685
30
0
11
2986.5018474598037
21
380.03976473025688
31
0
0
CIRCLE
5
576
100
AcDbEntity
8
0
100
AcDbCircle
10
2898.904561086249
20
-220.63607319015389
30
0
40
4.749999999999968
210
0
220
0
230
1
0
LINE
5
577
100
AcDbEntity
8
0
100
AcDbLine
10
3127.9512277529157
20
-254.5310731901539
30
0
11
3127.9512277529157
21
-251.76107319015389
31
0
0
LINE
5
578
100
AcDbEntity
8
0
100
AcDbLine
10
2976.5018474604858
20
352.18976473025685
30
0
11
2895.2518474604858
21
352.18976473025685
31
0
0
LINE
5
579
100
AcDbEntity
8
0
100
AcDbLine
10
2917.7845610862487
20
-251.76107319015389
30
0
11
2917.7845610862487
21
-254.5310731901539
31
0
0
LINE
5
580
100
AcDbEntity
8
0
100
AcDbLine
10
3033.5912277529155
20
-254.5310731901539
30
0
11
3033.5912277529155
21
-244.21107319015391
31
0
0
LINE
5
581
100
AcDbEntity
8
0
100
AcDbLine
10
2869.1545610862486
20
-254.5310731901539
30
0
11
2893.2745610862485
21
-254.5310731901539
31
0
0
LWPOLYLINE
5
582
100
AcDbEntity
8
0
100
AcDbPolyline
90
4
70
1
43
0.0
10
2899.6318474604859
20
362.1897647302568
10
2923.6218474604857
20
362.1897647302568
10
2923.6218474604857
20
359.41976473025676
10
2899.631847460485
20
359.41976473025676
0
LINE
5
583
100
AcDbEntity
8
0
100
AcDbLine
10
3033.5912277529155
20
-244.21107319015391
30
0
11
3030.8212277529155
21
-244.21107319015391
31
0
0
LINE
5
584
100
AcDbEntity
8
0
100
AcDbLine
10
2871.9245610862486
20
-244.21107319015391
30
0
11
2869.1545610862486
21
-244.21107319015391
31
0
0
LINE
5
585
100
AcDbEntity
8
0
100
AcDbLine
10
3030.8212277529155
20
-244.21107319015391
30
0
11
3030.8212277529155
21
-233.5010731901539
31
0
0
LWPOLYLINE
5
586
100
AcDbEntity
8
0
100
AcDbPolyline
90
4
70
1
43
0.0
10
2972.1218474604857
20
359.41976473025676
10
2948.1318474604855
20
359.41976473025676
10
2948.1318474604859
20
362.1897647302568
10
2972.1218474604857
20
362.1897647302568
0
LINE
5
587
100
AcDbEntity
8
0
100
AcDbLine
10
2869.1545610862486
20
-254.5310731901539
30
0
11
2871.9245610862486
21
-254.5310731901539
31
0
0
LINE
5
588
100
AcDbEntity
8
0
100
AcDbLine
10
3033.5912277529155
20
-212.6010731901539
30
0
11
3030.8212277529155
21
-212.6010731901539
31
0
0
LINE
5
589
100
AcDbEntity
8
0
100
AcDbLine
10
2869.1545610862486
20
-212.6010731901539
30
0
11
2869.1545610862486
21
-202.2810731901539
31
0
0
LINE
5
590
100
AcDbEntity
8
0
100
AcDbLine
10
2917.7845610862487
20
-254.5310731901539
30
0
11
2941.7745610862489
21
-254.5310731901539
31
0
0
LINE
5
591
100
AcDbEntity
8
0
100
AcDbLine
10
3030.8212277529155
20
-212.6010731901539
30
0
11
3030.8212277529155
21
-202.2810731901539
31
0
0
LINE
5
592
100
AcDbEntity
8
0
100
AcDbLine
10
2869.1545610862486
20
-202.2810731901539
30
0
11
2990.4045610862486
21
-202.2810731901539
31
0
0
LINE
5
593
100
AcDbEntity
8
0
100
AcDbLine
10
3033.5912277529155
20
-223.31107319015391
30
0
11
3030.8212277529155
21
-223.31107319015391
31
0
0
CIRCLE
5
594
100
AcDbEntity
8
0
100
AcDbCircle
10
2929.7795610862486
20
-230.63607319015392
30
0
40
11.25
210
0
220
0
230
1
0
LINE
5
595
100
AcDbEntity
8
0
100
AcDbLine
10
3030.8212277529155
20
-254.5310731901539
30
0
11
3030.8212277529155
21
-202.2810731901539
31
0
0
LINE
5
596
100
AcDbEntity
8
0
100
AcDbLine
10
2941.7745610862489
20
-251.76107319015389
30
0
11
2917.7845610862487
21
-251.76107319015389
31
0
0
LINE
5
597
100
AcDbEntity
8
0
100
AcDbLine
10
2990.4045610862486
20
-254.5310731901539
30
0
11
2869.1545610862486
21
-254.5310731901539
31
0
0
LINE
5
598
100
AcDbEntity
8
0
100
AcDbLine
10
3030.8212277529155
20
-254.5310731901539
30
0
11
3033.5912277529155
21
-254.5310731901539
31
0
0
LINE
5
599
100
AcDbEntity
8
0
100
AcDbLine
10
2996.5018474598037
20
397.93976473025685
30
0
11
2875.2518474604854
21
397.93976473025685
31
0
0
LINE
5
600
100
AcDbEntity
8
0
100
AcDbLine
10
2895.2518474604858
20
352.18976473025685
30
0
11
2895.2518474604858
21
72.18976473025684
31
0
0
LINE
5
601
100
AcDbEntity
8
0
100
AcDbLine
10
3030.8212277529155
20
-251.76107319015389
30
0
11
3030.8212277529155
21
-254.5310731901539
31
0
0
CIRCLE
5
602
100
AcDbEntity
8
0
100
AcDbCircle
10
2986.5018474598037
20
380.03976473025688
30
0
40
2.8850000000000002
210
0
220
0
230
1
0
LINE
5
603
100
AcDbEntity
8
0
100
AcDbLine
10
3030.8212277529155
20
-202.2810731901539
30
0
11
3152.0712277529155
21
-202.2810731901539
31
0
0
LINE
5
604
100
AcDbEntity
8
0
100
AcDbLine
10
3030.8212277529155
20
-244.21107319015391
30
0
11
3030.8212277529155
21
-254.5310731901539
31
0
0
CIRCLE
5
605
100
AcDbEntity
8
0
100
AcDbCircle
10
2986.5018474598037
20
351.87309806359019
30
0
40
2.8850000000000002
210
0
220
0
230
1
0
LINE
5
606
100
AcDbEntity
8
0
100
AcDbLine
10
3127.9512277529157
20
-251.76107319015389
30
0
11
3152.0712277529155
21
-251.76107319015389
31
0
0
LINE
5
607
100
AcDbEntity
8
0
100
AcDbLine
10
3030.8212277529155
20
-223.31107319015391
30
0
11
3030.8212277529155
21
-233.5010731901539
31
0
0
CIRCLE
5
608
100
AcDbEntity
8
0
100
AcDbCircle
10
2885.2518474598037
20
337.78976473025688
30
0
40
2.8850000000000002
210
0
220
0
230
1
0
LINE
5
609
100
AcDbEntity
8
0
100
AcDbLine
10
3152.0712277529155
20
-254.5310731901539
30
0
11
3030.8212277529155
21
-254.5310731901539
31
0
0
LINE
5
610
100
AcDbEntity
8
0
100
AcDbLine
10
2996.5018474598037
20
397.93976473025685
30
0
11
2986.5018474598037
21
397.93976473025685
31
0
0
LINE
5
611
100
AcDbEntity
8
0
100
AcDbLine
10
3033.5912277529155
20
-233.5010731901539
30
0
11
3033.5912277529155
21
-223.31107319015391
31
0
0
LINE
5
612
100
AcDbEntity
8
0
100
AcDbLine
10
3152.0712277529155
20
-254.5310731901539
30
0
11
3127.9512277529157
21
-254.5310731901539
31
0
0
LINE
5
613
100
AcDbEntity
8
0
100
AcDbLine
10
2976.5018474604858
20
72.18976473025684
30
0
11
2976.5018474604858
21
352.18976473025685
31
0
0
LINE
5
614
100
AcDbEntity
8
0
100
AcDbLine
10
2996.5018474598037
20
1.9401712509883915
30
0
11
2996.5018474598037
21
397.93976473025685
31
0
0
LWPOLYLINE
5
615
100
AcDbEntity
8
0
100
AcDbPolyline
90
4
70
1
43
0.0
10
2899.6318474604859
20
397.93976473025685
10
2923.6218474604857
20
397.93976473025685
10
2923.6218474604857
20
395.16976473025687
10
2899.631847460485
20
395.16976473025687
0
LINE
5
616
100
AcDbEntity
8
0
100
AcDbLine
10
2875.2518474604858
20
62.18976473025684
30
0
11
2875.2518474604858
21
362.1897647302568
31
0
0
CIRCLE
5
617
100
AcDbEntity
8
0
100
AcDbCircle
10
2986.5018474598037
20
365.95643139692356
30
0
40
2.8850000000000002
210
0
220
0
230
1
0
LINE
5
618
100
AcDbEntity
8
0
100
AcDbLine
10
2875.2518474604858
20
362.1897647302568
30
0
11
2899.6318474604859
21
362.1897647302568
31
0
0
CIRCLE
5
619
100
AcDbEntity
8
0
100
AcDbCircle
10
2885.2518474598037
20
351.87309806359019
30
0
40
2.8850000000000002
210
0
220
0
230
1
0
LINE
5
620
100
AcDbEntity
8
0
100
AcDbLine
10
2941.7745610862489
20
-254.5310731901539
30
0
11
2941.7745610862489
21
-251.76107319015389
31
0
0
CIRCLE
5
621
100
AcDbEntity
8
0
100
AcDbCircle
10
2960.6545610862486
20
-220.63607319015389
30
0
40
4.749999999999968
210
0
220
0
230
1
0
CIRCLE
5
622
100
AcDbEntity
8
0
100
AcDbCircle
10
2945.1591335770563
20
-215.25650069934665
30
0
40
2.184999999999965
210
0
220
0
230
1
0
CIRCLE
5
623
100
AcDbEntity
8
0
100
AcDbCircle
10
2945.1591335770563
20
-246.01564568096143
30
0
40
2.1849999999999605
210
0
220
0
230
1
0
LINE
5
624
100
AcDbEntity
8
0
100
AcDbLine
10
3152.0712277529155
20
-254.5310731901539
30
0
11
3152.0712277529155
21
-230.63607319015389
31
0
0
LINE
5
625
100
AcDbEntity
8
0
100
AcDbLine
10
2966.2845610862491
20
-251.76107319015389
30
0
11
2990.4045610862486
21
-251.76107319015389
31
0
0
LINE
5
626
100
AcDbEntity
8
0
100
AcDbLine
10
2990.4045610862486
20
-254.5310731901539
30
0
11
2990.4045610862486
21
-230.63607319015389
31
0
0
LINE
5
627
100
AcDbEntity
8
0
100
AcDbLine
10
2929.7795610862486
20
-230.63607319015392
30
0
11
2929.7795610862486
21
-202.2810731901539
31
0
0
LINE
5
628
100
AcDbEntity
8
0
100
AcDbLine
10
3054.9412277529154
20
-254.5310731901539
30
0
11
3079.4512277529157
21
-254.5310731901539
31
0
0
CIRCLE
5
629
100
AcDbEntity
8
0
100
AcDbCircle
10
2914.3999885954413
20
-246.01564568096123
30
0
40
2.1850000000000485
210
0
220
0
230
1
0
LINE
5
630
100
AcDbEntity
8
0
100
AcDbLine
10
3054.9412277529154
20
-254.5310731901539
30
0
11
3054.9412277529154
21
-251.76107319015389
31
0
0
LINE
5
631
100
AcDbEntity
8
0
100
AcDbLine
10
2869.1545610862486
20
-233.5010731901539
30
0
11
2871.9245610862486
21
-233.5010731901539
31
0
0
LINE
5
632
100
AcDbEntity
8
0
100
AcDbLine
10
2869.1545610862486
20
-244.21107319015391
30
0
11
2869.1545610862486
21
-233.5010731901539
31
0
0
LINE
5
633
100
AcDbEntity
8
0
100
AcDbLine
10
3030.8212277529155
20
-254.5310731901539
30
0
11
3054.9412277529154
21
-254.5310731901539
31
0
0
LINE
5
634
100
AcDbEntity
8
0
100
AcDbLine
10
2871.9245610862486
20
-202.2810731901539
30
0
11
2871.9245610862486
21
-212.6010731901539
31
0
0
CIRCLE
5
635
100
AcDbEntity
8
0
100
AcDbCircle
10
2885.2518474598037
20
380.03976473025688
30
0
40
2.8850000000000002
210
0
220
0
230
1
0
CIRCLE
5
636
100
AcDbEntity
8
0
100
AcDbCircle
10
3122.3212277529155
20
-220.63607319015389
30
0
40
4.749999999999968
210
0
220
0
230
1
0
CIRCLE
5
637
100
AcDbEntity
8
0
100
AcDbCircle
10
2914.3999885954418
20
-215.25650069934665
30
0
40
2.184999999999973
210
0
220
0
230
1
0
CIRCLE
5
638
100
AcDbEntity
8
0
100
AcDbCircle
10
3060.571227752916
20
-220.63607319015389
30
0
40
4.749999999999968
210
0
220
0
230
1
0
CIRCLE
5
639
100
AcDbEntity
8
0
100
AcDbCircle
10
2885.2518474598037
20
365.95643139692356
30
0
40
2.8850000000000002
210
0
220
0
230
1
0
LINE
5
640
100
AcDbEntity
8
0
100
AcDbLine
10
2893.2745610862485
20
-254.5310731901539
30
0
11
2917.7845610862487
21
-254.5310731901539
31
0
0
LINE
5
641
100
AcDbEntity
8
0
100
AcDbLine
10
2893.2745610862485
20
-251.76107319015389
30
0
11
2869.1545610862486
21
-251.76107319015389
31
0
0
LINE
5
642
100
AcDbEntity
8
0
100
AcDbLine
10
3103.4412277529154
20
-251.76107319015389
30
0
11
3079.4512277529157
21
-251.76107319015389
31
0
0
LINE
5
643
100
AcDbEntity
8
0
100
AcDbLine
10
2871.9245610862486
20
-223.31107319015391
30
0
11
2869.1545610862486
21
-223.31107319015391
31
0
0
LINE
5
644
100
AcDbEntity
8
0
100
AcDbLine
10
3103.4412277529154
20
-254.5310731901539
30
0
11
3103.4412277529154
21
-251.76107319015389
31
0
0
LWPOLYLINE
5
645
100
AcDbEntity
8
0
100
AcDbPolyline
90
4
70
1
43
0.0
10
3274.9854285714273
20
152.183756410256
10
3274.9854285714273
20
121.98221794871753
10
3277.7554285714273
20
121.98221794871753
10
3277.7554285714273
20
152.183756410256
0
LWPOLYLINE
5
646
100
AcDbEntity
8
0
100
AcDbPolyline
90
4
70
1
43
0.0
10
3274.9854285714273
20
213.10675641025597
10
3274.9854285714273
20
182.90521794871751
10
3277.7554285714273
20
182.90521794871751
10
3277.7554285714273
20
213.10675641025597
0
LWPOLYLINE
5
647
100
AcDbEntity
8
0
100
AcDbPolyline
90
4
70
1
43
0.0
10
3285.5654285714281
20
-0.054166666667091495
10
3295.7554285714282
20
-0.054166666667091468
10
3295.7554285714282
20
2.7158333333329199
10
3285.5654285714281
20
2.7158333333329194
0
LWPOLYLINE
5
648
100
AcDbEntity
8
0
100
AcDbPolyline
90
4
70
1
43
0.0
10
3306.4654285712727
20
60.255890717632383
10
3316.6554285712728
20
60.255890717632383
10
3316.6554285712728
20
63.025890717632393
10
3306.4654285712727
20
63.025890717632393
0
LWPOLYLINE
5
649
100
AcDbEntity
8
0
100
AcDbPolyline
90
4
70
1
43
0.0
10
3306.4654285714282
20
-0.054166666667091495
10
3316.6554285714283
20
-0.054166666667091468
10
3316.6554285714283
20
2.7158333333329199
10
3306.4654285714282
20
2.7158333333329194
0
LINE
5
650
100
AcDbEntity
8
0
100
AcDbLine
10
3274.9854285714282
20
30.337371794871256
30
0
11
3274.9854285714282
21
0.0058333333447529844
31
0
0
LWPOLYLINE
5
651
100
AcDbEntity
8
0
100
AcDbPolyline
90
4
70
1
43
0.0
10
3277.7554285714273
20
61.05921794871751
10
3277.7554285714273
20
91.260756410255965
10
3274.9854285714273
20
91.260756410255965
10
3274.9854285714273
20
61.05921794871751
0
LINE
5
652
100
AcDbEntity
8
0
100
AcDbLine
10
3274.9854285714282
20
0.0058333333447529844
30
0
11
3277.7554285714277
21
0.0058333333327862183
31
0
0
LINE
5
653
100
AcDbEntity
8
0
100
AcDbLine
10
3274.9854285714282
20
0.0058333333447529844
30
0
11
3327.2354285714282
21
0.0058333333327910183
31
0
0
LWPOLYLINE
5
654
100
AcDbEntity
8
0
100
AcDbPolyline
90
4
70
1
43
0.0
10
3295.7554285712722
20
60.255890717632383
10
3295.7554285712722
20
63.025890717632393
10
3285.5654285712722
20
63.025890717632393
10
3285.5654285712722
20
60.255890717632383
0
LINE
5
655
100
AcDbEntity
8
0
100
AcDbLine
10
3274.9854285714282
20
0.0058333333447529844
30
0
11
3274.9854285714282
21
60.255833333332589
31
0
0
LINE
5
656
100
AcDbEntity
8
0
100
AcDbLine
10
3274.9854285714282
20
60.255833333332589
30
0
11
3285.5654285712722
21
60.255890717632383
31
0
0
LINE
5
657
100
AcDbEntity
8
0
100
AcDbLine
10
3277.7554285714277
20
30.337371794871256
30
0
11
3274.9854285714282
21
30.337371794871256
31
0
0
LINE
5
658
100
AcDbEntity
8
0
100
AcDbLine
10
3277.7554285714277
20
0.0058333333327862183
30
0
11
3277.7554285714277
21
30.337371794871256
31
0
0
LINE
5
659
100
AcDbEntity
8
0
100
AcDbLine
10
3274.9854285714282
20
60.255833333332589
30
0
11
3274.9949577385114
21
360.25583318199091
31
0
0
LINE
5
660
100
AcDbEntity
8
0
100
AcDbLine
10
3274.9854285714273
20
396.00583333333293
30
0
11
3274.9854285714282
21
0.0058333333447529844
31
0
0
LINE
5
661
100
AcDbEntity
8
0
100
AcDbLine
10
3327.2354285714282
20
0.0058333333327910183
30
0
11
3327.2354285714282
21
396.00583333333259
31
0
0
LINE
5
662
100
AcDbEntity
8
0
100
AcDbLine
10
3274.9854285714273
20
334.95275641025603
30
0
11
3277.7554285714273
21
334.95275641025603
31
0
0
LINE
5
663
100
AcDbEntity
8
0
100
AcDbLine
10
3274.9854285714273
20
365.67429487179425
30
0
11
3274.9854285714273
21
334.95275641025603
31
0
0
LWPOLYLINE
5
664
100
AcDbEntity
8
0
100
AcDbPolyline
90
4
70
1
43
0.0
10
3277.7554285714273
20
243.82821794871751
10
3277.7554285714273
20
274.02975641025597
10
3274.9854285714273
20
274.02975641025597
10
3274.9854285714273
20
243.82821794871751
0
LINE
5
665
100
AcDbEntity
8
0
100
AcDbLine
10
3277.7554285714273
20
304.75121794871757
30
0
11
3274.9854285714273
21
304.75121794871757
31
0
0
LINE
5
666
100
AcDbEntity
8
0
100
AcDbLine
10
3274.9854285714273
20
304.75121794871757
30
0
11
3274.9854285714273
21
334.95275641025603
31
0
0
LINE
5
667
100
AcDbEntity
8
0
100
AcDbLine
10
3274.9854285714273
20
365.67429487179425
30
0
11
3274.9854285714273
21
396.00583333333293
31
0
0
LWPOLYLINE
5
668
100
AcDbEntity
8
0
100
AcDbPolyline
90
4
70
1
43
0.0
10
3306.4749044110122
20
357.45224141148788
10
3316.6649044110127
20
357.45224141148788
10
3316.6649044110127
20
360.22224141148791
10
3306.4749044110122
20
360.22224141148791
0
LWPOLYLINE
5
669
100
AcDbEntity
8
0
100
AcDbPolyline
90
4
70
1
43
0.0
10
3316.6554285714283
20
393.23583333333289
10
3316.6554285714283
20
396.00583333333293
10
3306.4654285714282
20
396.00583333333293
10
3306.4654285714282
20
393.23583333333289
0
LINE
5
670
100
AcDbEntity
8
0
100
AcDbLine
10
3277.7554285714273
20
334.95275641025603
30
0
11
3277.7554285714273
21
304.75121794871757
31
0
0
LINE
5
671
100
AcDbEntity
8
0
100
AcDbLine
10
3327.2354285714282
20
396.00583333333259
30
0
11
3274.9854285714273
21
396.00583333333293
31
0
0
LINE
5
672
100
AcDbEntity
8
0
100
AcDbLine
10
3295.7554285714282
20
393.23583333333289
30
0
11
3285.5654285714281
21
393.23583333333289
31
0
0
LINE
5
673
100
AcDbEntity
8
0
100
AcDbLine
10
3277.7554285714273
20
396.00583333333293
30
0
11
3277.7554285714273
21
365.67429487179447
31
0
0
LINE
5
674
100
AcDbEntity
8
0
100
AcDbLine
10
3274.9949577385114
20
360.25583318199091
30
0
11
3285.5749044110121
21
360.22224141148791
31
0
0
LWPOLYLINE
5
675
100
AcDbEntity
8
0
100
AcDbPolyline
90
4
70
1
43
0.0
10
3285.5749044110121
20
360.22224141148791
10
3285.5749044110121
20
357.45224141148788
10
3295.7649044110121
20
357.45224141148788
10
3295.7649044110121
20
360.22224141148791
0
LINE
5
676
100
AcDbEntity
8
0
100
AcDbLine
10
3277.7554285714273
20
365.67429487179447
30
0
11
3274.9854285714273
21
365.67429487179425
31
0
0
LINE
5
677
100
AcDbEntity
8
0
100
AcDbLine
10
3274.9854285714273
20
396.00583333333293
30
0
11
3277.7554285714273
21
396.00583333333293
31
0
0
LINE
5
678
100
AcDbEntity
8
0
100
AcDbLine
10
3274.9854285714273
20
396.00583333333293
30
0
11
3285.5654285714281
21
396.00583333333293
31
0
0
LINE
5
679
100
AcDbEntity
8
0
100
AcDbLine
10
3295.7554285714282
20
396.00583333333293
30
0
11
3295.7554285714282
21
393.23583333333289
31
0
0
LINE
5
680
100
AcDbEntity
8
0
100
AcDbLine
10
3285.5654285714281
20
396.00583333333293
30
0
11
3295.7554285714282
21
396.00583333333293
31
0
0
LINE
5
681
100
AcDbEntity
8
0
100
AcDbLine
10
3285.5654285714281
20
393.23583333333289
30
0
11
3285.5654285714281
21
396.00583333333293
31
0
0
LINE
5
682
100
AcDbEntity
8
0
100
AcDbLine
10
5197.0068917548651
20
370.49673891788842
30
0
11
5197.0068917548651
21
398.8517389178885
31
0
0
LINE
5
683
100
AcDbEntity
8
0
100
AcDbLine
10
5207.5118917548652
20
349.37173891788854
30
0
11
5223.1318917548651
21
349.37173891788854
31
0
0
LINE
5
684
100
AcDbEntity
8
0
100
AcDbLine
10
5207.5118917548652
20
346.6017389178885
30
0
11
5207.5118917548652
21
349.37173891788854
31
0
0
CIRCLE
5
685
100
AcDbEntity
8
0
100
AcDbCircle
10
5212.3864642456729
20
355.11716642708097
30
0
40
2.1849999999999605
210
0
220
0
230
1
0
LWPOLYLINE
5
686
100
AcDbEntity
8
0
100
AcDbPolyline
90
4
70
1
43
0.0
10
5223.1318917548651
20
363.95340558455524
10
5223.1318917548651
20
381.30507225122187
10
5220.3618917548647
20
381.30507225122187
10
5220.3618917548647
20
363.95340558455524
0
LINE
5
687
100
AcDbEntity
8
0
100
AcDbLine
10
5173.6518917548638
20
381.30507225122187
30
0
11
5173.6518917548638
21
363.95340558455524
31
0
0
LINE
5
688
100
AcDbEntity
8
0
100
AcDbLine
10
5223.1318917548651
20
398.8517389178885
30
0
11
5170.8818917548651
21
398.85173891788827
31
0
0
LINE
5
689
100
AcDbEntity
8
0
100
AcDbLine
10
5175.8818917548651
20
346.6017389178885
30
0
11
5170.8818917548651
21
346.6017389178885
31
0
0
CIRCLE
5
690
100
AcDbEntity
8
0
100
AcDbCircle
10
5212.3864642456729
20
385.87631140869576
30
0
40
2.184999999999965
210
0
220
0
230
1
0
LINE
5
691
100
AcDbEntity
8
0
100
AcDbLine
10
5170.8818917548651
20
381.30507225122187
30
0
11
5173.6518917548638
21
381.30507225122187
31
0
0
LWPOLYLINE
5
692
100
AcDbEntity
8
0
100
AcDbPolyline
90
3
70
1
43
0.0
10
5175.8818917548651
20
398.8517389178885
10
5197.0068917548651
20
398.8517389178885
10
5218.1318917548651
20
398.8517389178885
0
LINE
5
693
100
AcDbEntity
8
0
100
AcDbLine
10
5170.8818917548651
20
346.6017389178885
30
0
11
5186.501891754865
21
346.6017389178885
31
0
0
LINE
5
694
100
AcDbEntity
8
0
100
AcDbLine
10
5186.501891754865
20
346.6017389178885
30
0
11
5186.501891754865
21
349.37173891788854
31
0
0
LINE
5
695
100
AcDbEntity
8
0
100
AcDbLine
10
5223.1318917548651
20
349.37173891788854
30
0
11
5223.1318917548651
21
346.6017389178885
31
0
0
LINE
5
696
100
AcDbEntity
8
0
100
AcDbLine
10
5155.6660914278837
20
322.75045898728644
30
0
11
5050.2245886712617
21
322.74783883544126
31
0
0
LWPOLYLINE
5
697
100
AcDbEntity
8
0
100
AcDbPolyline
90
4
70
1
43
0.0
10
5058.0916102821211
20
281.38045899373304
10
5058.0916102821211
20
301.870458993733
10
5060.8616102821206
20
301.870458993733
10
5060.8616102821206
20
281.38045899373304
0
LINE
5
698
100
AcDbEntity
8
0
100
AcDbLine
10
5205.6660914278837
20
260.50045898728638
30
0
11
5205.6660914278837
21
302.75045898728644
31
0
0
LINE
5
699
100
AcDbEntity
8
0
100
AcDbLine
10
5155.6660914278837
20
260.50045898728638
30
0
11
5155.6660914278837
21
322.75045898728644
31
0
0
LINE
5
700
100
AcDbEntity
8
0
100
AcDbLine
10
5257.9160914278855
20
260.50045898728638
30
0
11
5257.9160914278855
21
322.75045898728644
31
0
0
LINE
5
701
100
AcDbEntity
8
0
100
AcDbLine
10
5129.0660914278851
20
275.50045898728644
30
0
11
5129.0660914278851
21
307.75045898728644
31
0
0
LWPOLYLINE
5
702
100
AcDbEntity
8
0
100
AcDbPolyline
90
4
70
1
43
0.0
10
5052.9866102821206
20
301.870458993733
10
5052.9866102821206
20
281.38045899373304
10
5050.2166102821211
20
281.38045899373304
10
5050.2166102821211
20
301.870458993733
0
LINE
5
703
100
AcDbEntity
8
0
100
AcDbLine
10
5155.6666102821218
20
281.38045899373304
30
0
11
5155.6666102821218
21
301.870458993733
31
0
0
LINE
5
704
100
AcDbEntity
8
0
100
AcDbLine
10
5152.8966102821214
20
301.870458993733
30
0
11
5152.8966102821214
21
281.38045899373304
31
0
0
LINE
5
705
100
AcDbEntity
8
0
100
AcDbLine
10
5155.6660914278837
20
260.50045898728638
30
0
11
5155.6660914278837
21
322.75045898728644
31
0
0
LINE
5
706
100
AcDbEntity
8
0
100
AcDbLine
10
5205.6660914278837
20
322.75045898728644
30
0
11
5205.6660914278837
21
260.50045898728638
31
0
0
LINE
5
707
100
AcDbEntity
8
0
100
AcDbLine
10
5112.4410914278842
20
307.75045898728644
30
0
11
5112.4410914278842
21
275.50045898728644
31
0
0
LWPOLYLINE
5
708
100
AcDbEntity
8
0
100
AcDbPolyline
90
4
70
1
43
0.0
10
5110.211610282121
20
301.870458993733
10
5110.211610282121
20
281.38045899373304
10
5107.4416102821206
20
281.38045899373304
10
5107.4416102821206
20
301.870458993733
0
LINE
5
709
100
AcDbEntity
8
0
100
AcDbLine
10
5257.9160914278855
20
302.75045898728644
30
0
11
5257.9160914278855
21
260.50045898728638
31
0
0
LINE
5
710
100
AcDbEntity
8
0
100
AcDbLine
10
5050.2245886712617
20
322.74783883544126
30
0
11
5050.2160914278838
21
260.50045898728615
31
0
0
LINE
5
711
100
AcDbEntity
8
0
100
AcDbLine
10
5257.9160914278855
20
260.50045898728638
30
0
11
5257.9160914278855
21
302.75045898728644
31
0
0
LINE
5
712
100
AcDbEntity
8
0
100
AcDbLine
10
5236.8860914278848
20
319.9804589872864
30
0
11
5236.8860914278848
21
322.75045898728644
31
0
0
LINE
5
713
100
AcDbEntity
8
0
100
AcDbLine
10
5257.9160914278855
20
322.75045898728644
30
0
11
5255.146091427885
21
322.75045898728644
31
0
0
LINE
5
714
100
AcDbEntity
8
0
100
AcDbLine
10
5257.9160914278855
20
322.75045898728644
30
0
11
5205.6660914278837
21
322.75045898728644
31
0
0
LINE
5
715
100
AcDbEntity
8
0
100
AcDbLine
10
5155.6666102821218
20
301.870458993733
30
0
11
5152.8966102821214
21
301.870458993733
31
0
0
LINE
5
716
100
AcDbEntity
8
0
100
AcDbLine
10
5247.5960914278839
20
322.75045898728644
30
0
11
5257.9160914278837
21
322.75045898728644
31
0
0
LINE
5
717
100
AcDbEntity
8
0
100
AcDbLine
10
5257.9160914278837
20
319.9804589872864
30
0
11
5255.146091427885
21
319.9804589872864
31
0
0
LINE
5
718
100
AcDbEntity
8
0
100
AcDbLine
10
5205.6660914278837
20
302.13045898728643
30
0
11
5205.6660914278837
21
322.75045898728644
31
0
0
LINE
5
719
100
AcDbEntity
8
0
100
AcDbLine
10
5215.9860914278843
20
319.9804589872864
30
0
11
5226.6960914278843
21
319.9804589872864
31
0
0
LINE
5
720
100
AcDbEntity
8
0
100
AcDbLine
10
5205.6660914278837
20
319.9804589872864
30
0
11
5215.9860914278843
21
319.9804589872864
31
0
0
LINE
5
721
100
AcDbEntity
8
0
100
AcDbLine
10
5226.6960914278843
20
322.75045898728644
30
0
11
5226.6960914278843
21
319.9804589872864
31
0
0
LINE
5
722
100
AcDbEntity
8
0
100
AcDbLine
10
5173.6518917548638
20
363.95340558455524
30
0
11
5170.8818917548651
21
363.95340558455524
31
0
0
LINE
5
723
100
AcDbEntity
8
0
100
AcDbLine
10
5208.4360914278841
20
322.75045898728644
30
0
11
5208.4360914278841
21
302.13045898728643
31
0
0
LINE
5
724
100
AcDbEntity
8
0
100
AcDbLine
10
5205.6660914278837
20
322.75045898728644
30
0
11
5208.4360914278841
21
322.75045898728644
31
0
0
LINE
5
725
100
AcDbEntity
8
0
100
AcDbLine
10
5205.6660914278837
20
322.75045898728644
30
0
11
5205.6660914278837
21
319.9804589872864
31
0
0
LINE
5
726
100
AcDbEntity
8
0
100
AcDbLine
10
5170.8818917548651
20
398.85173891788827
30
0
11
5170.8818917548651
21
346.6017389178885
31
0
0
LINE
5
727
100
AcDbEntity
8
0
100
AcDbLine
10
5186.501891754865
20
349.37173891788854
30
0
11
5170.8818917548651
21
349.37173891788854
31
0
0
LINE
5
728
100
AcDbEntity
8
0
100
AcDbLine
10
5223.1318917548651
20
346.6017389178885
30
0
11
5223.1318917548651
21
398.8517389178885
31
0
0
LINE
5
729
100
AcDbEntity
8
0
100
AcDbLine
10
5170.8818917548651
20
363.95340558455524
30
0
11
5170.8818917548651
21
381.30507225122187
31
0
0
LINE
5
730
100
AcDbEntity
8
0
100
AcDbLine
10
5170.8818917548651
20
398.85173891788827
30
0
11
5170.8818917548651
21
381.30507225122187
31
0
0
LINE
5
731
100
AcDbEntity
8
0
100
AcDbLine
10
5170.8818917548651
20
346.6017389178885
30
0
11
5223.1318917548651
21
346.6017389178885
31
0
0
LINE
5
732
100
AcDbEntity
8
0
100
AcDbLine
10
5255.146091427885
20
302.13045898728643
30
0
11
5257.9160914278855
21
302.13045898728643
31
0
0
LINE
5
733
100
AcDbEntity
8
0
100
AcDbLine
10
5226.6960914278843
20
319.9804589872864
30
0
11
5236.8860914278848
21
319.9804589872864
31
0
0
LINE
5
734
100
AcDbEntity
8
0
100
AcDbLine
10
5257.9160914278837
20
322.75045898728644
30
0
11
5257.9160914278837
21
319.9804589872864
31
0
0
LINE
5
735
100
AcDbEntity
8
0
100
AcDbLine
10
5257.9160914278855
20
302.13045898728643
30
0
11
5257.9160914278855
21
322.75045898728644
31
0
0
LINE
5
736
100
AcDbEntity
8
0
100
AcDbLine
10
5112.5118917548652
20
346.6017389178885
30
0
11
5112.5118917548652
21
349.37173891788854
31
0
0
LINE
5
737
100
AcDbEntity
8
0
100
AcDbLine
10
5091.501891754865
20
346.6017389178885
30
0
11
5091.501891754865
21
349.37173891788854
31
0
0
LINE
5
738
100
AcDbEntity
8
0
100
AcDbLine
10
5075.8818917548651
20
346.6017389178885
30
0
11
5091.501891754865
21
346.6017389178885
31
0
0
LINE
5
739
100
AcDbEntity
8
0
100
AcDbLine
10
5128.1318917548651
20
398.8517389178885
30
0
11
5075.8818917548651
21
398.8517389178885
31
0
0
LINE
5
740
100
AcDbEntity
8
0
100
AcDbLine
10
5080.8818917548651
20
346.6017389178885
30
0
11
5075.8818917548651
21
346.6017389178885
31
0
0
CIRCLE
5
741
100
AcDbEntity
8
0
100
AcDbCircle
10
5086.6273192640574
20
355.11716642708114
30
0
40
2.1850000000000485
210
0
220
0
230
1
0
CIRCLE
5
742
100
AcDbEntity
8
0
100
AcDbCircle
10
5117.3864642456729
20
385.87631140869576
30
0
40
2.184999999999965
210
0
220
0
230
1
0
LWPOLYLINE
5
743
100
AcDbEntity
8
0
100
AcDbPolyline
90
4
70
1
43
0.0
10
5128.1318917548651
20
363.88840558455519
10
5128.1318917548651
20
346.6017389178885
10
5125.3618917548647
20
346.6017389178885
10
5125.3618917548647
20
363.88840558455519
0
LINE
5
744
100
AcDbEntity
8
0
100
AcDbLine
10
5125.3618917548647
20
349.37173891788854
30
0
11
5125.3618917548647
21
346.6017389178885
31
0
0
LWPOLYLINE
5
745
100
AcDbEntity
8
0
100
AcDbPolyline
90
4
70
1
43
0.0
10
5128.1318917548651
20
381.56507225122186
10
5128.1318917548651
20
398.8517389178885
10
5125.3618917548647
20
398.8517389178885
10
5125.3618917548647
20
381.56507225122186
0
LINE
5
746
100
AcDbEntity
8
0
100
AcDbLine
10
5075.8818917548651
20
363.88840558455519
30
0
11
5075.8818917548651
21
346.6017389178885
31
0
0
LINE
5
747
100
AcDbEntity
8
0
100
AcDbLine
10
5078.6518917548647
20
346.6017389178885
30
0
11
5078.6518917548647
21
363.88840558455519
31
0
0
LINE
5
748
100
AcDbEntity
8
0
100
AcDbLine
10
5128.1318917548651
20
349.37173891788854
30
0
11
5128.1318917548651
21
346.6017389178885
31
0
0
LINE
5
749
100
AcDbEntity
8
0
100
AcDbLine
10
5112.5118917548652
20
349.37173891788854
30
0
11
5128.1318917548651
21
349.37173891788854
31
0
0
LINE
5
750
100
AcDbEntity
8
0
100
AcDbLine
10
5102.0068917548651
20
370.49673891788842
30
0
11
5102.0068917548651
21
398.8517389178885
31
0
0
CIRCLE
5
751
100
AcDbEntity
8
0
100
AcDbCircle
10
5197.0068917548651
20
370.49673891788842
30
0
40
11.25
210
0
220
0
230
1
0
CIRCLE
5
752
100
AcDbEntity
8
0
100
AcDbCircle
10
5181.6273192640574
20
355.11716642708114
30
0
40
2.1850000000000485
210
0
220
0
230
1
0
CIRCLE
5
753
100
AcDbEntity
8
0
100
AcDbCircle
10
5181.6273192640574
20
385.87631140869576
30
0
40
2.184999999999973
210
0
220
0
230
1
0
LINE
5
754
100
AcDbEntity
8
0
100
AcDbLine
10
5155.6660914278837
20
322.75045898728644
30
0
11
5155.6666102821218
21
301.870458993733
31
0
0
LINE
5
755
100
AcDbEntity
8
0
100
AcDbLine
10
5208.4360914278841
20
302.13045898728643
30
0
11
5205.6660914278837
21
302.13045898728643
31
0
0
LINE
5
756
100
AcDbEntity
8
0
100
AcDbLine
10
5255.146091427885
20
322.75045898728644
30
0
11
5255.146091427885
21
302.13045898728643
31
0
0
LINE
5
757
100
AcDbEntity
8
0
100
AcDbLine
10
5247.5960914278839
20
319.9804589872864
30
0
11
5257.9160914278855
21
319.9804589872864
31
0
0
LINE
5
758
100
AcDbEntity
8
0
100
AcDbLine
10
5215.9860914278843
20
322.75045898728644
30
0
11
5205.6660914278837
21
322.75045898728644
31
0
0
LINE
5
759
100
AcDbEntity
8
0
100
AcDbLine
10
5170.8818917548651
20
349.37173891788854
30
0
11
5170.8818917548651
21
346.6017389178885
31
0
0
LINE
5
760
100
AcDbEntity
8
0
100
AcDbLine
10
5223.1318917548651
20
346.6017389178885
30
0
11
5207.5118917548652
21
346.6017389178885
31
0
0
LINE
5
761
100
AcDbEntity
8
0
100
AcDbLine
10
5205.6660914278837
20
319.9804589872864
30
0
11
5208.4360914278841
21
319.9804589872864
31
0
0
LINE
5
762
100
AcDbEntity
8
0
100
AcDbLine
10
5215.9860914278843
20
319.9804589872864
30
0
11
5215.9860914278843
21
322.75045898728644
31
0
0
LINE
5
763
100
AcDbEntity
8
0
100
AcDbLine
10
5247.5960914278839
20
319.9804589872864
30
0
11
5247.5960914278839
21
322.75045898728644
31
0
0
LINE
5
764
100
AcDbEntity
8
0
100
AcDbLine
10
5236.8860914278848
20
322.75045898728644
30
0
11
5226.6960914278843
21
322.75045898728644
31
0
0
LINE
5
765
100
AcDbEntity
8
0
100
AcDbLine
10
5155.6660914278837
20
210.50045898728641
30
0
11
5050.2160914278838
21
210.50045898728641
31
0
0
LINE
5
766
100
AcDbEntity
8
0
100
AcDbLine
10
5155.6660914278837
20
207.7304589872864
30
0
11
5155.6660914278837
21
210.50045898728641
31
0
0
LINE
5
767
100
AcDbEntity
8
0
100
AcDbLine
10
5155.6660914278837
20
210.50045898728641
30
0
11
5155.6660914278837
21
199.92045898728639
31
0
0
LINE
5
768
100
AcDbEntity
8
0
100
AcDbLine
10
4734.366769749071
20
381.75045898728638
30
0
11
4727.2410914278844
21
381.75045898728638
31
0
0
LWPOLYLINE
5
769
100
AcDbEntity
8
0
100
AcDbPolyline
90
4
70
1
43
0.0
10
4685.0610914278841
20
378.9804589872864
10
4685.0610914278841
20
381.75045898728638
10
4705.8910914278849
20
381.75045898728638
10
4705.8910914278849
20
378.9804589872864
0
CIRCLE
5
770
100
AcDbEntity
8
0
100
AcDbCircle
10
4716.0910914278847
20
371.75045898728638
30
0
40
2.8849999999997826
210
0
220
0
230
1
0
LINE
5
771
100
AcDbEntity
8
0
100
AcDbLine
10
5094.4610914278846
20
265.50045898728644
30
0
11
5073.9710914278849
21
265.50045898728644
31
0
0
LINE
5
772
100
AcDbEntity
8
0
100
AcDbLine
10
5107.4410914278842
20
275.50045898728644
30
0
11
5112.4410914278842
21
275.50045898728644
31
0
0
LINE
5
773
100
AcDbEntity
8
0
100
AcDbLine
10
5107.4410914278842
20
260.50045898728615
30
0
11
5107.4410914278842
21
275.50045898728644
31
0
0
LINE
5
774
100
AcDbEntity
8
0
100
AcDbLine
10
5071.1760914278821
20
210.50045898723289
30
0
11
5071.1760914278839
21
207.7304589872864
31
0
0
LINE
5
775
100
AcDbEntity
8
0
100
AcDbLine
10
5050.2160914278838
20
210.50045898728641
30
0
11
5050.2160914278838
21
158.25045898728638
31
0
0
LINE
5
776
100
AcDbEntity
8
0
100
AcDbLine
10
5071.1760914278821
20
210.50045898723289
30
0
11
5092.5260914278842
21
210.50045898728641
31
0
0
LINE
5
777
100
AcDbEntity
8
0
100
AcDbLine
10
5236.8860914278848
20
263.27045898728642
30
0
11
5226.6960914278843
21
263.27045898728642
31
0
0
LINE
5
778
100
AcDbEntity
8
0
100
AcDbLine
10
4734.366769749071
20
381.75045898728638
30
0
11
4663.8410914278838
21
381.75045898728638
31
0
0
LWPOLYLINE
5
779
100
AcDbEntity
8
0
100
AcDbPolyline
90
4
70
1
43
0.0
10
4734.4660914278838
20
333.38045898728637
10
4734.4660914278838
20
357.37045898728638
10
4731.6960914278843
20
357.37045898728638
10
4731.6960914278843
20
333.38045898728637
0
LINE
5
780
100
AcDbEntity
8
0
100
AcDbLine
10
4727.2410914278844
20
381.75045898728638
30
0
11
4727.2410914278844
21
378.9804589872864
31
0
0
LINE
5
781
100
AcDbEntity
8
0
100
AcDbLine
10
4663.8410914278838
20
357.37045898728638
30
0
11
4666.6110914278843
21
357.37045898728638
31
0
0
LINE
5
782
100
AcDbEntity
8
0
100
AcDbLine
10
4663.8410914278838
20
333.38045898728637
30
0
11
4663.8410914278838
21
357.37045898728638
31
0
0
CIRCLE
5
783
100
AcDbEntity
8
0
100
AcDbCircle
10
4702.0077580945508
20
371.75045898728638
30
0
40
2.8849999999997826
210
0
220
0
230
1
0
LINE
5
784
100
AcDbEntity
8
0
100
AcDbLine
10
4666.6110914278843
20
333.38045898728637
30
0
11
4663.8410914278838
21
333.38045898728637
31
0
0
CIRCLE
5
785
100
AcDbEntity
8
0
100
AcDbCircle
10
4687.9244247612178
20
371.75045898728638
30
0
40
2.8849999999997826
210
0
220
0
230
1
0
LINE
5
786
100
AcDbEntity
8
0
100
AcDbLine
10
4727.2410914278844
20
378.9804589872864
30
0
11
4734.3678996103254
21
378.98045732352381
31
0
0
LINE
5
787
100
AcDbEntity
8
0
100
AcDbLine
10
4663.8410914278838
20
381.75045898728638
30
0
11
4663.8410914278838
21
357.37045898728638
31
0
0
LINE
5
788
100
AcDbEntity
8
0
100
AcDbLine
10
5226.6960914278843
20
260.50045898728638
30
0
11
5236.8860914278848
21
260.50045898728638
31
0
0
LINE
5
789
100
AcDbEntity
8
0
100
AcDbLine
10
5208.4360914278841
20
260.50045898728638
30
0
11
5208.4360914278841
21
281.12045898728644
31
0
0
LINE
5
790
100
AcDbEntity
8
0
100
AcDbLine
10
5236.8860914278848
20
260.50045898728638
30
0
11
5236.8860914278848
21
263.27045898728642
31
0
0
LINE
5
791
100
AcDbEntity
8
0
100
AcDbLine
10
5215.9860914278843
20
260.50045898728638
30
0
11
5215.9860914278843
21
263.27045898728642
31
0
0
LINE
5
792
100
AcDbEntity
8
0
100
AcDbLine
10
5129.0660914278851
20
307.75045898728644
30
0
11
5112.4410914278842
21
307.75045898728644
31
0
0
CIRCLE
5
793
100
AcDbEntity
8
0
100
AcDbCircle
10
4673.8410914278838
20
371.75045898728638
30
0
40
2.8849999999997826
210
0
220
0
230
1
0
LWPOLYLINE
5
794
100
AcDbEntity
8
0
100
AcDbPolyline
90
4
70
1
43
0.0
10
5134.4460914278852
20
319.9804589872864
10
5113.6160914278844
20
319.9804589872864
10
5113.6160914278844
20
322.75045898728644
10
5134.4460914278852
20
322.75045898728644
0
LINE
5
795
100
AcDbEntity
8
0
100
AcDbLine
10
5113.3560914278842
20
210.50045898728641
30
0
11
5113.3560914278842
21
207.7304589872864
31
0
0
LINE
5
796
100
AcDbEntity
8
0
100
AcDbLine
10
5092.5260914278842
20
207.7304589872864
30
0
11
5092.5260914278842
21
210.50045898728641
31
0
0
LINE
5
797
100
AcDbEntity
8
0
100
AcDbLine
10
5155.6660914278837
20
158.25045898728638
30
0
11
5155.6660914278837
21
210.50045898728641
31
0
0
LINE
5
798
100
AcDbEntity
8
0
100
AcDbLine
10
5107.4410914278842
20
260.50045898728615
30
0
11
5129.0660914278851
21
260.50045898728644
31
0
0
LINE
5
799
100
AcDbEntity
8
0
100
AcDbLine
10
5152.8966102821214
20
281.38045899373304
30
0
11
5155.6666102821218
21
281.38045899373304
31
0
0
LWPOLYLINE
5
800
100
AcDbEntity
8
0
100
AcDbPolyline
90
4
70
1
43
0.0
10
5134.4460914278852
20
263.27045898728642
10
5134.4460914278852
20
260.50045898728638
10
5113.6160914278844
20
260.50045898728638
10
5113.6160914278844
20
263.27045898728642
0
LINE
5
801
100
AcDbEntity
8
0
100
AcDbLine
10
5071.4360914278841
20
263.27045898728642
30
0
11
5071.4360914278841
21
260.50045898728638
31
0
0
LINE
5
802
100
AcDbEntity
8
0
100
AcDbLine
10
5094.4610914278846
20
268.27045898728642
30
0
11
5094.4610914278846
21
265.50045898728644
31
0
0
LINE
5
803
100
AcDbEntity
8
0
100
AcDbLine
10
5110.3410914278847
20
260.50045898728615
30
0
11
5110.3410914278847
21
265.50045898728644
31
0
0
LINE
5
804
100
AcDbEntity
8
0
100
AcDbLine
10
5107.4410914278842
20
260.50045898728615
30
0
11
5110.3410914278847
21
260.50045898728615
31
0
0
LWPOLYLINE
5
805
100
AcDbEntity
8
0
100
AcDbPolyline
90
4
70
1
43
0.0
10
5152.8960914278841
20
168.83045898728642
10
5152.8960914278841
20
179.02045898728642
10
5155.6660914278837
20
179.02045898728642
10
5155.6660914278837
20
168.83045898728642
0
LINE
5
806
100
AcDbEntity
8
0
100
AcDbLine
10
5152.8960914278841
20
199.92045898728639
30
0
11
5152.8960914278841
21
189.73045898728643
31
0
0
LINE
5
807
100
AcDbEntity
8
0
100
AcDbLine
10
5155.6660914278837
20
189.73045898728643
30
0
11
5155.6660914278837
21
199.92045898728639
31
0
0
LINE
5
808
100
AcDbEntity
8
0
100
AcDbLine
10
5134.7060914278836
20
207.7304589872864
30
0
11
5155.6660914278837
21
207.7304589872864
31
0
0
LWPOLYLINE
5
809
100
AcDbEntity
8
0
100
AcDbPolyline
90
4
70
1
43
0.0
10
5134.7060914278836
20
158.25045898728638
10
5134.7060914278836
20
161.02045898728642
10
5155.6660914278837
20
161.02045898728642
10
5155.6660914278837
20
158.25045898728638
0
LINE
5
810
100
AcDbEntity
8
0
100
AcDbLine
10
5050.2160914278838
20
207.7304589872864
30
0
11
5050.2160914278838
21
210.50045898728641
31
0
0
LINE
5
811
100
AcDbEntity
8
0
100
AcDbLine
10
5050.2160914278838
20
210.50045898728641
30
0
11
5071.1760914278821
21
210.50045898723289
31
0
0
LINE
5
812
100
AcDbEntity
8
0
100
AcDbLine
10
5092.5260914278842
20
210.50045898728641
30
0
11
5113.3560914278842
21
210.50045898728641
31
0
0
LINE
5
813
100
AcDbEntity
8
0
100
AcDbLine
10
5134.7060914278836
20
210.50045898728641
30
0
11
5134.7060914278836
21
207.7304589872864
31
0
0
LINE
5
814
100
AcDbEntity
8
0
100
AcDbLine
10
5155.6660914278837
20
210.50045898728641
30
0
11
5134.7060914278836
21
210.50045898728641
31
0
0
CIRCLE
5
815
100
AcDbEntity
8
0
100
AcDbCircle
10
4703.2734659510306
20
148.49545898728644
30
0
40
1.9350000000000001
210
0
220
0
230
1
0
LINE
5
816
100
AcDbEntity
8
0
100
AcDbLine
10
4734.4660914278838
20
138.25045898728638
30
0
11
4734.4447790758595
21
190.50045898728641
31
0
0
LWPOLYLINE
5
817
100
AcDbEntity
8
0
100
AcDbPolyline
90
4
70
1
43
0.0
10
4734.4660914278838
20
169.73045898728643
10
4731.6960914278843
20
169.73045898728643
10
4731.6960914278843
20
179.92045898728639
10
4734.4660914278838
20
179.92045898728639
0
LWPOLYLINE
5
818
100
AcDbEntity
8
0
100
AcDbPolyline
90
4
70
1
43
0.0
10
4726.9810914278842
20
138.25045898728638
10
4726.9810914278842
20
141.02045898728642
10
4706.1510914278842
20
141.02045898728642
10
4706.1510914278842
20
138.25045898728638
0
LINE
5
819
100
AcDbEntity
8
0
100
AcDbLine
10
4706.1510914278842
20
187.7304589872864
30
0
11
4706.1510914278842
21
190.50045898728641
31
0
0
LINE
5
820
100
AcDbEntity
8
0
100
AcDbLine
10
4663.8410914278838
20
138.25045898728638
30
0
11
4734.4660914278838
21
138.25045898728638
31
0
0
LWPOLYLINE
5
821
100
AcDbEntity
8
0
100
AcDbPolyline
90
4
70
1
43
0.0
10
4663.8410914278838
20
179.92045898728639
10
4666.6110914278843
20
179.92045898728639
10
4666.6110914278843
20
169.73045898728643
10
4663.8410914278838
20
169.73045898728643
0
LWPOLYLINE
5
822
100
AcDbEntity
8
0
100
AcDbPolyline
90
4
70
1
43
0.0
10
4731.6960914278843
20
159.02045898728642
10
4734.4660914278838
20
159.02045898728642
10
4734.4660914278838
20
148.83045898728642
10
4731.6960914278843
20
148.83045898728642
0
LINE
5
823
100
AcDbEntity
8
0
100
AcDbLine
10
4726.9810914278842
20
190.50045898728641
30
0
11
4726.9810914278842
21
187.7304589872864
31
0
0
CIRCLE
5
824
100
AcDbEntity
8
0
100
AcDbCircle
10
4723.1920502380726
20
148.49545898728636
30
0
40
1.9350000000000001
210
0
220
0
230
1
0
CIRCLE
5
825
100
AcDbEntity
8
0
100
AcDbCircle
10
4713.2327580945512
20
165.74545898728638
30
0
40
1.9350000000000001
210
0
220
0
230
1
0
LINE
5
826
100
AcDbEntity
8
0
100
AcDbLine
10
4793.1660914278846
20
141.02045898728642
30
0
11
4793.1660914278846
21
138.25045898728638
31
0
0
LINE
5
827
100
AcDbEntity
8
0
100
AcDbLine
10
4832.9160914278846
20
141.02045898728642
30
0
11
4832.9160914278846
21
138.25045898728638
31
0
0
CIRCLE
5
828
100
AcDbEntity
8
0
100
AcDbCircle
10
4685.6910914278851
20
164.24545898728638
30
0
40
6.3999999999999213
210
0
220
0
230
1
0
LINE
5
829
100
AcDbEntity
8
0
100
AcDbLine
10
4832.9160914278846
20
138.25045898728638
30
0
11
4819.7960914278847
21
138.25045898728638
31
0
0
LINE
5
830
100
AcDbEntity
8
0
100
AcDbLine
10
4819.7960914278847
20
187.7304589872864
30
0
11
4832.9160914278846
21
187.7304589872864
31
0
0
LWPOLYLINE
5
831
100
AcDbEntity
8
0
100
AcDbPolyline
90
4
70
1
43
0.0
10
4793.1660914278846
20
159.02045898728642
10
4795.936091427885
20
159.02045898728642
10
4795.936091427885
20
148.83045898728642
10
4793.1660914278846
20
148.83045898728642
0
CIRCLE
5
832
100
AcDbEntity
8
0
100
AcDbCircle
10
4811.0660914278842
20
164.24545898728638
30
0
40
6.3999999999999417
210
0
220
0
230
1
0
LINE
5
833
100
AcDbEntity
8
0
100
AcDbLine
10
4832.9160914278846
20
190.50045898728641
30
0
11
4793.1660914278846
21
190.50045898728641
31
0
0
LINE
5
834
100
AcDbEntity
8
0
100
AcDbLine
10
4819.7960914278847
20
190.50045898728641
30
0
11
4819.7960914278847
21
187.7304589872864
31
0
0
LWPOLYLINE
5
835
100
AcDbEntity
8
0
100
AcDbPolyline
90
4
70
1
43
0.0
10
4793.1660914278846
20
179.92045898728639
10
4795.936091427885
20
179.92045898728639
10
4795.936091427885
20
169.73045898728643
10
4793.1660914278846
20
169.73045898728643
0
LWPOLYLINE
5
836
100
AcDbEntity
8
0
100
AcDbPolyline
90
4
70
1
43
0.0
10
4832.9160914278846
20
179.92045898728639
10
4832.9160914278846
20
169.73045898728643
10
4830.146091427885
20
169.73045898728643
10
4830.146091427885
20
179.92045898728639
0
LWPOLYLINE
5
837
100
AcDbEntity
8
0
100
AcDbPolyline
90
4
70
1
43
0.0
10
4830.146091427885
20
159.02045898728642
10
4832.9160914278846
20
159.02045898728642
10
4832.9160914278846
20
148.83045898728642
10
4830.146091427885
20
148.83045898728642
0
LINE
5
838
100
AcDbEntity
8
0
100
AcDbLine
10
4793.1660914278846
20
138.25045898728638
30
0
11
4793.1660914278846
21
190.50045898728641
31
0
0
LINE
5
839
100
AcDbEntity
8
0
100
AcDbLine
10
4684.8010914278839
20
138.25045898728638
30
0
11
4663.8410914278838
21
138.25045898728638
31
0
0
LINE
5
840
100
AcDbEntity
8
0
100
AcDbLine
10
4663.8410914278838
20
138.25045898728638
30
0
11
4663.8410914278838
21
141.02045898728642
31
0
0
LWPOLYLINE
5
841
100
AcDbEntity
8
0
100
AcDbPolyline
90
4
70
1
43
0.0
10
4666.6110914278843
20
148.83045898728642
10
4663.8410914278838
20
148.83045898728642
10
4663.8410914278838
20
159.02045898728642
10
4666.6110914278843
20
159.02045898728642
0
LINE
5
842
100
AcDbEntity
8
0
100
AcDbLine
10
4819.7960914278847
20
141.02045898728642
30
0
11
4832.9160914278846
21
141.02045898728642
31
0
0
LINE
5
843
100
AcDbEntity
8
0
100
AcDbLine
10
4806.2860914278845
20
187.7304589872864
30
0
11
4793.1660914278846
21
187.7304589872864
31
0
0
LINE
5
844
100
AcDbEntity
8
0
100
AcDbLine
10
4793.1660914278846
20
187.7304589872864
30
0
11
4793.1660914278846
21
190.50045898728641
31
0
0
LINE
5
845
100
AcDbEntity
8
0
100
AcDbLine
10
4819.7960914278847
20
138.25045898728638
30
0
11
4819.7960914278847
21
141.02045898728642
31
0
0
LINE
5
846
100
AcDbEntity
8
0
100
AcDbLine
10
4806.2860914278845
20
190.50045898728641
30
0
11
4806.2860914278845
21
187.7304589872864
31
0
0
LINE
5
847
100
AcDbEntity
8
0
100
AcDbLine
10
4793.1660914278846
20
190.50045898728641
30
0
11
4806.2860914278845
21
190.50045898728641
31
0
0
LINE
5
848
100
AcDbEntity
8
0
100
AcDbLine
10
4684.8010914278839
20
187.7304589872864
30
0
11
4663.8410914278838
21
187.7304589872864
31
0
0
LINE
5
849
100
AcDbEntity
8
0
100
AcDbLine
10
4663.8410914278838
20
190.50045898728641
30
0
11
4684.8010914278839
21
190.50045898728641
31
0
0
LINE
5
850
100
AcDbEntity
8
0
100
AcDbLine
10
4663.8410914278838
20
187.7304589872864
30
0
11
4663.8410914278838
21
190.50045898728641
31
0
0
LINE
5
851
100
AcDbEntity
8
0
100
AcDbLine
10
4734.4447790758595
20
190.50045898728641
30
0
11
4663.8410914278838
21
190.50045898728641
31
0
0
LINE
5
852
100
AcDbEntity
8
0
100
AcDbLine
10
4684.8010914278839
20
190.50045898728641
30
0
11
4706.1510914278842
21
190.50045898728641
31
0
0
LINE
5
853
100
AcDbEntity
8
0
100
AcDbLine
10
4793.1660914278846
20
138.25045898728638
30
0
11
4832.9160914278846
21
138.25045898728638
31
0
0
LINE
5
854
100
AcDbEntity
8
0
100
AcDbLine
10
4793.1660914278846
20
138.25045898728638
30
0
11
4806.2860914278845
21
138.25045898728638
31
0
0
LINE
5
855
100
AcDbEntity
8
0
100
AcDbLine
10
4706.1510914278842
20
190.50045898728641
30
0
11
4726.9810914278842
21
190.50045898728641
31
0
0
LINE
5
856
100
AcDbEntity
8
0
100
AcDbLine
10
4663.8410914278838
20
138.25045898728638
30
0
11
4734.4660914278838
21
138.25045898728638
31
0
0
LINE
5
857
100
AcDbEntity
8
0
100
AcDbLine
10
4684.8010914278839
20
141.02045898728642
30
0
11
4684.8010914278839
21
138.25045898728638
31
0
0
LINE
5
858
100
AcDbEntity
8
0
100
AcDbLine
10
4663.8410914278838
20
190.50045898728641
30
0
11
4663.8410914278838
21
138.25045898728638
31
0
0
LINE
5
859
100
AcDbEntity
8
0
100
AcDbLine
10
4684.8010914278839
20
190.50045898728641
30
0
11
4684.8010914278839
21
187.7304589872864
31
0
0
LINE
5
860
100
AcDbEntity
8
0
100
AcDbLine
10
4806.2860914278845
20
141.02045898728642
30
0
11
4793.1660914278846
21
141.02045898728642
31
0
0
LINE
5
861
100
AcDbEntity
8
0
100
AcDbLine
10
4806.2860914278845
20
138.25045898728638
30
0
11
4806.2860914278845
21
141.02045898728642
31
0
0
LINE
5
862
100
AcDbEntity
8
0
100
AcDbLine
10
4832.9160914278846
20
190.50045898728641
30
0
11
4819.7960914278847
21
190.50045898728641
31
0
0
LINE
5
863
100
AcDbEntity
8
0
100
AcDbLine
10
4663.8410914278838
20
141.02045898728642
30
0
11
4684.8010914278839
21
141.02045898728642
31
0
0
LINE
5
864
100
AcDbEntity
8
0
100
AcDbLine
10
4726.9810914278842
20
187.7304589872864
30
0
11
4706.1510914278842
21
187.7304589872864
31
0
0
CIRCLE
5
865
100
AcDbEntity
8
0
100
AcDbCircle
10
4713.2327580945512
20
154.24545898728638
30
0
40
4.4999999999999236
210
0
220
0
230
1
0
LINE
5
866
100
AcDbEntity
8
0
100
AcDbLine
10
4666.6110914278843
20
357.37045898728638
30
0
11
4666.6110914278843
21
333.38045898728637
31
0
0
LINE
5
867
100
AcDbEntity
8
0
100
AcDbLine
10
4386.8860914278848
20
263.27045898728642
30
0
11
4376.6960914278843
21
263.27045898728642
31
0
0
LINE
5
868
100
AcDbEntity
8
0
100
AcDbLine
10
4365.9860914278843
20
260.50045898728695
30
0
11
4376.6960914278843
21
260.50045898728638
31
0
0
LWPOLYLINE
5
869
100
AcDbEntity
8
0
100
AcDbPolyline
90
4
70
1
43
0.0
10
4793.1660914278846
20
333.38045898728637
10
4795.936091427885
20
333.38045898728637
10
4795.936091427885
20
357.37045898728638
10
4793.1660914278846
20
357.37045898728638
0
LWPOLYLINE
5
870
100
AcDbEntity
8
0
100
AcDbPolyline
90
4
70
1
43
0.0
10
4832.9160914278846
20
308.87045898728638
10
4830.146091427885
20
308.87045898728638
10
4830.146091427885
20
284.88045898728637
10
4832.9160914278846
20
284.88045898728637
0
LINE
5
871
100
AcDbEntity
8
0
100
AcDbLine
10
5092.266091427884
20
263.27045898728642
30
0
11
5071.4360914278841
21
263.27045898728642
31
0
0
LINE
5
872
100
AcDbEntity
8
0
100
AcDbLine
10
5050.2160914278838
20
260.50045898728615
30
0
11
5071.4360914278841
21
260.50045898728638
31
0
0
LINE
5
873
100
AcDbEntity
8
0
100
AcDbLine
10
5050.2160914278838
20
260.50045898728615
30
0
11
5155.6660914278837
21
260.50045898728638
31
0
0
LWPOLYLINE
5
874
100
AcDbEntity
8
0
100
AcDbPolyline
90
4
70
1
43
0.0
10
4832.9160914278846
20
333.38045898728637
10
4832.9160914278846
20
357.37045898728638
10
4830.146091427885
20
357.37045898728638
10
4830.146091427885
20
333.38045898728637
0
LINE
5
875
100
AcDbEntity
8
0
100
AcDbLine
10
5226.6960914278843
20
263.27045898728642
30
0
11
5226.6960914278843
21
260.50045898728638
31
0
0
LINE
5
876
100
AcDbEntity
8
0
100
AcDbLine
10
5255.146091427885
20
281.12045898728644
30
0
11
5257.9160914278837
21
281.12045898728644
31
0
0
LINE
5
877
100
AcDbEntity
8
0
100
AcDbLine
10
5205.6660914278837
20
260.50045898728638
30
0
11
5208.4360914278841
21
260.50045898728638
31
0
0
LINE
5
878
100
AcDbEntity
8
0
100
AcDbLine
10
5215.9860914278843
20
260.50045898728638
30
0
11
5226.6960914278843
21
260.50045898728638
31
0
0
LINE
5
879
100
AcDbEntity
8
0
100
AcDbLine
10
5247.5960914278839
20
260.50045898728638
30
0
11
5247.5960914278839
21
263.27045898728642
31
0
0
LINE
5
880
100
AcDbEntity
8
0
100
AcDbLine
10
5257.9160914278855
20
260.50045898728638
30
0
11
5205.6660914278837
21
260.50045898728638
31
0
0
LWPOLYLINE
5
881
100
AcDbEntity
8
0
100
AcDbPolyline
90
4
70
1
43
0.0
10
4407.9160914278837
20
381.75045898728638
10
4397.5960914278839
20
381.75045898728638
10
4397.5960914278839
20
378.9804589872864
10
4407.9160914278837
20
378.9804589872864
0
LWPOLYLINE
5
882
100
AcDbEntity
8
0
100
AcDbPolyline
90
4
70
1
43
0.0
10
4405.1460914278841
20
381.75045898728638
10
4405.1460914278841
20
357.63045898728643
10
4407.9160914278837
20
357.63045898728643
10
4407.9160914278837
20
381.75045898728638
0
CIRCLE
5
883
100
AcDbEntity
8
0
100
AcDbCircle
10
4822.9160914278846
20
371.75045898728638
30
0
40
2.8850000000000002
210
0
220
0
230
1
0
LINE
5
884
100
AcDbEntity
8
0
100
AcDbLine
10
4832.9160914278846
20
381.75045898728638
30
0
11
4793.1660914278846
21
381.75045898728638
31
0
0
LINE
5
885
100
AcDbEntity
8
0
100
AcDbLine
10
4806.5460914278847
20
381.75045898728638
30
0
11
4806.5460914278847
21
378.9804589872864
31
0
0
LWPOLYLINE
5
886
100
AcDbEntity
8
0
100
AcDbPolyline
90
4
70
1
43
0.0
10
4793.1660914278846
20
284.88045898728637
10
4795.936091427885
20
284.88045898728637
10
4795.936091427885
20
308.87045898728638
10
4793.1660914278846
20
308.87045898728638
0
CIRCLE
5
887
100
AcDbEntity
8
0
100
AcDbCircle
10
4808.8327580945506
20
270.50045898728638
30
0
40
2.8850000000000002
210
0
220
0
230
1
0
CIRCLE
5
888
100
AcDbEntity
8
0
100
AcDbCircle
10
4822.9160914278846
20
270.50045898728638
30
0
40
2.8850000000000002
210
0
220
0
230
1
0
LINE
5
889
100
AcDbEntity
8
0
100
AcDbLine
10
4832.9160914278846
20
270.50045898728638
30
0
11
4822.9160914278846
21
270.50045898728638
31
0
0
LINE
5
890
100
AcDbEntity
8
0
100
AcDbLine
10
4793.1660914278846
20
260.50045898728638
30
0
11
4793.1660914278846
21
381.75045898728638
31
0
0
LINE
5
891
100
AcDbEntity
8
0
100
AcDbLine
10
4734.4162266425246
20
260.50045898728638
30
0
11
4734.366769749071
21
381.75045898728638
31
0
0
LINE
5
892
100
AcDbEntity
8
0
100
AcDbLine
10
4819.5360914278845
20
263.27045898728642
30
0
11
4819.5360914278845
21
260.50045898728638
31
0
0
LINE
5
893
100
AcDbEntity
8
0
100
AcDbLine
10
4806.5460914278847
20
260.50045898728638
30
0
11
4806.5460914278847
21
263.27045898728642
31
0
0
LINE
5
894
100
AcDbEntity
8
0
100
AcDbLine
10
4663.8410914278838
20
381.75045898728638
30
0
11
4663.8410914278838
21
260.50045898728638
31
0
0
LINE
5
895
100
AcDbEntity
8
0
100
AcDbLine
10
4358.4360914278841
20
333.12045898728638
30
0
11
4358.4360914278841
21
309.13045898728637
31
0
0
LINE
5
896
100
AcDbEntity
8
0
100
AcDbLine
10
4355.6660914278846
20
333.12045898728638
30
0
11
4358.4360914278841
21
333.12045898728638
31
0
0
LINE
5
897
100
AcDbEntity
8
0
100
AcDbLine
10
4355.6660914278846
20
381.75045898728638
30
0
11
4407.9160914278846
21
381.75045898728638
31
0
0
LINE
5
898
100
AcDbEntity
8
0
100
AcDbLine
10
4407.9160914278846
20
381.75045898728638
30
0
11
4407.9160914278846
21
260.50045898728638
31
0
0
LINE
5
899
100
AcDbEntity
8
0
100
AcDbLine
10
4355.6660914278846
20
260.50045898728638
30
0
11
4355.6660914278846
21
381.75045898728638
31
0
0
LINE
5
900
100
AcDbEntity
8
0
100
AcDbLine
10
4663.8410914278838
20
260.50045898728638
30
0
11
4734.4162266425246
21
260.50045898728638
31
0
0
LINE
5
901
100
AcDbEntity
8
0
100
AcDbLine
10
4832.9160914278846
20
260.50045898728638
30
0
11
4819.5360914278845
21
260.50045898728638
31
0
0
LINE
5
902
100
AcDbEntity
8
0
100
AcDbLine
10
4663.8410914278838
20
260.50045898728638
30
0
11
4663.8410914278838
21
270.50045898728638
31
0
0
CIRCLE
5
903
100
AcDbEntity
8
0
100
AcDbCircle
10
4702.0077580945508
20
270.50045898728638
30
0
40
2.8849999999997826
210
0
220
0
230
1
0
CIRCLE
5
904
100
AcDbEntity
8
0
100
AcDbCircle
10
4673.8410914278838
20
270.50045898728638
30
0
40
2.8849999999997826
210
0
220
0
230
1
0
LINE
5
905
100
AcDbEntity
8
0
100
AcDbLine
10
4365.9860914278843
20
260.50045898728695
30
0
11
4365.9860914278843
21
263.27045898728642
31
0
0
LINE
5
906
100
AcDbEntity
8
0
100
AcDbLine
10
4355.6660914278846
20
284.62045898728638
30
0
11
4355.6660914278846
21
260.50045898728638
31
0
0
LINE
5
907
100
AcDbEntity
8
0
100
AcDbLine
10
4407.9160914278846
20
260.50045898728638
30
0
11
4355.6660914278846
21
260.50045898728638
31
0
0
LWPOLYLINE
5
908
100
AcDbEntity
8
0
100
AcDbPolyline
90
8
70
1
43
0.0
10
4407.9160914278837
20
260.50045898728638
10
4407.9160914278837
20
263.27045898728642
10
4397.5960914278839
20
263.27045898728642
10
4397.5960914278839
20
260.50045898728638
10
4407.9160914278837
20
260.50045898728638
10
4405.1460914278841
20
260.50045898728638
10
4405.1460914278841
20
284.62045898728638
10
4407.9160914278837
20
284.62045898728638
0
LWPOLYLINE
5
909
100
AcDbEntity
8
0
100
AcDbPolyline
90
4
70
1
43
0.0
10
4355.6660914278846
20
381.75045898728638
10
4365.9860914278843
20
381.75045898728638
10
4365.9860914278843
20
378.9804589872864
10
4355.6660914278846
20
378.9804589872864
0
LINE
5
910
100
AcDbEntity
8
0
100
AcDbLine
10
4705.8910914278849
20
260.50045898728638
30
0
11
4705.8910914278849
21
263.27045898728642
31
0
0
LINE
5
911
100
AcDbEntity
8
0
100
AcDbLine
10
4727.2410914278844
20
263.27045898728642
30
0
11
4727.2410914278844
21
260.50045898728638
31
0
0
LINE
5
912
100
AcDbEntity
8
0
100
AcDbLine
10
4727.2410914278844
20
260.50045898728638
30
0
11
4734.4162266425246
21
260.50045898728638
31
0
0
LINE
5
913
100
AcDbEntity
8
0
100
AcDbLine
10
4685.0610914278841
20
263.27045898728642
30
0
11
4685.0610914278841
21
260.50045898728638
31
0
0
LINE
5
914
100
AcDbEntity
8
0
100
AcDbLine
10
4832.9160914278846
20
381.75045898728638
30
0
11
4819.5360914278845
21
381.75045898728638
31
0
0
LINE
5
915
100
AcDbEntity
8
0
100
AcDbLine
10
5050.2160914278838
20
299.9804589872864
30
0
11
5071.4360914278841
21
299.9804589872864
31
0
0
LINE
5
916
100
AcDbEntity
8
0
100
AcDbLine
10
4376.6960914278843
20
260.50045898728638
30
0
11
4386.8860914278848
21
260.50045898728638
31
0
0
LINE
5
917
100
AcDbEntity
8
0
100
AcDbLine
10
4358.4360914278841
20
260.50045898728638
30
0
11
4358.4360914278841
21
284.62045898728638
31
0
0
LWPOLYLINE
5
918
100
AcDbEntity
8
0
100
AcDbPolyline
90
4
70
1
43
0.0
10
4376.6960914278843
20
381.75045898728638
10
4386.8860914278848
20
381.75045898728638
10
4386.8860914278848
20
378.9804589872864
10
4376.6960914278843
20
378.9804589872864
0
LWPOLYLINE
5
919
100
AcDbEntity
8
0
100
AcDbPolyline
90
4
70
1
43
0.0
10
4405.1460914278841
20
333.12045898728638
10
4405.1460914278841
20
309.13045898728637
10
4407.9160914278837
20
309.13045898728637
10
4407.9160914278837
20
333.12045898728638
0
LINE
5
920
100
AcDbEntity
8
0
100
AcDbLine
10
4355.6660914278846
20
357.63045898728586
30
0
11
4355.6660914278846
21
333.12045898728638
31
0
0
LINE
5
921
100
AcDbEntity
8
0
100
AcDbLine
10
4355.6660914278846
20
357.63045898728586
30
0
11
4355.6660914278846
21
381.75045898728638
31
0
0
LINE
5
922
100
AcDbEntity
8
0
100
AcDbLine
10
4358.4360914278841
20
357.63045898728643
30
0
11
4355.6660914278846
21
357.63045898728586
31
0
0
LINE
5
923
100
AcDbEntity
8
0
100
AcDbLine
10
4355.6660914278846
20
381.75045898728638
30
0
11
4358.4360914278841
21
381.75045898728638
31
0
0
LINE
5
924
100
AcDbEntity
8
0
100
AcDbLine
10
4405.1460914278841
20
378.9804589872864
30
0
11
4407.9160914278837
21
378.9804589872864
31
0
0
LINE
5
925
100
AcDbEntity
8
0
100
AcDbLine
10
4663.8410914278838
20
270.50045898728638
30
0
11
4673.8410914278838
21
270.50045898728638
31
0
0
LWPOLYLINE
5
926
100
AcDbEntity
8
0
100
AcDbPolyline
90
4
70
1
43
0.0
10
4734.4660914278838
20
308.87045898728638
10
4731.6960914278843
20
308.87045898728638
10
4731.6960914278843
20
284.88045898728637
10
4734.4660914278838
20
284.88045898728637
0
LWPOLYLINE
5
927
100
AcDbEntity
8
0
100
AcDbPolyline
90
4
70
1
43
0.0
10
4666.6110914278843
20
308.87045898728638
10
4663.8410914278838
20
308.87045898728638
10
4663.8410914278838
20
284.88045898728637
10
4666.6110914278843
20
284.88045898728637
0
LINE
5
928
100
AcDbEntity
8
0
100
AcDbLine
10
4376.6960914278843
20
263.27045898728642
30
0
11
4376.6960914278843
21
260.50045898728638
31
0
0
LINE
5
929
100
AcDbEntity
8
0
100
AcDbLine
10
4355.6660914278846
20
263.27045898728642
30
0
11
4355.6660914278846
21
260.50045898728638
31
0
0
LINE
5
930
100
AcDbEntity
8
0
100
AcDbLine
10
5208.4360914278841
20
281.12045898728644
30
0
11
5205.6660914278837
21
281.12045898728644
31
0
0
LINE
5
931
100
AcDbEntity
8
0
100
AcDbLine
10
5247.5960914278839
20
263.27045898728642
30
0
11
5257.9160914278837
21
263.27045898728642
31
0
0
LINE
5
932
100
AcDbEntity
8
0
100
AcDbLine
10
5257.9160914278837
20
263.27045898728642
30
0
11
5257.9160914278837
21
260.50045898728638
31
0
0
LINE
5
933
100
AcDbEntity
8
0
100
AcDbLine
10
5215.9860914278843
20
263.27045898728642
30
0
11
5205.6660914278837
21
263.27045898728642
31
0
0
LINE
5
934
100
AcDbEntity
8
0
100
AcDbLine
10
5205.6660914278837
20
260.50045898728638
30
0
11
5215.9860914278843
21
260.50045898728638
31
0
0
LINE
5
935
100
AcDbEntity
8
0
100
AcDbLine
10
5255.146091427885
20
260.50045898728638
30
0
11
5255.146091427885
21
281.12045898728644
31
0
0
LINE
5
936
100
AcDbEntity
8
0
100
AcDbLine
10
5257.9160914278837
20
260.50045898728638
30
0
11
5255.146091427885
21
260.50045898728638
31
0
0
LINE
5
937
100
AcDbEntity
8
0
100
AcDbLine
10
4365.9860914278843
20
263.27045898728642
30
0
11
4355.6660914278846
21
263.27045898728642
31
0
0
LINE
5
938
100
AcDbEntity
8
0
100
AcDbLine
10
4358.4360914278841
20
284.62045898728638
30
0
11
4355.6660914278846
21
284.62045898728638
31
0
0
LINE
5
939
100
AcDbEntity
8
0
100
AcDbLine
10
4355.6660914278846
20
260.50045898728638
30
0
11
4358.4360914278841
21
260.50045898728638
31
0
0
LINE
5
940
100
AcDbEntity
8
0
100
AcDbLine
10
4386.8860914278848
20
260.50045898728638
30
0
11
4386.8860914278848
21
263.27045898728642
31
0
0
LINE
5
941
100
AcDbEntity
8
0
100
AcDbLine
10
4355.6660914278846
20
260.50045898728638
30
0
11
4365.9860914278843
21
260.50045898728695
31
0
0
LINE
5
942
100
AcDbEntity
8
0
100
AcDbLine
10
5073.9710914278849
20
268.27045898728642
30
0
11
5094.4610914278846
21
268.27045898728642
31
0
0
LINE
5
943
100
AcDbEntity
8
0
100
AcDbLine
10
5073.9710914278849
20
265.50045898728644
30
0
11
5073.9710914278849
21
268.27045898728642
31
0
0
LINE
5
944
100
AcDbEntity
8
0
100
AcDbLine
10
4734.4150967826272
20
263.27045732352371
30
0
11
4727.2410914278844
21
263.27045898728642
31
0
0
CIRCLE
5
945
100
AcDbEntity
8
0
100
AcDbCircle
10
4716.0910914278847
20
270.50045898728638
30
0
40
2.8849999999997826
210
0
220
0
230
1
0
LINE
5
946
100
AcDbEntity
8
0
100
AcDbLine
10
4832.9160914278846
20
138.25045898728638
30
0
11
4832.9160914278846
21
190.50045898728641
31
0
0
LWPOLYLINE
5
947
100
AcDbEntity
8
0
100
AcDbPolyline
90
4
70
1
43
0.0
10
5094.4610914278846
20
314.8504589872864
10
5094.4610914278846
20
317.62045898728644
10
5073.9710914278849
20
317.62045898728644
10
5073.9710914278849
20
314.8504589872864
0
LWPOLYLINE
5
948
100
AcDbEntity
8
0
100
AcDbPolyline
90
4
70
1
43
0.0
10
5071.4360914278841
20
319.9804589872864
10
5071.4360914278841
20
322.75045898728644
10
5092.266091427884
20
322.75045898728644
10
5092.266091427884
20
319.9804589872864
0
LINE
5
949
100
AcDbEntity
8
0
100
AcDbLine
10
4358.4360914278841
20
309.13045898728637
30
0
11
4355.6660914278846
21
309.13045898728637
31
0
0
LINE
5
950
100
AcDbEntity
8
0
100
AcDbLine
10
4358.4360914278841
20
381.75045898728638
30
0
11
4358.4360914278841
21
357.63045898728643
31
0
0
LINE
5
951
100
AcDbEntity
8
0
100
AcDbLine
10
5075.8818917548651
20
398.8517389178885
30
0
11
5078.6518917548647
21
398.8517389178885
31
0
0
LINE
5
952
100
AcDbEntity
8
0
100
AcDbLine
10
5128.1318917548651
20
346.6017389178885
30
0
11
5112.5118917548652
21
346.6017389178885
31
0
0
LINE
5
953
100
AcDbEntity
8
0
100
AcDbLine
10
5075.8818917548651
20
349.37173891788854
30
0
11
5075.8818917548651
21
346.6017389178885
31
0
0
LINE
5
954
100
AcDbEntity
8
0
100
AcDbLine
10
5091.501891754865
20
349.37173891788854
30
0
11
5075.8818917548651
21
349.37173891788854
31
0
0
LINE
5
955
100
AcDbEntity
8
0
100
AcDbLine
10
5075.8818917548651
20
398.8517389178885
30
0
11
5075.8818917548651
21
346.6017389178885
31
0
0
LWPOLYLINE
5
956
100
AcDbEntity
8
0
100
AcDbPolyline
90
3
70
1
43
0.0
10
5123.1318917548651
20
398.8517389178885
10
5080.8818917548651
20
398.8517389178885
10
5102.0068917548651
20
398.8517389178885
0
CIRCLE
5
957
100
AcDbEntity
8
0
100
AcDbCircle
10
5086.6273192640583
20
385.87631140869576
30
0
40
2.184999999999973
210
0
220
0
230
1
0
LINE
5
958
100
AcDbEntity
8
0
100
AcDbLine
10
5078.6518917548647
20
363.88840558455519
30
0
11
5075.8818917548651
21
363.88840558455519
31
0
0
LINE
5
959
100
AcDbEntity
8
0
100
AcDbLine
10
5075.8818917548651
20
346.6017389178885
30
0
11
5078.6518917548647
21
346.6017389178885
31
0
0
LINE
5
960
100
AcDbEntity
8
0
100
AcDbLine
10
5075.8818917548651
20
381.56507225122186
30
0
11
5075.8818917548651
21
398.8517389178885
31
0
0
LINE
5
961
100
AcDbEntity
8
0
100
AcDbLine
10
5078.6518917548647
20
398.8517389178885
30
0
11
5078.6518917548647
21
381.56507225122186
31
0
0
LINE
5
962
100
AcDbEntity
8
0
100
AcDbLine
10
5128.1318917548651
20
346.6017389178885
30
0
11
5128.1318917548651
21
398.8517389178885
31
0
0
LINE
5
963
100
AcDbEntity
8
0
100
AcDbLine
10
5075.8818917548651
20
346.6017389178885
30
0
11
5128.1318917548651
21
346.6017389178885
31
0
0
CIRCLE
5
964
100
AcDbEntity
8
0
100
AcDbCircle
10
5102.0068917548651
20
370.49673891788842
30
0
40
11.25
210
0
220
0
230
1
0
LINE
5
965
100
AcDbEntity
8
0
100
AcDbLine
10
5078.6518917548647
20
381.56507225122186
30
0
11
5075.8818917548651
21
381.56507225122186
31
0
0
LINE
5
966
100
AcDbEntity
8
0
100
AcDbLine
10
4705.8910914278849
20
263.27045898728642
30
0
11
4685.0610914278841
21
263.27045898728642
31
0
0
CIRCLE
5
967
100
AcDbEntity
8
0
100
AcDbCircle
10
4687.9244247612178
20
270.50045898728638
30
0
40
2.8849999999997826
210
0
220
0
230
1
0
LINE
5
968
100
AcDbEntity
8
0
100
AcDbLine
10
4355.6660914278846
20
309.13045898728637
30
0
11
4355.6660914278846
21
333.12045898728638
31
0
0
LINE
5
969
100
AcDbEntity
8
0
100
AcDbLine
10
5205.6660914278837
20
263.27045898728642
30
0
11
5205.6660914278837
21
260.50045898728638
31
0
0
LINE
5
970
100
AcDbEntity
8
0
100
AcDbLine
10
5050.2160914278838
20
319.9804589872864
30
0
11
5071.4360914278841
21
319.9804589872864
31
0
0
CIRCLE
5
971
100
AcDbEntity
8
0
100
AcDbCircle
10
4808.8327580945506
20
371.75045898728638
30
0
40
2.8850000000000002
210
0
220
0
230
1
0
LINE
5
972
100
AcDbEntity
8
0
100
AcDbLine
10
4819.5360914278845
20
378.9804589872864
30
0
11
4819.5360914278845
21
381.75045898728638
31
0
0
LINE
5
973
100
AcDbEntity
8
0
100
AcDbLine
10
4806.5460914278847
20
378.9804589872864
30
0
11
4819.5360914278845
21
378.9804589872864
31
0
0
LINE
5
974
100
AcDbEntity
8
0
100
AcDbLine
10
4819.5360914278845
20
381.75045898728638
30
0
11
4806.5460914278847
21
381.75045898728638
31
0
0
LINE
5
975
100
AcDbEntity
8
0
100
AcDbLine
10
4819.5360914278845
20
260.50045898728638
30
0
11
4806.5460914278847
21
260.50045898728638
31
0
0
LINE
5
976
100
AcDbEntity
8
0
100
AcDbLine
10
4685.0610914278841
20
260.50045898728638
30
0
11
4705.8910914278849
21
260.50045898728638
31
0
0
LINE
5
977
100
AcDbEntity
8
0
100
AcDbLine
10
4832.9160914278846
20
260.50045898728638
30
0
11
4832.9160914278846
21
270.50045898728638
31
0
0
LINE
5
978
100
AcDbEntity
8
0
100
AcDbLine
10
4793.1660914278846
20
260.50045898728638
30
0
11
4832.9160914278846
21
260.50045898728638
31
0
0
LINE
5
979
100
AcDbEntity
8
0
100
AcDbLine
10
4832.9160914278846
20
260.50045898728638
30
0
11
4832.9160914278846
21
381.75045898728638
31
0
0
LINE
5
980
100
AcDbEntity
8
0
100
AcDbLine
10
4663.8410914278838
20
260.50045898728638
30
0
11
4685.0610914278841
21
260.50045898728638
31
0
0
LINE
5
981
100
AcDbEntity
8
0
100
AcDbLine
10
4355.6660914278846
20
378.9804589872864
30
0
11
4358.4360914278841
21
378.9804589872864
31
0
0
LINE
5
982
100
AcDbEntity
8
0
100
AcDbLine
10
5110.3410914278847
20
265.50045898728644
30
0
11
5094.4610914278846
21
265.50045898728644
31
0
0
LINE
5
983
100
AcDbEntity
8
0
100
AcDbLine
10
5112.4410914278842
20
275.50045898728644
30
0
11
5129.0660914278851
21
275.50045898728644
31
0
0
LINE
5
984
100
AcDbEntity
8
0
100
AcDbLine
10
5050.2160914278838
20
260.50045898728615
30
0
11
5107.4410914278842
21
260.50045898728615
31
0
0
LINE
5
985
100
AcDbEntity
8
0
100
AcDbLine
10
5071.4360914278841
20
260.50045898728638
30
0
11
5092.266091427884
21
260.50045898728638
31
0
0
LINE
5
986
100
AcDbEntity
8
0
100
AcDbLine
10
5092.266091427884
20
260.50045898728638
30
0
11
5092.266091427884
21
263.27045898728642
31
0
0
CIRCLE
5
987
100
AcDbEntity
8
0
100
AcDbCircle
10
5112.9003835714057
20
168.49545898728636
30
0
40
1.9350000000000001
210
0
220
0
230
1
0
CIRCLE
5
988
100
AcDbEntity
8
0
100
AcDbCircle
10
5102.9410914278842
20
185.74545898728638
30
0
40
1.9350000000000001
210
0
220
0
230
1
0
LWPOLYLINE
5
989
100
AcDbEntity
8
0
100
AcDbPolyline
90
4
70
1
43
0.0
10
5052.9860914278843
20
199.92045898728639
10
5052.9860914278843
20
189.73045898728643
10
5050.2160914278838
20
189.73045898728643
10
5050.2160914278838
20
199.92045898728639
0
LWPOLYLINE
5
990
100
AcDbEntity
8
0
100
AcDbPolyline
90
4
70
1
43
0.0
10
5052.9860914278843
20
179.02045898728642
10
5052.9860914278843
20
168.83045898728642
10
5050.2160914278838
20
168.83045898728642
10
5050.2160914278838
20
179.02045898728642
0
LINE
5
991
100
AcDbEntity
8
0
100
AcDbLine
10
5071.1760914278839
20
207.7304589872864
30
0
11
5050.2160914278838
21
207.7304589872864
31
0
0
LWPOLYLINE
5
992
100
AcDbEntity
8
0
100
AcDbPolyline
90
4
70
1
43
0.0
10
5071.1760914278839
20
158.25045898728638
10
5071.1760914278839
20
161.02045898728642
10
5050.2160914278838
20
161.02045898728642
10
5050.2160914278838
20
158.25045898728638
0
CIRCLE
5
993
100
AcDbEntity
8
0
100
AcDbCircle
10
5072.0660914278851
20
184.24545898728638
30
0
40
6.3999999999999213
210
0
220
0
230
1
0
CIRCLE
5
994
100
AcDbEntity
8
0
100
AcDbCircle
10
5102.9410914278842
20
174.24545898728638
30
0
40
4.4999999999999236
210
0
220
0
230
1
0
CIRCLE
5
995
100
AcDbEntity
8
0
100
AcDbCircle
10
5092.9817992843637
20
168.49545898728644
30
0
40
1.9350000000000001
210
0
220
0
230
1
0
LWPOLYLINE
5
996
100
AcDbEntity
8
0
100
AcDbPolyline
90
4
70
1
43
0.0
10
5092.5260914278842
20
161.02045898728642
10
5092.5260914278842
20
158.25045898728638
10
5113.3560914278842
20
158.25045898728638
10
5113.3560914278842
20
161.02045898728642
0
LINE
5
997
100
AcDbEntity
8
0
100
AcDbLine
10
5113.3560914278842
20
207.7304589872864
30
0
11
5092.5260914278842
21
207.7304589872864
31
0
0
CIRCLE
5
998
100
AcDbEntity
8
0
100
AcDbCircle
10
5133.8160914278842
20
184.24545898728638
30
0
40
6.3999999999999417
210
0
220
0
230
1
0
LINE
5
999
100
AcDbEntity
8
0
100
AcDbLine
10
5155.6660914278837
20
199.92045898728639
30
0
11
5152.8960914278841
21
199.92045898728639
31
0
0
LINE
5
1000
100
AcDbEntity
8
0
100
AcDbLine
10
5152.8960914278841
20
189.73045898728643
30
0
11
5155.6660914278837
21
189.73045898728643
31
0
0
LINE
5
1001
100
AcDbEntity
8
0
100
AcDbLine
10
5050.2160914278838
20
158.25045898728638
30
0
11
5155.6660914278837
21
158.25045898728638
31
0
0
LINE
5
1002
100
AcDbEntity
8
0
100
AcDbLine
10
5257.9160914278837
20
281.12045898728644
30
0
11
5257.9160914278837
21
260.50045898728638
31
0
0
LINE
5
1003
100
AcDbEntity
8
0
100
AcDbLine
10
5205.6660914278837
20
260.50045898728638
30
0
11
5257.9160914278855
21
260.50045898728638
31
0
0
LINE
5
1004
100
AcDbEntity
8
0
100
AcDbLine
10
5205.6660914278837
20
281.12045898728644
30
0
11
5205.6660914278837
21
260.50045898728638
31
0
0
CIRCLE
5
1005
100
AcDbEntity
8
0
100
AcDbCircle
10
5117.3864642456729
20
355.11716642708097
30
0
40
2.1849999999999605
210
0
220
0
230
1
0
LINE
5
1006
100
AcDbEntity
8
0
100
AcDbLine
10
4806.5460914278847
20
263.27045898728642
30
0
11
4819.5360914278845
21
263.27045898728642
31
0
0
LINE
5
1007
100
AcDbEntity
8
0
100
AcDbLine
10
4832.9160914278846
20
187.7304589872864
30
0
11
4832.9160914278846
21
190.50045898728641
31
0
0
CIRCLE
5
1008
100
AcDbEntity
8
0
100
AcDbCircle
10
4623.1920502380726
20
148.49545898728636
30
0
40
1.9350000000000001
210
0
220
0
230
1
0
LWPOLYLINE
5
1009
100
AcDbEntity
8
0
100
AcDbPolyline
90
4
70
1
43
0.0
10
4606.1510914278842
20
141.02045898728642
10
4606.1510914278842
20
138.25045898728638
10
4626.9810914278842
20
138.25045898728638
10
4626.9810914278842
20
141.02045898728642
0
LWPOLYLINE
5
1010
100
AcDbEntity
8
0
100
AcDbPolyline
90
4
70
1
43
0.0
10
4634.4660914278838
20
148.83045898728642
10
4631.6960914278843
20
148.83045898728642
10
4631.6960914278843
20
159.02045898728642
10
4634.4660914278838
20
159.02045898728642
0
LINE
5
1011
100
AcDbEntity
8
0
100
AcDbLine
10
4626.9810914278842
20
190.50045898728641
30
0
11
4626.9810914278842
21
187.7304589872864
31
0
0
LWPOLYLINE
5
1012
100
AcDbEntity
8
0
100
AcDbPolyline
90
4
70
1
43
0.0
10
4631.6960914278843
20
179.92045898728639
10
4634.4660914278838
20
179.92045898728639
10
4634.4660914278838
20
169.73045898728643
10
4631.6960914278843
20
169.73045898728643
0
CIRCLE
5
1013
100
AcDbEntity
8
0
100
AcDbCircle
10
4603.2734659510306
20
148.49545898728644
30
0
40
1.9350000000000001
210
0
220
0
230
1
0
LINE
5
1014
100
AcDbEntity
8
0
100
AcDbLine
10
4606.1510914278842
20
190.50045898728641
30
0
11
4626.9810914278842
21
190.50045898728641
31
0
0
LINE
5
1015
100
AcDbEntity
8
0
100
AcDbLine
10
4606.1510914278842
20
187.7304589872864
30
0
11
4606.1510914278842
21
190.50045898728641
31
0
0
LINE
5
1016
100
AcDbEntity
8
0
100
AcDbLine
10
4626.9810914278842
20
187.7304589872864
30
0
11
4606.1510914278842
21
187.7304589872864
31
0
0
LINE
5
1017
100
AcDbEntity
8
0
100
AcDbLine
10
4634.4660914278838
20
138.25045898728638
30
0
11
4634.4447790758595
21
190.50045898728641
31
0
0
LINE
5
1018
100
AcDbEntity
8
0
100
AcDbLine
10
4584.8010914278839
20
190.50045898728641
30
0
11
4606.1510914278842
21
190.50045898728641
31
0
0
LINE
5
1019
100
AcDbEntity
8
0
100
AcDbLine
10
4563.8410914278838
20
138.25045898728638
30
0
11
4634.4660914278838
21
138.25045898728638
31
0
0
LINE
5
1020
100
AcDbEntity
8
0
100
AcDbLine
10
4634.4447790758595
20
190.50045898728641
30
0
11
4563.8410914278838
21
190.50045898728641
31
0
0
LINE
5
1021
100
AcDbEntity
8
0
100
AcDbLine
10
4563.8410914278838
20
138.25045898728638
30
0
11
4634.4660914278838
21
138.25045898728638
31
0
0
LINE
5
1022
100
AcDbEntity
8
0
100
AcDbLine
10
4627.2410914278844
20
378.9804589872864
30
0
11
4634.3678996103254
21
378.98045732352381
31
0
0
LINE
5
1023
100
AcDbEntity
8
0
100
AcDbLine
10
4627.2410914278844
20
381.75045898728638
30
0
11
4627.2410914278844
21
378.9804589872864
31
0
0
LWPOLYLINE
5
1024
100
AcDbEntity
8
0
100
AcDbPolyline
90
4
70
1
43
0.0
10
4585.0610914278841
20
378.9804589872864
10
4585.0610914278841
20
381.75045898728638
10
4605.8910914278849
20
381.75045898728638
10
4605.8910914278849
20
378.9804589872864
0
LINE
5
1025
100
AcDbEntity
8
0
100
AcDbLine
10
4563.8410914278838
20
381.75045898728638
30
0
11
4563.8410914278838
21
260.50045898728638
31
0
0
LINE
5
1026
100
AcDbEntity
8
0
100
AcDbLine
10
4634.4162266425246
20
260.50045898728638
30
0
11
4634.366769749071
21
381.75045898728638
31
0
0
LINE
5
1027
100
AcDbEntity
8
0
100
AcDbLine
10
4563.8410914278838
20
333.38045898728637
30
0
11
4563.8410914278838
21
357.37045898728638
31
0
0
LINE
5
1028
100
AcDbEntity
8
0
100
AcDbLine
10
4566.6110914278843
20
357.37045898728638
30
0
11
4566.6110914278843
21
333.38045898728637
31
0
0
LWPOLYLINE
5
1029
100
AcDbEntity
8
0
100
AcDbPolyline
90
4
70
1
43
0.0
10
4631.6960914278843
20
357.37045898728638
10
4631.6960914278843
20
333.38045898728637
10
4634.4660914278838
20
333.38045898728637
10
4634.4660914278838
20
357.37045898728638
0
LINE
5
1030
100
AcDbEntity
8
0
100
AcDbLine
10
4584.8010914278839
20
190.50045898728641
30
0
11
4584.8010914278839
21
187.7304589872864
31
0
0
LINE
5
1031
100
AcDbEntity
8
0
100
AcDbLine
10
4584.8010914278839
20
141.02045898728642
30
0
11
4584.8010914278839
21
138.25045898728638
31
0
0
LWPOLYLINE
5
1032
100
AcDbEntity
8
0
100
AcDbPolyline
90
4
70
1
43
0.0
10
4563.8410914278838
20
159.02045898728642
10
4566.6110914278843
20
159.02045898728642
10
4566.6110914278843
20
148.83045898728642
10
4563.8410914278838
20
148.83045898728642
0
LWPOLYLINE
5
1033
100
AcDbEntity
8
0
100
AcDbPolyline
90
4
70
1
43
0.0
10
4566.6110914278843
20
169.73045898728643
10
4563.8410914278838
20
169.73045898728643
10
4563.8410914278838
20
179.92045898728639
10
4566.6110914278843
20
179.92045898728639
0
LINE
5
1034
100
AcDbEntity
8
0
100
AcDbLine
10
4563.8410914278838
20
141.02045898728642
30
0
11
4584.8010914278839
21
141.02045898728642
31
0
0
LINE
5
1035
100
AcDbEntity
8
0
100
AcDbLine
10
4563.8410914278838
20
190.50045898728641
30
0
11
4563.8410914278838
21
138.25045898728638
31
0
0
LINE
5
1036
100
AcDbEntity
8
0
100
AcDbLine
10
4563.8410914278838
20
138.25045898728638
30
0
11
4563.8410914278838
21
141.02045898728642
31
0
0
LINE
5
1037
100
AcDbEntity
8
0
100
AcDbLine
10
4563.8410914278838
20
187.7304589872864
30
0
11
4563.8410914278838
21
190.50045898728641
31
0
0
LINE
5
1038
100
AcDbEntity
8
0
100
AcDbLine
10
4563.8410914278838
20
190.50045898728641
30
0
11
4584.8010914278839
21
190.50045898728641
31
0
0
LINE
5
1039
100
AcDbEntity
8
0
100
AcDbLine
10
4584.8010914278839
20
138.25045898728638
30
0
11
4563.8410914278838
21
138.25045898728638
31
0
0
CIRCLE
5
1040
100
AcDbEntity
8
0
100
AcDbCircle
10
4585.6910914278851
20
164.24545898728638
30
0
40
6.3999999999999213
210
0
220
0
230
1
0
LINE
5
1041
100
AcDbEntity
8
0
100
AcDbLine
10
4584.8010914278839
20
187.7304589872864
30
0
11
4563.8410914278838
21
187.7304589872864
31
0
0
CIRCLE
5
1042
100
AcDbEntity
8
0
100
AcDbCircle
10
4613.2327580945512
20
154.24545898728638
30
0
40
4.4999999999999236
210
0
220
0
230
1
0
CIRCLE
5
1043
100
AcDbEntity
8
0
100
AcDbCircle
10
4613.2327580945512
20
165.74545898728638
30
0
40
1.9350000000000001
210
0
220
0
230
1
0
CIRCLE
5
1044
100
AcDbEntity
8
0
100
AcDbCircle
10
4602.0077580945508
20
371.75045898728638
30
0
40
2.8849999999997826
210
0
220
0
230
1
0
CIRCLE
5
1045
100
AcDbEntity
8
0
100
AcDbCircle
10
4616.0910914278847
20
371.75045898728638
30
0
40
2.8849999999997826
210
0
220
0
230
1
0
LINE
5
1046
100
AcDbEntity
8
0
100
AcDbLine
10
4563.8410914278838
20
357.37045898728638
30
0
11
4566.6110914278843
21
357.37045898728638
31
0
0
CIRCLE
5
1047
100
AcDbEntity
8
0
100
AcDbCircle
10
4573.8410914278838
20
371.75045898728638
30
0
40
2.8849999999997826
210
0
220
0
230
1
0
LINE
5
1048
100
AcDbEntity
8
0
100
AcDbLine
10
4563.8410914278838
20
381.75045898728638
30
0
11
4563.8410914278838
21
357.37045898728638
31
0
0
LINE
5
1049
100
AcDbEntity
8
0
100
AcDbLine
10
4634.366769749071
20
381.75045898728638
30
0
11
4563.8410914278838
21
381.75045898728638
31
0
0
LINE
5
1050
100
AcDbEntity
8
0
100
AcDbLine
10
4634.366769749071
20
381.75045898728638
30
0
11
4627.2410914278844
21
381.75045898728638
31
0
0
LINE
5
1051
100
AcDbEntity
8
0
100
AcDbLine
10
4585.0610914278841
20
260.50045898728638
30
0
11
4605.8910914278849
21
260.50045898728638
31
0
0
LWPOLYLINE
5
1052
100
AcDbEntity
8
0
100
AcDbPolyline
90
4
70
1
43
0.0
10
4631.6960914278843
20
284.88045898728637
10
4634.4660914278838
20
284.88045898728637
10
4634.4660914278838
20
308.87045898728638
10
4631.6960914278843
20
308.87045898728638
0
LWPOLYLINE
5
1053
100
AcDbEntity
8
0
100
AcDbPolyline
90
4
70
1
43
0.0
10
4563.8410914278838
20
308.87045898728638
10
4563.8410914278838
20
284.88045898728637
10
4566.6110914278843
20
284.88045898728637
10
4566.6110914278843
20
308.87045898728638
0
CIRCLE
5
1054
100
AcDbEntity
8
0
100
AcDbCircle
10
4616.0910914278847
20
270.50045898728638
30
0
40
2.8849999999997826
210
0
220
0
230
1
0
CIRCLE
5
1055
100
AcDbEntity
8
0
100
AcDbCircle
10
4602.0077580945508
20
270.50045898728638
30
0
40
2.8849999999997826
210
0
220
0
230
1
0
LINE
5
1056
100
AcDbEntity
8
0
100
AcDbLine
10
4585.0610914278841
20
263.27045898728642
30
0
11
4585.0610914278841
21
260.50045898728638
31
0
0
LINE
5
1057
100
AcDbEntity
8
0
100
AcDbLine
10
4605.8910914278849
20
260.50045898728638
30
0
11
4605.8910914278849
21
263.27045898728642
31
0
0
CIRCLE
5
1058
100
AcDbEntity
8
0
100
AcDbCircle
10
4587.9244247612178
20
270.50045898728638
30
0
40
2.8849999999997826
210
0
220
0
230
1
0
CIRCLE
5
1059
100
AcDbEntity
8
0
100
AcDbCircle
10
4573.8410914278838
20
270.50045898728638
30
0
40
2.8849999999997826
210
0
220
0
230
1
0
LINE
5
1060
100
AcDbEntity
8
0
100
AcDbLine
10
4563.8410914278838
20
260.50045898728638
30
0
11
4585.0610914278841
21
260.50045898728638
31
0
0
LINE
5
1061
100
AcDbEntity
8
0
100
AcDbLine
10
4634.4150967826272
20
263.27045732352371
30
0
11
4627.2410914278844
21
263.27045898728642
31
0
0
LINE
5
1062
100
AcDbEntity
8
0
100
AcDbLine
10
4563.8410914278838
20
260.50045898728638
30
0
11
4563.8410914278838
21
270.50045898728638
31
0
0
LINE
5
1063
100
AcDbEntity
8
0
100
AcDbLine
10
4605.8910914278849
20
263.27045898728642
30
0
11
4585.0610914278841
21
263.27045898728642
31
0
0
LINE
5
1064
100
AcDbEntity
8
0
100
AcDbLine
10
4563.8410914278838
20
270.50045898728638
30
0
11
4573.8410914278838
21
270.50045898728638
31
0
0
LINE
5
1065
100
AcDbEntity
8
0
100
AcDbLine
10
4627.2410914278844
20
260.50045898728638
30
0
11
4634.4162266425246
21
260.50045898728638
31
0
0
LINE
5
1066
100
AcDbEntity
8
0
100
AcDbLine
10
4627.2410914278844
20
263.27045898728642
30
0
11
4627.2410914278844
21
260.50045898728638
31
0
0
LINE
5
1067
100
AcDbEntity
8
0
100
AcDbLine
10
4563.8410914278838
20
260.50045898728638
30
0
11
4634.4162266425246
21
260.50045898728638
31
0
0
LINE
5
1068
100
AcDbEntity
8
0
100
AcDbLine
10
4566.6110914278843
20
333.38045898728637
30
0
11
4563.8410914278838
21
333.38045898728637
31
0
0
CIRCLE
5
1069
100
AcDbEntity
8
0
100
AcDbCircle
10
4587.9244247612178
20
371.75045898728638
30
0
40
2.8849999999997826
210
0
220
0
230
1
0
LINE
5
1070
100
AcDbEntity
8
0
100
AcDbLine
10
4907.9160914278846
20
270.50045898728638
30
0
11
4897.9160914278846
21
270.50045898728638
31
0
0
LINE
5
1071
100
AcDbEntity
8
0
100
AcDbLine
10
4907.9160914278846
20
381.75045898728638
30
0
11
4894.5360914278845
21
381.75045898728638
31
0
0
LINE
5
1072
100
AcDbEntity
8
0
100
AcDbLine
10
4907.9160914278846
20
381.75045898728638
30
0
11
4868.1660914278846
21
381.75045898728638
31
0
0
LWPOLYLINE
5
1073
100
AcDbEntity
8
0
100
AcDbPolyline
90
4
70
1
43
0.0
10
4907.9160914278846
20
357.37045898728638
10
4905.146091427885
20
357.37045898728638
10
4905.146091427885
20
333.38045898728637
10
4907.9160914278846
20
333.38045898728637
0
CIRCLE
5
1074
100
AcDbEntity
8
0
100
AcDbCircle
10
4897.9160914278846
20
371.75045898728638
30
0
40
2.8850000000000002
210
0
220
0
230
1
0
LINE
5
1075
100
AcDbEntity
8
0
100
AcDbLine
10
4894.5360914278845
20
381.75045898728638
30
0
11
4881.5460914278847
21
381.75045898728638
31
0
0
LINE
5
1076
100
AcDbEntity
8
0
100
AcDbLine
10
4881.5460914278847
20
378.9804589872864
30
0
11
4894.5360914278845
21
378.9804589872864
31
0
0
LWPOLYLINE
5
1077
100
AcDbEntity
8
0
100
AcDbPolyline
90
4
70
1
43
0.0
10
4870.936091427885
20
357.37045898728638
10
4868.1660914278846
20
357.37045898728638
10
4868.1660914278846
20
333.38045898728637
10
4870.936091427885
20
333.38045898728637
0
CIRCLE
5
1078
100
AcDbEntity
8
0
100
AcDbCircle
10
4883.8327580945506
20
371.75045898728638
30
0
40
2.8850000000000002
210
0
220
0
230
1
0
LINE
5
1079
100
AcDbEntity
8
0
100
AcDbLine
10
4894.5360914278845
20
378.9804589872864
30
0
11
4894.5360914278845
21
381.75045898728638
31
0
0
LINE
5
1080
100
AcDbEntity
8
0
100
AcDbLine
10
4881.5460914278847
20
381.75045898728638
30
0
11
4881.5460914278847
21
378.9804589872864
31
0
0
LWPOLYLINE
5
1081
100
AcDbEntity
8
0
100
AcDbPolyline
90
4
70
1
43
0.0
10
4870.936091427885
20
284.88045898728637
10
4870.936091427885
20
308.87045898728638
10
4868.1660914278846
20
308.87045898728638
10
4868.1660914278846
20
284.88045898728637
0
CIRCLE
5
1082
100
AcDbEntity
8
0
100
AcDbCircle
10
4897.9160914278846
20
270.50045898728638
30
0
40
2.8850000000000002
210
0
220
0
230
1
0
LINE
5
1083
100
AcDbEntity
8
0
100
AcDbLine
10
4907.9160914278846
20
260.50045898728638
30
0
11
4907.9160914278846
21
270.50045898728638
31
0
0
LWPOLYLINE
5
1084
100
AcDbEntity
8
0
100
AcDbPolyline
90
4
70
1
43
0.0
10
4905.146091427885
20
284.88045898728637
10
4907.9160914278846
20
284.88045898728637
10
4907.9160914278846
20
308.87045898728638
10
4905.146091427885
20
308.87045898728638
0
LINE
5
1085
100
AcDbEntity
8
0
100
AcDbLine
10
4894.5360914278845
20
260.50045898728638
30
0
11
4881.5460914278847
21
260.50045898728638
31
0
0
CIRCLE
5
1086
100
AcDbEntity
8
0
100
AcDbCircle
10
4883.8327580945506
20
270.50045898728638
30
0
40
2.8850000000000002
210
0
220
0
230
1
0
LINE
5
1087
100
AcDbEntity
8
0
100
AcDbLine
10
4881.5460914278847
20
263.27045898728642
30
0
11
4894.5360914278845
21
263.27045898728642
31
0
0
LINE
5
1088
100
AcDbEntity
8
0
100
AcDbLine
10
4907.9160914278846
20
260.50045898728638
30
0
11
4894.5360914278845
21
260.50045898728638
31
0
0
LINE
5
1089
100
AcDbEntity
8
0
100
AcDbLine
10
4881.5460914278847
20
260.50045898728638
30
0
11
4881.5460914278847
21
263.27045898728642
31
0
0
LINE
5
1090
100
AcDbEntity
8
0
100
AcDbLine
10
4894.5360914278845
20
263.27045898728642
30
0
11
4894.5360914278845
21
260.50045898728638
31
0
0
LWPOLYLINE
5
1091
100
AcDbEntity
8
0
100
AcDbPolyline
90
4
70
1
43
0.0
10
4870.936091427885
20
169.73045898728643
10
4868.1660914278846
20
169.73045898728643
10
4868.1660914278846
20
179.92045898728639
10
4870.936091427885
20
179.92045898728639
0
LWPOLYLINE
5
1092
100
AcDbEntity
8
0
100
AcDbPolyline
90
4
70
1
43
0.0
10
4870.936091427885
20
148.83045898728642
10
4868.1660914278846
20
148.83045898728642
10
4868.1660914278846
20
159.02045898728642
10
4870.936091427885
20
159.02045898728642
0
LINE
5
1093
100
AcDbEntity
8
0
100
AcDbLine
10
4868.1660914278846
20
260.50045898728638
30
0
11
4868.1660914278846
21
381.75045898728638
31
0
0
LWPOLYLINE
5
1094
100
AcDbEntity
8
0
100
AcDbPolyline
90
4
70
1
43
0.0
10
4907.9160914278846
20
169.73045898728643
10
4905.146091427885
20
169.73045898728643
10
4905.146091427885
20
179.92045898728639
10
4907.9160914278846
20
179.92045898728639
0
LINE
5
1095
100
AcDbEntity
8
0
100
AcDbLine
10
4868.1660914278846
20
187.7304589872864
30
0
11
4868.1660914278846
21
190.50045898728641
31
0
0
LINE
5
1096
100
AcDbEntity
8
0
100
AcDbLine
10
4894.7960914278847
20
141.02045898728642
30
0
11
4907.9160914278846
21
141.02045898728642
31
0
0
LINE
5
1097
100
AcDbEntity
8
0
100
AcDbLine
10
4907.9160914278846
20
260.50045898728638
30
0
11
4907.9160914278846
21
381.75045898728638
31
0
0
LINE
5
1098
100
AcDbEntity
8
0
100
AcDbLine
10
4868.1660914278846
20
138.25045898728638
30
0
11
4868.1660914278846
21
190.50045898728641
31
0
0
LINE
5
1099
100
AcDbEntity
8
0
100
AcDbLine
10
4907.9160914278846
20
190.50045898728641
30
0
11
4868.1660914278846
21
190.50045898728641
31
0
0
LINE
5
1100
100
AcDbEntity
8
0
100
AcDbLine
10
4907.9160914278846
20
141.02045898728642
30
0
11
4907.9160914278846
21
138.25045898728638
31
0
0
LINE
5
1101
100
AcDbEntity
8
0
100
AcDbLine
10
4907.9160914278846
20
138.25045898728638
30
0
11
4907.9160914278846
21
190.50045898728641
31
0
0
LINE
5
1102
100
AcDbEntity
8
0
100
AcDbLine
10
4907.9160914278846
20
190.50045898728641
30
0
11
4894.7960914278847
21
190.50045898728641
31
0
0
LINE
5
1103
100
AcDbEntity
8
0
100
AcDbLine
10
4881.2860914278845
20
141.02045898728642
30
0
11
4868.1660914278846
21
141.02045898728642
31
0
0
LINE
5
1104
100
AcDbEntity
8
0
100
AcDbLine
10
4868.1660914278846
20
190.50045898728641
30
0
11
4881.2860914278845
21
190.50045898728641
31
0
0
LINE
5
1105
100
AcDbEntity
8
0
100
AcDbLine
10
4868.1660914278846
20
260.50045898728638
30
0
11
4907.9160914278846
21
260.50045898728638
31
0
0
LWPOLYLINE
5
1106
100
AcDbEntity
8
0
100
AcDbPolyline
90
4
70
1
43
0.0
10
4905.146091427885
20
148.83045898728642
10
4905.146091427885
20
159.02045898728642
10
4907.9160914278846
20
159.02045898728642
10
4907.9160914278846
20
148.83045898728642
0
LINE
5
1107
100
AcDbEntity
8
0
100
AcDbLine
10
4894.7960914278847
20
187.7304589872864
30
0
11
4907.9160914278846
21
187.7304589872864
31
0
0
LINE
5
1108
100
AcDbEntity
8
0
100
AcDbLine
10
4868.1660914278846
20
138.25045898728638
30
0
11
4881.2860914278845
21
138.25045898728638
31
0
0
LINE
5
1109
100
AcDbEntity
8
0
100
AcDbLine
10
4894.7960914278847
20
138.25045898728638
30
0
11
4894.7960914278847
21
141.02045898728642
31
0
0
LINE
5
1110
100
AcDbEntity
8
0
100
AcDbLine
10
4894.7960914278847
20
190.50045898728641
30
0
11
4894.7960914278847
21
187.7304589872864
31
0
0
LINE
5
1111
100
AcDbEntity
8
0
100
AcDbLine
10
4868.1660914278846
20
141.02045898728642
30
0
11
4868.1660914278846
21
138.25045898728638
31
0
0
LINE
5
1112
100
AcDbEntity
8
0
100
AcDbLine
10
4907.9160914278846
20
187.7304589872864
30
0
11
4907.9160914278846
21
190.50045898728641
31
0
0
LINE
5
1113
100
AcDbEntity
8
0
100
AcDbLine
10
4881.2860914278845
20
138.25045898728638
30
0
11
4881.2860914278845
21
141.02045898728642
31
0
0
LINE
5
1114
100
AcDbEntity
8
0
100
AcDbLine
10
4868.1660914278846
20
138.25045898728638
30
0
11
4907.9160914278846
21
138.25045898728638
31
0
0
LINE
5
1115
100
AcDbEntity
8
0
100
AcDbLine
10
4881.2860914278845
20
190.50045898728641
30
0
11
4881.2860914278845
21
187.7304589872864
31
0
0
LINE
5
1116
100
AcDbEntity
8
0
100
AcDbLine
10
4881.2860914278845
20
187.7304589872864
30
0
11
4868.1660914278846
21
187.7304589872864
31
0
0
LINE
5
1117
100
AcDbEntity
8
0
100
AcDbLine
10
4907.9160914278846
20
138.25045898728638
30
0
11
4894.7960914278847
21
138.25045898728638
31
0
0
CIRCLE
5
1118
100
AcDbEntity
8
0
100
AcDbCircle
10
4886.0660914278842
20
164.24545898728638
30
0
40
6.3999999999999417
210
0
220
0
230
1
0
LINE
5
1119
100
AcDbEntity
8
0
100
AcDbLine
10
5515.9860914278843
20
319.9804589872864
30
0
11
5526.6960914278843
21
319.9804589872864
31
0
0
LINE
5
1120
100
AcDbEntity
8
0
100
AcDbLine
10
5515.9860914278843
20
322.75045898728644
30
0
11
5505.6660914278837
21
322.75045898728644
31
0
0
LINE
5
1121
100
AcDbEntity
8
0
100
AcDbLine
10
5555.146091427885
20
322.75045898728644
30
0
11
5555.146091427885
21
302.13045898728643
31
0
0
LINE
5
1122
100
AcDbEntity
8
0
100
AcDbLine
10
5526.6960914278843
20
322.75045898728644
30
0
11
5526.6960914278843
21
319.9804589872864
31
0
0
LINE
5
1123
100
AcDbEntity
8
0
100
AcDbLine
10
5547.5960914278839
20
322.75045898728644
30
0
11
5557.9160914278837
21
322.75045898728644
31
0
0
LINE
5
1124
100
AcDbEntity
8
0
100
AcDbLine
10
5557.9160914278855
20
322.75045898728644
30
0
11
5555.146091427885
21
322.75045898728644
31
0
0
LINE
5
1125
100
AcDbEntity
8
0
100
AcDbLine
10
5547.5960914278839
20
319.9804589872864
30
0
11
5557.9160914278855
21
319.9804589872864
31
0
0
LINE
5
1126
100
AcDbEntity
8
0
100
AcDbLine
10
5508.4360914278841
20
302.13045898728643
30
0
11
5505.6660914278837
21
302.13045898728643
31
0
0
LINE
5
1127
100
AcDbEntity
8
0
100
AcDbLine
10
5555.146091427885
20
302.13045898728643
30
0
11
5557.9160914278855
21
302.13045898728643
31
0
0
LINE
5
1128
100
AcDbEntity
8
0
100
AcDbLine
10
5505.6660914278837
20
322.75045898728644
30
0
11
5508.4360914278841
21
322.75045898728644
31
0
0
LINE
5
1129
100
AcDbEntity
8
0
100
AcDbLine
10
5523.1318917548651
20
346.6017389178885
30
0
11
5507.5118917548652
21
346.6017389178885
31
0
0
LWPOLYLINE
5
1130
100
AcDbEntity
8
0
100
AcDbPolyline
90
4
70
1
43
0.0
10
5434.4460914278852
20
260.50045898728638
10
5413.6160914278844
20
260.50045898728638
10
5413.6160914278844
20
263.27045898728642
10
5434.4460914278852
20
263.27045898728642
0
LWPOLYLINE
5
1131
100
AcDbEntity
8
0
100
AcDbPolyline
90
4
70
1
43
0.0
10
5410.211610282121
20
281.38045899373304
10
5407.4416102821215
20
281.38045899373304
10
5407.4416102821215
20
301.870458993733
10
5410.211610282121
20
301.870458993733
0
LINE
5
1132
100
AcDbEntity
8
0
100
AcDbLine
10
5412.4410914278833
20
275.50045898728644
30
0
11
5429.0660914278851
21
275.50045898728644
31
0
0
LINE
5
1133
100
AcDbEntity
8
0
100
AcDbLine
10
5410.3410914278829
20
265.50045898729957
30
0
11
5394.4610914278837
21
265.50045898728644
31
0
0
LINE
5
1134
100
AcDbEntity
8
0
100
AcDbLine
10
5394.4610914278837
20
268.27045898728642
30
0
11
5394.4610914278837
21
265.50045898728644
31
0
0
LINE
5
1135
100
AcDbEntity
8
0
100
AcDbLine
10
5425.3618917548647
20
349.37173891788854
30
0
11
5425.3618917548647
21
346.6017389178885
31
0
0
LWPOLYLINE
5
1136
100
AcDbEntity
8
0
100
AcDbPolyline
90
20
70
1
43
0.0
10
5391.501891754865
20
346.6017389178885
10
5375.8818917548651
20
346.6017389178885
10
5375.8818917548651
20
398.8517389178885
10
5378.6518917548638
20
398.8517389178885
10
5378.6518917548638
20
381.56507225122186
10
5375.8818917548651
20
381.56507225122186
10
5375.8818917548651
20
398.8517389178885
10
5428.1318917548651
20
398.8517389178885
10
5428.1318917548651
20
346.6017389178885
10
5412.5118917548652
20
346.6017389178885
10
5412.5118917548652
20
349.37173891788854
10
5428.1318917548651
20
349.37173891788854
10
5428.1318917548651
20
346.6017389178885
10
5375.8818917548651
20
346.6017389178885
10
5375.8818917548651
20
363.88840558455519
10
5378.6518917548638
20
363.88840558455519
10
5378.6518917548638
20
346.6017389178885
10
5375.8818917548651
20
346.6017389178885
10
5375.8818917548651
20
349.37173891788854
10
5391.501891754865
20
349.37173891788854
0
LWPOLYLINE
5
1137
100
AcDbEntity
8
0
100
AcDbPolyline
90
4
70
1
43
0.0
10
5392.266091427884
20
322.75045898728644
10
5392.266091427884
20
319.9804589872864
10
5371.4360914278841
20
319.9804589872864
10
5371.4360914278841
20
322.75045898728644
0
LINE
5
1138
100
AcDbEntity
8
0
100
AcDbLine
10
5557.9160914278837
20
260.50045898728638
30
0
11
5555.146091427885
21
260.50045898728638
31
0
0
LINE
5
1139
100
AcDbEntity
8
0
100
AcDbLine
10
5515.9860914278843
20
263.27045898728642
30
0
11
5505.6660914278837
21
263.27045898728642
31
0
0
LINE
5
1140
100
AcDbEntity
8
0
100
AcDbLine
10
5557.9160914278855
20
260.50045898728638
30
0
11
5505.6660914278837
21
260.50045898728638
31
0
0
LINE
5
1141
100
AcDbEntity
8
0
100
AcDbLine
10
5515.9860914278843
20
260.50045898728638
30
0
11
5526.6960914278843
21
260.50045898728638
31
0
0
LINE
5
1142
100
AcDbEntity
8
0
100
AcDbLine
10
5505.6660914278837
20
260.50045898728638
30
0
11
5508.4360914278841
21
260.50045898728638
31
0
0
LINE
5
1143
100
AcDbEntity
8
0
100
AcDbLine
10
5505.6660914278837
20
260.50045898728638
30
0
11
5557.9160914278855
21
260.50045898728638
31
0
0
LINE
5
1144
100
AcDbEntity
8
0
100
AcDbLine
10
5505.6660914278837
20
263.27045898728642
30
0
11
5505.6660914278837
21
260.50045898728638
31
0
0
LWPOLYLINE
5
1145
100
AcDbEntity
8
0
100
AcDbPolyline
90
4
70
1
43
0.0
10
5358.0916102821211
20
281.38045899373304
10
5358.0916102821211
20
301.870458993733
10
5360.8616102821197
20
301.870458993733
10
5360.8616102821197
20
281.38045899373304
0
LINE
5
1146
100
AcDbEntity
8
0
100
AcDbLine
10
5350.2160914278838
20
260.50045898728615
30
0
11
5455.6660914278837
21
260.50045898728638
31
0
0
LINE
5
1147
100
AcDbEntity
8
0
100
AcDbLine
10
5455.6660914278837
20
322.75045898728644
30
0
11
5350.2245886712617
21
322.74783883544126
31
0
0
CIRCLE
5
1148
100
AcDbEntity
8
0
100
AcDbCircle
10
5386.6273192640574
20
385.87631140869576
30
0
40
2.184999999999973
210
0
220
0
230
1
0
CIRCLE
5
1149
100
AcDbEntity
8
0
100
AcDbCircle
10
5497.0068917548651
20
370.49673891788842
30
0
40
11.25
210
0
220
0
230
1
0
CIRCLE
5
1150
100
AcDbEntity
8
0
100
AcDbCircle
10
5481.6273192640574
20
355.11716642708114
30
0
40
2.1850000000000485
210
0
220
0
230
1
0
LWPOLYLINE
5
1151
100
AcDbEntity
8
0
100
AcDbPolyline
90
4
70
1
43
0.0
10
5428.1318917548651
20
398.8517389178885
10
5425.3618917548647
20
398.8517389178885
10
5425.3618917548647
20
381.56507225122186
10
5428.1318917548651
20
381.56507225122186
0
LWPOLYLINE
5
1152
100
AcDbEntity
8
0
100
AcDbPolyline
90
3
70
1
43
0.0
10
5380.8818917548651
20
398.8517389178885
10
5402.0068917548651
20
398.8517389178885
10
5423.1318917548651
20
398.8517389178885
0
LINE
5
1153
100
AcDbEntity
8
0
100
AcDbLine
10
5470.8818917548651
20
398.85173891791601
30
0
11
5470.8818917548651
21
381.30507225122187
31
0
0
LWPOLYLINE
5
1154
100
AcDbEntity
8
0
100
AcDbPolyline
90
3
70
1
43
0.0
10
5475.8818917548651
20
398.8517389178885
10
5497.0068917548651
20
398.8517389178885
10
5518.1318917548651
20
398.8517389178885
0
CIRCLE
5
1155
100
AcDbEntity
8
0
100
AcDbCircle
10
5417.3864642456729
20
355.11716642708097
30
0
40
2.1849999999999605
210
0
220
0
230
1
0
CIRCLE
5
1156
100
AcDbEntity
8
0
100
AcDbCircle
10
5481.6273192640574
20
385.87631140869576
30
0
40
2.184999999999973
210
0
220
0
230
1
0
CIRCLE
5
1157
100
AcDbEntity
8
0
100
AcDbCircle
10
5386.6273192640574
20
355.11716642708114
30
0
40
2.1850000000000485
210
0
220
0
230
1
0
CIRCLE
5
1158
100
AcDbEntity
8
0
100
AcDbCircle
10
5512.3864642456729
20
385.87631140869576
30
0
40
2.184999999999965
210
0
220
0
230
1
0
LWPOLYLINE
5
1159
100
AcDbEntity
8
0
100
AcDbPolyline
90
4
70
1
43
0.0
10
5520.3618917548647
20
381.30507225122187
10
5520.3618917548647
20
363.95340558455524
10
5523.1318917548651
20
363.95340558455524
10
5523.1318917548651
20
381.30507225122187
0
CIRCLE
5
1160
100
AcDbEntity
8
0
100
AcDbCircle
10
5402.0068917548651
20
370.49673891788842
30
0
40
11.25
210
0
220
0
230
1
0
CIRCLE
5
1161
100
AcDbEntity
8
0
100
AcDbCircle
10
5512.3864642456729
20
355.11716642708097
30
0
40
2.1849999999999605
210
0
220
0
230
1
0
LWPOLYLINE
5
1162
100
AcDbEntity
8
0
100
AcDbPolyline
90
4
70
1
43
0.0
10
5425.3618917548647
20
363.88840558455519
10
5428.1318917548651
20
363.88840558455519
10
5428.1318917548651
20
346.6017389178885
10
5425.3618917548647
20
346.6017389178885
0
LINE
5
1163
100
AcDbEntity
8
0
100
AcDbLine
10
5470.8818917548651
20
363.95340558455524
30
0
11
5470.8818917548651
21
381.30507225122187
31
0
0
LINE
5
1164
100
AcDbEntity
8
0
100
AcDbLine
10
5473.6518917548638
20
381.30507225122187
30
0
11
5473.6518917548638
21
363.95340558455524
31
0
0
LINE
5
1165
100
AcDbEntity
8
0
100
AcDbLine
10
5497.0068917548651
20
370.49673891788842
30
0
11
5497.0068917548651
21
398.8517389178885
31
0
0
CIRCLE
5
1166
100
AcDbEntity
8
0
100
AcDbCircle
10
5417.3864642456729
20
385.87631140869576
30
0
40
2.184999999999965
210
0
220
0
230
1
0
LINE
5
1167
100
AcDbEntity
8
0
100
AcDbLine
10
5402.0068917548651
20
370.49673891788842
30
0
11
5402.0068917548651
21
398.8517389178885
31
0
0
LINE
5
1168
100
AcDbEntity
8
0
100
AcDbLine
10
5473.6518917548638
20
363.95340558455524
30
0
11
5470.8818917548651
21
363.95340558455524
31
0
0
LINE
5
1169
100
AcDbEntity
8
0
100
AcDbLine
10
5470.8818917548651
20
381.30507225122187
30
0
11
5473.6518917548638
21
381.30507225122187
31
0
0
LINE
5
1170
100
AcDbEntity
8
0
100
AcDbLine
10
5523.1318917548651
20
398.8517389178885
30
0
11
5470.8818917548651
21
398.85173891791601
31
0
0
LINE
5
1171
100
AcDbEntity
8
0
100
AcDbLine
10
5523.1318917548651
20
346.6017389178885
30
0
11
5523.1318917548651
21
398.8517389178885
31
0
0
LINE
5
1172
100
AcDbEntity
8
0
100
AcDbLine
10
5470.8818917548651
20
398.85173891791601
30
0
11
5470.8818917548651
21
346.6017389178885
31
0
0
LWPOLYLINE
5
1173
100
AcDbEntity
8
0
100
AcDbPolyline
90
4
70
1
43
0.0
10
5455.6660914278837
20
168.83045898728642
10
5452.8960914278841
20
168.83045898728642
10
5452.8960914278841
20
179.02045898728642
10
5455.6660914278837
20
179.02045898728642
0
LINE
5
1174
100
AcDbEntity
8
0
100
AcDbLine
10
5452.8960914278841
20
199.92045898728639
30
0
11
5452.8960914278841
21
189.73045898728643
31
0
0
LINE
5
1175
100
AcDbEntity
8
0
100
AcDbLine
10
5455.6660914278837
20
210.50045898728641
30
0
11
5455.6660914278837
21
199.92045898728639
31
0
0
LINE
5
1176
100
AcDbEntity
8
0
100
AcDbLine
10
5452.8960914278841
20
189.73045898728643
30
0
11
5455.6660914278837
21
189.73045898728643
31
0
0
LINE
5
1177
100
AcDbEntity
8
0
100
AcDbLine
10
5455.6660914278837
20
199.92045898728639
30
0
11
5452.8960914278841
21
199.92045898728639
31
0
0
LINE
5
1178
100
AcDbEntity
8
0
100
AcDbLine
10
5455.6660914278837
20
189.73045898728643
30
0
11
5455.6660914278837
21
199.92045898728639
31
0
0
LINE
5
1179
100
AcDbEntity
8
0
100
AcDbLine
10
5455.6660914278837
20
207.7304589872864
30
0
11
5455.6660914278837
21
210.50045898728641
31
0
0
LINE
5
1180
100
AcDbEntity
8
0
100
AcDbLine
10
5455.6660914278837
20
158.25045898728638
30
0
11
5455.6660914278837
21
210.50045898728641
31
0
0
LWPOLYLINE
5
1181
100
AcDbEntity
8
0
100
AcDbPolyline
90
4
70
1
43
0.0
10
5455.6660914278837
20
161.02045898728642
10
5455.6660914278837
20
158.25045898728638
10
5434.7060914278836
20
158.25045898728638
10
5434.7060914278836
20
161.02045898728642
0
CIRCLE
5
1182
100
AcDbEntity
8
0
100
AcDbCircle
10
5402.9410914278842
20
185.74545898728638
30
0
40
1.9350000000000001
210
0
220
0
230
1
0
LWPOLYLINE
5
1183
100
AcDbEntity
8
0
100
AcDbPolyline
90
4
70
1
43
0.0
10
5392.5260914278842
20
161.02045898728642
10
5392.5260914278842
20
158.25045898728638
10
5413.3560914278842
20
158.25045898728638
10
5413.3560914278842
20
161.02045898728642
0
LINE
5
1184
100
AcDbEntity
8
0
100
AcDbLine
10
5392.5260914278842
20
210.50045898728641
30
0
11
5413.3560914278842
21
210.50045898728641
31
0
0
LINE
5
1185
100
AcDbEntity
8
0
100
AcDbLine
10
5392.5260914278842
20
207.7304589872864
30
0
11
5392.5260914278842
21
210.50045898728641
31
0
0
CIRCLE
5
1186
100
AcDbEntity
8
0
100
AcDbCircle
10
5402.9410914278842
20
174.24545898728638
30
0
40
4.4999999999999236
210
0
220
0
230
1
0
LINE
5
1187
100
AcDbEntity
8
0
100
AcDbLine
10
5434.7060914278836
20
210.50045898728641
30
0
11
5434.7060914278836
21
207.7304589872864
31
0
0
CIRCLE
5
1188
100
AcDbEntity
8
0
100
AcDbCircle
10
5392.9817992843637
20
168.49545898728644
30
0
40
1.9350000000000001
210
0
220
0
230
1
0
LINE
5
1189
100
AcDbEntity
8
0
100
AcDbLine
10
5413.3560914278842
20
210.50045898728641
30
0
11
5413.3560914278842
21
207.7304589872864
31
0
0
CIRCLE
5
1190
100
AcDbEntity
8
0
100
AcDbCircle
10
5412.9003835714057
20
168.49545898728636
30
0
40
1.9350000000000001
210
0
220
0
230
1
0
LINE
5
1191
100
AcDbEntity
8
0
100
AcDbLine
10
5413.3560914278842
20
207.7304589872864
30
0
11
5392.5260914278842
21
207.7304589872864
31
0
0
LINE
5
1192
100
AcDbEntity
8
0
100
AcDbLine
10
5434.7060914278836
20
207.7304589872864
30
0
11
5455.6660914278837
21
207.7304589872864
31
0
0
CIRCLE
5
1193
100
AcDbEntity
8
0
100
AcDbCircle
10
5433.8160914278842
20
184.24545898728638
30
0
40
6.3999999999999417
210
0
220
0
230
1
0
LINE
5
1194
100
AcDbEntity
8
0
100
AcDbLine
10
5455.6660914278837
20
210.50045898728641
30
0
11
5434.7060914278836
21
210.50045898728641
31
0
0
LWPOLYLINE
5
1195
100
AcDbEntity
8
0
100
AcDbPolyline
90
4
70
1
43
0.0
10
5350.2160914278838
20
199.92045898728639
10
5352.9860914278834
20
199.92045898728639
10
5352.9860914278834
20
189.73045898728643
10
5350.2160914278838
20
189.73045898728643
0
LINE
5
1196
100
AcDbEntity
8
0
100
AcDbLine
10
5350.2160914278838
20
210.50045898728641
30
0
11
5371.1760914282368
21
210.5004589872689
31
0
0
LINE
5
1197
100
AcDbEntity
8
0
100
AcDbLine
10
5371.1760914278839
20
207.7304589872864
30
0
11
5350.2160914278838
21
207.7304589872864
31
0
0
LINE
5
1198
100
AcDbEntity
8
0
100
AcDbLine
10
5350.2160914278838
20
207.7304589872864
30
0
11
5350.2160914278838
21
210.50045898728641
31
0
0
LINE
5
1199
100
AcDbEntity
8
0
100
AcDbLine
10
5371.1760914282368
20
210.5004589872689
30
0
11
5371.1760914278839
21
207.7304589872864
31
0
0
LWPOLYLINE
5
1200
100
AcDbEntity
8
0
100
AcDbPolyline
90
4
70
1
43
0.0
10
5350.2160914278838
20
158.25045898728638
10
5371.1760914278839
20
158.25045898728638
10
5371.1760914278839
20
161.02045898728642
10
5350.2160914278838
20
161.02045898728642
0
LWPOLYLINE
5
1201
100
AcDbEntity
8
0
100
AcDbPolyline
90
4
70
1
43
0.0
10
5350.2160914278838
20
179.02045898728642
10
5352.9860914278834
20
179.02045898728642
10
5352.9860914278834
20
168.83045898728642
10
5350.2160914278838
20
168.83045898728642
0
CIRCLE
5
1202
100
AcDbEntity
8
0
100
AcDbCircle
10
5372.0660914278851
20
184.24545898728638
30
0
40
6.3999999999999213
210
0
220
0
230
1
0
LINE
5
1203
100
AcDbEntity
8
0
100
AcDbLine
10
5350.2160914278838
20
210.50045898728641
30
0
11
5350.2160914278838
21
158.25045898728638
31
0
0
LINE
5
1204
100
AcDbEntity
8
0
100
AcDbLine
10
5455.6660914278837
20
210.50045898728641
30
0
11
5350.2160914278838
21
210.50045898728641
31
0
0
LINE
5
1205
100
AcDbEntity
8
0
100
AcDbLine
10
5350.2160914278838
20
158.25045898728638
30
0
11
5455.6660914278837
21
158.25045898728638
31
0
0
LINE
5
1206
100
AcDbEntity
8
0
100
AcDbLine
10
5371.1760914282368
20
210.5004589872689
30
0
11
5392.5260914278842
21
210.50045898728641
31
0
0
LINE
5
1207
100
AcDbEntity
8
0
100
AcDbLine
10
5410.3410914278829
20
260.50045898729962
30
0
11
5410.3410914278829
21
265.50045898729957
31
0
0
LINE
5
1208
100
AcDbEntity
8
0
100
AcDbLine
10
5407.4410914278833
20
275.50045898730019
30
0
11
5412.4410914278833
21
275.50045898728644
31
0
0
LINE
5
1209
100
AcDbEntity
8
0
100
AcDbLine
10
5394.4610914278837
20
265.50045898728644
30
0
11
5373.9710914278839
21
265.50045898728644
31
0
0
LINE
5
1210
100
AcDbEntity
8
0
100
AcDbLine
10
5505.6660914278837
20
260.50045898728638
30
0
11
5515.9860914278843
21
260.50045898728638
31
0
0
LINE
5
1211
100
AcDbEntity
8
0
100
AcDbLine
10
5557.9160914278837
20
263.27045898728642
30
0
11
5557.9160914278837
21
260.50045898728638
31
0
0
LINE
5
1212
100
AcDbEntity
8
0
100
AcDbLine
10
5536.8860914278848
20
260.50045898728638
30
0
11
5536.8860914278848
21
263.27045898728642
31
0
0
LINE
5
1213
100
AcDbEntity
8
0
100
AcDbLine
10
5505.6660914278837
20
322.75045898728644
30
0
11
5505.6660914278837
21
260.50045898728638
31
0
0
LINE
5
1214
100
AcDbEntity
8
0
100
AcDbLine
10
5505.6660914278837
20
260.50045898728638
30
0
11
5505.6660914278837
21
302.75045898728644
31
0
0
LINE
5
1215
100
AcDbEntity
8
0
100
AcDbLine
10
5557.9160914278855
20
260.50045898728638
30
0
11
5557.9160914278855
21
302.75045898728644
31
0
0
LINE
5
1216
100
AcDbEntity
8
0
100
AcDbLine
10
5557.9160914278855
20
302.75045898728644
30
0
11
5557.9160914278855
21
260.50045898728638
31
0
0
LINE
5
1217
100
AcDbEntity
8
0
100
AcDbLine
10
5557.9160914278855
20
260.50045898728638
30
0
11
5557.9160914278855
21
322.75045898728644
31
0
0
LINE
5
1218
100
AcDbEntity
8
0
100
AcDbLine
10
5452.8966102821214
20
281.38045899373304
30
0
11
5455.6666102821218
21
281.38045899373304
31
0
0
LINE
5
1219
100
AcDbEntity
8
0
100
AcDbLine
10
5455.6660914278837
20
322.75045898728644
30
0
11
5455.6666102821218
21
301.870458993733
31
0
0
LINE
5
1220
100
AcDbEntity
8
0
100
AcDbLine
10
5486.501891754865
20
349.37173891788854
30
0
11
5470.8818917548651
21
349.37173891788854
31
0
0
LINE
5
1221
100
AcDbEntity
8
0
100
AcDbLine
10
5455.6666102821218
20
301.870458993733
30
0
11
5452.8966102821214
21
301.870458993733
31
0
0
LINE
5
1222
100
AcDbEntity
8
0
100
AcDbLine
10
5452.8966102821214
20
301.870458993733
30
0
11
5452.8966102821214
21
281.38045899373304
31
0
0
LINE
5
1223
100
AcDbEntity
8
0
100
AcDbLine
10
5455.6666102821218
20
281.38045899373304
30
0
11
5455.6666102821218
21
301.870458993733
31
0
0
LINE
5
1224
100
AcDbEntity
8
0
100
AcDbLine
10
5455.6660914278837
20
260.50045898728638
30
0
11
5455.6660914278837
21
322.75045898728644
31
0
0
LINE
5
1225
100
AcDbEntity
8
0
100
AcDbLine
10
5475.8818917548651
20
346.6017389178885
30
0
11
5470.8818917548651
21
346.6017389178885
31
0
0
LINE
5
1226
100
AcDbEntity
8
0
100
AcDbLine
10
5470.8818917548651
20
346.6017389178885
30
0
11
5486.501891754865
21
346.6017389178885
31
0
0
LINE
5
1227
100
AcDbEntity
8
0
100
AcDbLine
10
5470.8818917548651
20
349.37173891788854
30
0
11
5470.8818917548651
21
346.6017389178885
31
0
0
LINE
5
1228
100
AcDbEntity
8
0
100
AcDbLine
10
5455.6660914278837
20
260.50045898728638
30
0
11
5455.6660914278837
21
322.75045898728644
31
0
0
LINE
5
1229
100
AcDbEntity
8
0
100
AcDbLine
10
5486.501891754865
20
346.6017389178885
30
0
11
5486.501891754865
21
349.37173891788854
31
0
0
LINE
5
1230
100
AcDbEntity
8
0
100
AcDbLine
10
5470.8818917548651
20
346.6017389178885
30
0
11
5523.1318917548651
21
346.6017389178885
31
0
0
LWPOLYLINE
5
1231
100
AcDbEntity
8
0
100
AcDbPolyline
90
4
70
1
43
0.0
10
5394.4610914278837
20
317.62045898728644
10
5373.9710914278839
20
317.62045898728644
10
5373.9710914278839
20
314.8504589872864
10
5394.4610914278837
20
314.8504589872864
0
LWPOLYLINE
5
1232
100
AcDbEntity
8
0
100
AcDbPolyline
90
4
70
1
43
0.0
10
5413.6160914278844
20
319.9804589872864
10
5413.6160914278844
20
322.75045898728644
10
5434.4460914278852
20
322.75045898728644
10
5434.4460914278852
20
319.9804589872864
0
LINE
5
1233
100
AcDbEntity
8
0
100
AcDbLine
10
5350.2160914278838
20
319.9804589872864
30
0
11
5371.4360914278841
21
319.9804589872864
31
0
0
LINE
5
1234
100
AcDbEntity
8
0
100
AcDbLine
10
5429.0660914278851
20
307.75045898728644
30
0
11
5412.4410914278833
21
307.75045898728644
31
0
0
LWPOLYLINE
5
1235
100
AcDbEntity
8
0
100
AcDbPolyline
90
4
70
1
43
0.0
10
5350.2166102821211
20
301.870458993733
10
5352.9866102821215
20
301.870458993733
10
5352.9866102821215
20
281.38045899373304
10
5350.2166102821211
20
281.38045899373304
0
LINE
5
1236
100
AcDbEntity
8
0
100
AcDbLine
10
5371.4360914278841
20
263.27045898728642
30
0
11
5371.4360914278841
21
260.50045898728638
31
0
0
LINE
5
1237
100
AcDbEntity
8
0
100
AcDbLine
10
5407.4410914278833
20
260.50045898729991
30
0
11
5407.4410914278833
21
275.50045898730019
31
0
0
LINE
5
1238
100
AcDbEntity
8
0
100
AcDbLine
10
5371.4360914278841
20
260.50045898728638
30
0
11
5392.266091427884
21
260.50045898728638
31
0
0
LINE
5
1239
100
AcDbEntity
8
0
100
AcDbLine
10
5373.9710914278839
20
265.50045898728644
30
0
11
5373.9710914278839
21
268.27045898728642
31
0
0
LINE
5
1240
100
AcDbEntity
8
0
100
AcDbLine
10
5373.9710914278839
20
268.27045898728642
30
0
11
5394.4610914278837
21
268.27045898728642
31
0
0
LINE
5
1241
100
AcDbEntity
8
0
100
AcDbLine
10
5407.4410914278833
20
260.50045898729991
30
0
11
5410.3410914278829
21
260.50045898729962
31
0
0
LINE
5
1242
100
AcDbEntity
8
0
100
AcDbLine
10
5407.4410914278833
20
260.50045898729991
30
0
11
5429.0660914278851
21
260.50045898728644
31
0
0
LINE
5
1243
100
AcDbEntity
8
0
100
AcDbLine
10
5392.266091427884
20
260.50045898728638
30
0
11
5392.266091427884
21
263.27045898728642
31
0
0
LINE
5
1244
100
AcDbEntity
8
0
100
AcDbLine
10
5350.2160914278838
20
260.50045898728615
30
0
11
5371.4360914278841
21
260.50045898728638
31
0
0
LINE
5
1245
100
AcDbEntity
8
0
100
AcDbLine
10
5392.266091427884
20
263.27045898728642
30
0
11
5371.4360914278841
21
263.27045898728642
31
0
0
LINE
5
1246
100
AcDbEntity
8
0
100
AcDbLine
10
5429.0660914278851
20
275.50045898728644
30
0
11
5429.0660914278851
21
307.75045898728644
31
0
0
LINE
5
1247
100
AcDbEntity
8
0
100
AcDbLine
10
5350.2245886712617
20
322.74783883544126
30
0
11
5350.2160914278838
21
260.50045898728615
31
0
0
LINE
5
1248
100
AcDbEntity
8
0
100
AcDbLine
10
5412.4410914278833
20
307.75045898728644
30
0
11
5412.4410914278833
21
275.50045898728644
31
0
0
LINE
5
1249
100
AcDbEntity
8
0
100
AcDbLine
10
5350.2160914278838
20
299.9804589872864
30
0
11
5371.4360914278841
21
299.9804589872864
31
0
0
LINE
5
1250
100
AcDbEntity
8
0
100
AcDbLine
10
5507.5118917548652
20
346.6017389178885
30
0
11
5507.5118917548652
21
349.37173891788854
31
0
0
LINE
5
1251
100
AcDbEntity
8
0
100
AcDbLine
10
5557.9160914278855
20
302.13045898728643
30
0
11
5557.9160914278855
21
322.75045898728644
31
0
0
LINE
5
1252
100
AcDbEntity
8
0
100
AcDbLine
10
5557.9160914278837
20
322.75045898728644
30
0
11
5557.9160914278837
21
319.9804589872864
31
0
0
LINE
5
1253
100
AcDbEntity
8
0
100
AcDbLine
10
5557.9160914278855
20
322.75045898728644
30
0
11
5505.6660914278837
21
322.75045898728644
31
0
0
LINE
5
1254
100
AcDbEntity
8
0
100
AcDbLine
10
5507.5118917548652
20
349.37173891788854
30
0
11
5523.1318917548651
21
349.37173891788854
31
0
0
LINE
5
1255
100
AcDbEntity
8
0
100
AcDbLine
10
5536.8860914278848
20
322.75045898728644
30
0
11
5526.6960914278843
21
322.75045898728644
31
0
0
LINE
5
1256
100
AcDbEntity
8
0
100
AcDbLine
10
5547.5960914278839
20
319.9804589872864
30
0
11
5547.5960914278839
21
322.75045898728644
31
0
0
LINE
5
1257
100
AcDbEntity
8
0
100
AcDbLine
10
5515.9860914278843
20
319.9804589872864
30
0
11
5515.9860914278843
21
322.75045898728644
31
0
0
LINE
5
1258
100
AcDbEntity
8
0
100
AcDbLine
10
5505.6660914278837
20
319.9804589872864
30
0
11
5508.4360914278841
21
319.9804589872864
31
0
0
LINE
5
1259
100
AcDbEntity
8
0
100
AcDbLine
10
5526.6960914278843
20
319.9804589872864
30
0
11
5536.8860914278848
21
319.9804589872864
31
0
0
LINE
5
1260
100
AcDbEntity
8
0
100
AcDbLine
10
5505.6660914278837
20
322.75045898728644
30
0
11
5505.6660914278837
21
319.9804589872864
31
0
0
LINE
5
1261
100
AcDbEntity
8
0
100
AcDbLine
10
5508.4360914278841
20
322.75045898728644
30
0
11
5508.4360914278841
21
302.13045898728643
31
0
0
LINE
5
1262
100
AcDbEntity
8
0
100
AcDbLine
10
5505.6660914278837
20
319.9804589872864
30
0
11
5515.9860914278843
21
319.9804589872864
31
0
0
LINE
5
1263
100
AcDbEntity
8
0
100
AcDbLine
10
5505.6660914278837
20
302.13045898728643
30
0
11
5505.6660914278837
21
322.75045898728644
31
0
0
LINE
5
1264
100
AcDbEntity
8
0
100
AcDbLine
10
5557.9160914278837
20
319.9804589872864
30
0
11
5555.146091427885
21
319.9804589872864
31
0
0
LINE
5
1265
100
AcDbEntity
8
0
100
AcDbLine
10
5536.8860914278848
20
319.9804589872864
30
0
11
5536.8860914278848
21
322.75045898728644
31
0
0
LINE
5
1266
100
AcDbEntity
8
0
100
AcDbLine
10
5523.1318917548651
20
349.37173891788854
30
0
11
5523.1318917548651
21
346.6017389178885
31
0
0
LINE
5
1267
100
AcDbEntity
8
0
100
AcDbLine
10
5555.146091427885
20
260.50045898728638
30
0
11
5555.146091427885
21
281.12045898728644
31
0
0
LINE
5
1268
100
AcDbEntity
8
0
100
AcDbLine
10
5547.5960914278839
20
263.27045898728642
30
0
11
5557.9160914278837
21
263.27045898728642
31
0
0
LINE
5
1269
100
AcDbEntity
8
0
100
AcDbLine
10
5526.6960914278843
20
263.27045898728642
30
0
11
5526.6960914278843
21
260.50045898728638
31
0
0
LINE
5
1270
100
AcDbEntity
8
0
100
AcDbLine
10
5515.9860914278843
20
260.50045898728638
30
0
11
5515.9860914278843
21
263.27045898728642
31
0
0
LINE
5
1271
100
AcDbEntity
8
0
100
AcDbLine
10
5505.6660914278837
20
281.12045898728644
30
0
11
5505.6660914278837
21
260.50045898728638
31
0
0
LINE
5
1272
100
AcDbEntity
8
0
100
AcDbLine
10
5557.9160914278837
20
281.12045898728644
30
0
11
5557.9160914278837
21
260.50045898728638
31
0
0
LINE
5
1273
100
AcDbEntity
8
0
100
AcDbLine
10
5508.4360914278841
20
281.12045898728644
30
0
11
5505.6660914278837
21
281.12045898728644
31
0
0
LINE
5
1274
100
AcDbEntity
8
0
100
AcDbLine
10
5547.5960914278839
20
260.50045898728638
30
0
11
5547.5960914278839
21
263.27045898728642
31
0
0
LINE
5
1275
100
AcDbEntity
8
0
100
AcDbLine
10
5555.146091427885
20
281.12045898728644
30
0
11
5557.9160914278837
21
281.12045898728644
31
0
0
LINE
5
1276
100
AcDbEntity
8
0
100
AcDbLine
10
5508.4360914278841
20
260.50045898728638
30
0
11
5508.4360914278841
21
281.12045898728644
31
0
0
LINE
5
1277
100
AcDbEntity
8
0
100
AcDbLine
10
5526.6960914278843
20
260.50045898728638
30
0
11
5536.8860914278848
21
260.50045898728638
31
0
0
LINE
5
1278
100
AcDbEntity
8
0
100
AcDbLine
10
5536.8860914278848
20
263.27045898728642
30
0
11
5526.6960914278843
21
263.27045898728642
31
0
0
LINE
5
1279
100
AcDbEntity
8
0
100
AcDbLine
10
5380.8818917548651
20
346.6017389178885
30
0
11
5375.8818917548651
21
346.6017389178885
31
0
0
LINE
5
1280
100
AcDbEntity
8
0
100
AcDbLine
10
5350.2160914278838
20
260.50045898728615
30
0
11
5407.4410914278833
21
260.50045898729991
31
0
0
LWPOLYLINE
5
1281
100
AcDbEntity
8
0
100
AcDbPolyline
90
4
70
1
43
0.0
10
4307.9160914278837
20
378.9804589872864
10
4307.9160914278837
20
381.75045898728638
10
4297.5960914278839
20
381.75045898728638
10
4297.5960914278839
20
378.9804589872864
0
LWPOLYLINE
5
1282
100
AcDbEntity
8
0
100
AcDbPolyline
90
4
70
1
43
0.0
10
4307.9160914278837
20
357.63045898728643
10
4307.9160914278837
20
381.75045898728638
10
4305.1460914278841
20
381.75045898728638
10
4305.1460914278841
20
357.63045898728643
0
LWPOLYLINE
5
1283
100
AcDbEntity
8
0
100
AcDbPolyline
90
4
70
1
43
0.0
10
4286.8860914278848
20
381.75045898728638
10
4286.8860914278848
20
378.9804589872864
10
4276.6960914278843
20
378.9804589872864
10
4276.6960914278843
20
381.75045898728638
0
LINE
5
1284
100
AcDbEntity
8
0
100
AcDbLine
10
4305.1460914278841
20
378.9804589872864
30
0
11
4307.9160914278837
21
378.9804589872864
31
0
0
LINE
5
1285
100
AcDbEntity
8
0
100
AcDbLine
10
4255.6660914278846
20
357.63045898728586
30
0
11
4255.6660914278846
21
381.75045898728638
31
0
0
LWPOLYLINE
5
1286
100
AcDbEntity
8
0
100
AcDbPolyline
90
4
70
1
43
0.0
10
4255.6660914278846
20
378.9804589872864
10
4255.6660914278846
20
381.75045898728638
10
4265.9860914278843
20
381.75045898728638
10
4265.9860914278843
20
378.9804589872864
0
LINE
5
1287
100
AcDbEntity
8
0
100
AcDbLine
10
4258.4360914278841
20
381.75045898728638
30
0
11
4258.4360914278841
21
357.63045898728643
31
0
0
LINE
5
1288
100
AcDbEntity
8
0
100
AcDbLine
10
4255.6660914278846
20
378.9804589872864
30
0
11
4258.4360914278841
21
378.9804589872864
31
0
0
LINE
5
1289
100
AcDbEntity
8
0
100
AcDbLine
10
4255.6660914278846
20
381.75045898728638
30
0
11
4258.4360914278841
21
381.75045898728638
31
0
0
LINE
5
1290
100
AcDbEntity
8
0
100
AcDbLine
10
4258.4360914278841
20
357.63045898728643
30
0
11
4255.6660914278846
21
357.63045898728586
31
0
0
LINE
5
1291
100
AcDbEntity
8
0
100
AcDbLine
10
4255.6660914278846
20
381.75045898728638
30
0
11
4307.9160914278846
21
381.75045898728638
31
0
0
LWPOLYLINE
5
1292
100
AcDbEntity
8
0
100
AcDbPolyline
90
4
70
1
43
0.0
10
4305.1460914278841
20
333.12045898728638
10
4305.1460914278841
20
309.13045898728637
10
4307.9160914278837
20
309.13045898728637
10
4307.9160914278837
20
333.12045898728638
0
LWPOLYLINE
5
1293
100
AcDbEntity
8
0
100
AcDbPolyline
90
8
70
1
43
0.0
10
4307.9160914278837
20
260.50045898728638
10
4305.1460914278841
20
260.50045898728638
10
4305.1460914278841
20
284.62045898728638
10
4307.9160914278837
20
284.62045898728638
10
4307.9160914278837
20
260.50045898728638
10
4307.9160914278837
20
263.27045898728642
10
4297.5960914278839
20
263.27045898728642
10
4297.5960914278839
20
260.50045898728638
0
LINE
5
1294
100
AcDbEntity
8
0
100
AcDbLine
10
4265.9860914278843
20
260.50045898728695
30
0
11
4265.9860914278843
21
263.27045898728642
31
0
0
LINE
5
1295
100
AcDbEntity
8
0
100
AcDbLine
10
4286.8860914278848
20
263.27045898728642
30
0
11
4276.6960914278843
21
263.27045898728642
31
0
0
LINE
5
1296
100
AcDbEntity
8
0
100
AcDbLine
10
4265.9860914278843
20
263.27045898728642
30
0
11
4255.6660914278846
21
263.27045898728642
31
0
0
LINE
5
1297
100
AcDbEntity
8
0
100
AcDbLine
10
4258.4360914278841
20
260.50045898728638
30
0
11
4258.4360914278841
21
284.62045898728638
31
0
0
LINE
5
1298
100
AcDbEntity
8
0
100
AcDbLine
10
4307.9160914278846
20
260.50045898728638
30
0
11
4255.6660914278846
21
260.50045898728638
31
0
0
LINE
5
1299
100
AcDbEntity
8
0
100
AcDbLine
10
4255.6660914278846
20
309.13045898728637
30
0
11
4255.6660914278846
21
333.12045898728638
31
0
0
LINE
5
1300
100
AcDbEntity
8
0
100
AcDbLine
10
4258.4360914278841
20
309.13045898728637
30
0
11
4255.6660914278846
21
309.13045898728637
31
0
0
LINE
5
1301
100
AcDbEntity
8
0
100
AcDbLine
10
4255.6660914278846
20
260.50045898728638
30
0
11
4265.9860914278843
21
260.50045898728695
31
0
0
LINE
5
1302
100
AcDbEntity
8
0
100
AcDbLine
10
4286.8860914278848
20
260.50045898728638
30
0
11
4286.8860914278848
21
263.27045898728642
31
0
0
LINE
5
1303
100
AcDbEntity
8
0
100
AcDbLine
10
4258.4360914278841
20
284.62045898728638
30
0
11
4255.6660914278846
21
284.62045898728638
31
0
0
LINE
5
1304
100
AcDbEntity
8
0
100
AcDbLine
10
4255.6660914278846
20
263.27045898728642
30
0
11
4255.6660914278846
21
260.50045898728638
31
0
0
LINE
5
1305
100
AcDbEntity
8
0
100
AcDbLine
10
4276.6960914278843
20
260.50045898728638
30
0
11
4286.8860914278848
21
260.50045898728638
31
0
0
LINE
5
1306
100
AcDbEntity
8
0
100
AcDbLine
10
4255.6660914278846
20
284.62045898728638
30
0
11
4255.6660914278846
21
260.50045898728638
31
0
0
LINE
5
1307
100
AcDbEntity
8
0
100
AcDbLine
10
4255.6660914278846
20
333.12045898728638
30
0
11
4258.4360914278841
21
333.12045898728638
31
0
0
LINE
5
1308
100
AcDbEntity
8
0
100
AcDbLine
10
4255.6660914278846
20
260.50045898728638
30
0
11
4258.4360914278841
21
260.50045898728638
31
0
0
LINE
5
1309
100
AcDbEntity
8
0
100
AcDbLine
10
4276.6960914278843
20
263.27045898728642
30
0
11
4276.6960914278843
21
260.50045898728638
31
0
0
LINE
5
1310
100
AcDbEntity
8
0
100
AcDbLine
10
4258.4360914278841
20
333.12045898728638
30
0
11
4258.4360914278841
21
309.13045898728637
31
0
0
LINE
5
1311
100
AcDbEntity
8
0
100
AcDbLine
10
4265.9860914278843
20
260.50045898728695
30
0
11
4276.6960914278843
21
260.50045898728638
31
0
0
LINE
5
1312
100
AcDbEntity
8
0
100
AcDbLine
10
4307.9160914278846
20
381.75045898728638
30
0
11
4307.9160914278846
21
260.50045898728638
31
0
0
LINE
5
1313
100
AcDbEntity
8
0
100
AcDbLine
10
4255.6660914278846
20
357.63045898728586
30
0
11
4255.6660914278846
21
333.12045898728638
31
0
0
LINE
5
1314
100
AcDbEntity
8
0
100
AcDbLine
10
4255.6660914278846
20
260.50045898728638
30
0
11
4255.6660914278846
21
381.75045898728638
31
0
0
LWPOLYLINE
5
1315
100
AcDbEntity
8
0
100
AcDbPolyline
90
4
70
1
43
0.0
10
4207.9160914278837
20
378.9804589872864
10
4207.9160914278837
20
381.75045898728638
10
4197.5960914278839
20
381.75045898728638
10
4197.5960914278839
20
378.9804589872864
0
LWPOLYLINE
5
1316
100
AcDbEntity
8
0
100
AcDbPolyline
90
4
70
1
43
0.0
10
4207.9160914278837
20
357.63045898728643
10
4207.9160914278837
20
381.75045898728638
10
4205.1460914278841
20
381.75045898728638
10
4205.1460914278841
20
357.63045898728643
0
LWPOLYLINE
5
1317
100
AcDbEntity
8
0
100
AcDbPolyline
90
4
70
1
43
0.0
10
4186.8860914278848
20
381.75045898728638
10
4186.8860914278848
20
378.9804589872864
10
4176.6960914278843
20
378.9804589872864
10
4176.6960914278843
20
381.75045898728638
0
LINE
5
1318
100
AcDbEntity
8
0
100
AcDbLine
10
4205.1460914278841
20
378.9804589872864
30
0
11
4207.9160914278837
21
378.9804589872864
31
0
0
LINE
5
1319
100
AcDbEntity
8
0
100
AcDbLine
10
4155.6660914278846
20
357.63045898728586
30
0
11
4155.6660914278846
21
381.75045898728638
31
0
0
LWPOLYLINE
5
1320
100
AcDbEntity
8
0
100
AcDbPolyline
90
4
70
1
43
0.0
10
4155.6660914278846
20
378.9804589872864
10
4155.6660914278846
20
381.75045898728638
10
4165.9860914278843
20
381.75045898728638
10
4165.9860914278843
20
378.9804589872864
0
LINE
5
1321
100
AcDbEntity
8
0
100
AcDbLine
10
4158.4360914278841
20
381.75045898728638
30
0
11
4158.4360914278841
21
357.63045898728643
31
0
0
LINE
5
1322
100
AcDbEntity
8
0
100
AcDbLine
10
4155.6660914278846
20
378.9804589872864
30
0
11
4158.4360914278841
21
378.9804589872864
31
0
0
LINE
5
1323
100
AcDbEntity
8
0
100
AcDbLine
10
4155.6660914278846
20
381.75045898728638
30
0
11
4158.4360914278841
21
381.75045898728638
31
0
0
LINE
5
1324
100
AcDbEntity
8
0
100
AcDbLine
10
4158.4360914278841
20
357.63045898728643
30
0
11
4155.6660914278846
21
357.63045898728586
31
0
0
LINE
5
1325
100
AcDbEntity
8
0
100
AcDbLine
10
4155.6660914278846
20
381.75045898728638
30
0
11
4207.9160914278846
21
381.75045898728638
31
0
0
LWPOLYLINE
5
1326
100
AcDbEntity
8
0
100
AcDbPolyline
90
4
70
1
43
0.0
10
4205.1460914278841
20
333.12045898728638
10
4205.1460914278841
20
309.13045898728637
10
4207.9160914278837
20
309.13045898728637
10
4207.9160914278837
20
333.12045898728638
0
LWPOLYLINE
5
1327
100
AcDbEntity
8
0
100
AcDbPolyline
90
8
70
1
43
0.0
10
4207.9160914278837
20
260.50045898728638
10
4205.1460914278841
20
260.50045898728638
10
4205.1460914278841
20
284.62045898728638
10
4207.9160914278837
20
284.62045898728638
10
4207.9160914278837
20
260.50045898728638
10
4207.9160914278837
20
263.27045898728642
10
4197.5960914278839
20
263.27045898728642
10
4197.5960914278839
20
260.50045898728638
0
LINE
5
1328
100
AcDbEntity
8
0
100
AcDbLine
10
4165.9860914278843
20
260.50045898728695
30
0
11
4165.9860914278843
21
263.27045898728642
31
0
0
LINE
5
1329
100
AcDbEntity
8
0
100
AcDbLine
10
4186.8860914278848
20
263.27045898728642
30
0
11
4176.6960914278843
21
263.27045898728642
31
0
0
LINE
5
1330
100
AcDbEntity
8
0
100
AcDbLine
10
4165.9860914278843
20
263.27045898728642
30
0
11
4155.6660914278846
21
263.27045898728642
31
0
0
LINE
5
1331
100
AcDbEntity
8
0
100
AcDbLine
10
4158.4360914278841
20
260.50045898728638
30
0
11
4158.4360914278841
21
284.62045898728638
31
0
0
LINE
5
1332
100
AcDbEntity
8
0
100
AcDbLine
10
4207.9160914278846
20
260.50045898728638
30
0
11
4155.6660914278846
21
260.50045898728638
31
0
0
LINE
5
1333
100
AcDbEntity
8
0
100
AcDbLine
10
4155.6660914278846
20
309.13045898728637
30
0
11
4155.6660914278846
21
333.12045898728638
31
0
0
LINE
5
1334
100
AcDbEntity
8
0
100
AcDbLine
10
4158.4360914278841
20
309.13045898728637
30
0
11
4155.6660914278846
21
309.13045898728637
31
0
0
LINE
5
1335
100
AcDbEntity
8
0
100
AcDbLine
10
4155.6660914278846
20
260.50045898728638
30
0
11
4165.9860914278843
21
260.50045898728695
31
0
0
LINE
5
1336
100
AcDbEntity
8
0
100
AcDbLine
10
4186.8860914278848
20
260.50045898728638
30
0
11
4186.8860914278848
21
263.27045898728642
31
0
0
LINE
5
1337
100
AcDbEntity
8
0
100
AcDbLine
10
4158.4360914278841
20
284.62045898728638
30
0
11
4155.6660914278846
21
284.62045898728638
31
0
0
LINE
5
1338
100
AcDbEntity
8
0
100
AcDbLine
10
4155.6660914278846
20
263.27045898728642
30
0
11
4155.6660914278846
21
260.50045898728638
31
0
0
LINE
5
1339
100
AcDbEntity
8
0
100
AcDbLine
10
4176.6960914278843
20
260.50045898728638
30
0
11
4186.8860914278848
21
260.50045898728638
31
0
0
LINE
5
1340
100
AcDbEntity
8
0
100
AcDbLine
10
4155.6660914278846
20
284.62045898728638
30
0
11
4155.6660914278846
21
260.50045898728638
31
0
0
LINE
5
1341
100
AcDbEntity
8
0
100
AcDbLine
10
4155.6660914278846
20
333.12045898728638
30
0
11
4158.4360914278841
21
333.12045898728638
31
0
0
LINE
5
1342
100
AcDbEntity
8
0
100
AcDbLine
10
4155.6660914278846
20
260.50045898728638
30
0
11
4158.4360914278841
21
260.50045898728638
31
0
0
LINE
5
1343
100
AcDbEntity
8
0
100
AcDbLine
10
4176.6960914278843
20
263.27045898728642
30
0
11
4176.6960914278843
21
260.50045898728638
31
0
0
LINE
5
1344
100
AcDbEntity
8
0
100
AcDbLine
10
4158.4360914278841
20
333.12045898728638
30
0
11
4158.4360914278841
21
309.13045898728637
31
0
0
LINE
5
1345
100
AcDbEntity
8
0
100
AcDbLine
10
4165.9860914278843
20
260.50045898728695
30
0
11
4176.6960914278843
21
260.50045898728638
31
0
0
LINE
5
1346
100
AcDbEntity
8
0
100
AcDbLine
10
4207.9160914278846
20
381.75045898728638
30
0
11
4207.9160914278846
21
260.50045898728638
31
0
0
LINE
5
1347
100
AcDbEntity
8
0
100
AcDbLine
10
4155.6660914278846
20
357.63045898728586
30
0
11
4155.6660914278846
21
333.12045898728638
31
0
0
LINE
5
1348
100
AcDbEntity
8
0
100
AcDbLine
10
4155.6660914278846
20
260.50045898728638
30
0
11
4155.6660914278846
21
381.75045898728638
31
0
0
LWPOLYLINE
5
1349
100
AcDbEntity
8
0
100
AcDbPolyline
90
4
70
1
43
0.0
10
4107.9160914278837
20
378.9804589872864
10
4107.9160914278837
20
381.75045898728638
10
4097.5960914278839
20
381.75045898728638
10
4097.5960914278839
20
378.9804589872864
0
LWPOLYLINE
5
1350
100
AcDbEntity
8
0
100
AcDbPolyline
90
4
70
1
43
0.0
10
4107.9160914278837
20
357.63045898728643
10
4107.9160914278837
20
381.75045898728638
10
4105.1460914278841
20
381.75045898728638
10
4105.1460914278841
20
357.63045898728643
0
LWPOLYLINE
5
1351
100
AcDbEntity
8
0
100
AcDbPolyline
90
4
70
1
43
0.0
10
4086.8860914278844
20
381.75045898728638
10
4086.8860914278844
20
378.9804589872864
10
4076.6960914278843
20
378.9804589872864
10
4076.6960914278843
20
381.75045898728638
0
LINE
5
1352
100
AcDbEntity
8
0
100
AcDbLine
10
4105.1460914278841
20
378.9804589872864
30
0
11
4107.9160914278837
21
378.9804589872864
31
0
0
LINE
5
1353
100
AcDbEntity
8
0
100
AcDbLine
10
4055.6660914278841
20
357.63045898728586
30
0
11
4055.6660914278841
21
381.75045898728638
31
0
0
LWPOLYLINE
5
1354
100
AcDbEntity
8
0
100
AcDbPolyline
90
4
70
1
43
0.0
10
4055.6660914278841
20
378.9804589872864
10
4055.6660914278841
20
381.75045898728638
10
4065.9860914278843
20
381.75045898728638
10
4065.9860914278843
20
378.9804589872864
0
LINE
5
1355
100
AcDbEntity
8
0
100
AcDbLine
10
4058.4360914278841
20
381.75045898728638
30
0
11
4058.4360914278841
21
357.63045898728643
31
0
0
LINE
5
1356
100
AcDbEntity
8
0
100
AcDbLine
10
4055.6660914278841
20
378.9804589872864
30
0
11
4058.4360914278841
21
378.9804589872864
31
0
0
LINE
5
1357
100
AcDbEntity
8
0
100
AcDbLine
10
4055.6660914278841
20
381.75045898728638
30
0
11
4058.4360914278841
21
381.75045898728638
31
0
0
LINE
5
1358
100
AcDbEntity
8
0
100
AcDbLine
10
4058.4360914278841
20
357.63045898728643
30
0
11
4055.6660914278841
21
357.63045898728586
31
0
0
LINE
5
1359
100
AcDbEntity
8
0
100
AcDbLine
10
4055.6660914278841
20
381.75045898728638
30
0
11
4107.9160914278846
21
381.75045898728638
31
0
0
LWPOLYLINE
5
1360
100
AcDbEntity
8
0
100
AcDbPolyline
90
4
70
1
43
0.0
10
4105.1460914278841
20
333.12045898728638
10
4105.1460914278841
20
309.13045898728637
10
4107.9160914278837
20
309.13045898728637
10
4107.9160914278837
20
333.12045898728638
0
LWPOLYLINE
5
1361
100
AcDbEntity
8
0
100
AcDbPolyline
90
8
70
1
43
0.0
10
4107.9160914278837
20
260.50045898728638
10
4105.1460914278841
20
260.50045898728638
10
4105.1460914278841
20
284.62045898728638
10
4107.9160914278837
20
284.62045898728638
10
4107.9160914278837
20
260.50045898728638
10
4107.9160914278837
20
263.27045898728642
10
4097.5960914278839
20
263.27045898728642
10
4097.5960914278839
20
260.50045898728638
0
LINE
5
1362
100
AcDbEntity
8
0
100
AcDbLine
10
4065.9860914278843
20
260.50045898728695
30
0
11
4065.9860914278843
21
263.27045898728642
31
0
0
LINE
5
1363
100
AcDbEntity
8
0
100
AcDbLine
10
4086.8860914278844
20
263.27045898728642
30
0
11
4076.6960914278843
21
263.27045898728642
31
0
0
LINE
5
1364
100
AcDbEntity
8
0
100
AcDbLine
10
4065.9860914278843
20
263.27045898728642
30
0
11
4055.6660914278841
21
263.27045898728642
31
0
0
LINE
5
1365
100
AcDbEntity
8
0
100
AcDbLine
10
4058.4360914278841
20
260.50045898728638
30
0
11
4058.4360914278841
21
284.62045898728638
31
0
0
LINE
5
1366
100
AcDbEntity
8
0
100
AcDbLine
10
4107.9160914278846
20
260.50045898728638
30
0
11
4055.6660914278841
21
260.50045898728638
31
0
0
LINE
5
1367
100
AcDbEntity
8
0
100
AcDbLine
10
4055.6660914278841
20
309.13045898728637
30
0
11
4055.6660914278841
21
333.12045898728638
31
0
0
LINE
5
1368
100
AcDbEntity
8
0
100
AcDbLine
10
4058.4360914278841
20
309.13045898728637
30
0
11
4055.6660914278841
21
309.13045898728637
31
0
0
LINE
5
1369
100
AcDbEntity
8
0
100
AcDbLine
10
4055.6660914278841
20
260.50045898728638
30
0
11
4065.9860914278843
21
260.50045898728695
31
0
0
LINE
5
1370
100
AcDbEntity
8
0
100
AcDbLine
10
4086.8860914278844
20
260.50045898728638
30
0
11
4086.8860914278844
21
263.27045898728642
31
0
0
LINE
5
1371
100
AcDbEntity
8
0
100
AcDbLine
10
4058.4360914278841
20
284.62045898728638
30
0
11
4055.6660914278841
21
284.62045898728638
31
0
0
LINE
5
1372
100
AcDbEntity
8
0
100
AcDbLine
10
4055.6660914278841
20
263.27045898728642
30
0
11
4055.6660914278841
21
260.50045898728638
31
0
0
LINE
5
1373
100
AcDbEntity
8
0
100
AcDbLine
10
4076.6960914278843
20
260.50045898728638
30
0
11
4086.8860914278844
21
260.50045898728638
31
0
0
LINE
5
1374
100
AcDbEntity
8
0
100
AcDbLine
10
4055.6660914278841
20
284.62045898728638
30
0
11
4055.6660914278841
21
260.50045898728638
31
0
0
LINE
5
1375
100
AcDbEntity
8
0
100
AcDbLine
10
4055.6660914278841
20
333.12045898728638
30
0
11
4058.4360914278841
21
333.12045898728638
31
0
0
LINE
5
1376
100
AcDbEntity
8
0
100
AcDbLine
10
4055.6660914278841
20
260.50045898728638
30
0
11
4058.4360914278841
21
260.50045898728638
31
0
0
LINE
5
1377
100
AcDbEntity
8
0
100
AcDbLine
10
4076.6960914278843
20
263.27045898728642
30
0
11
4076.6960914278843
21
260.50045898728638
31
0
0
LINE
5
1378
100
AcDbEntity
8
0
100
AcDbLine
10
4058.4360914278841
20
333.12045898728638
30
0
11
4058.4360914278841
21
309.13045898728637
31
0
0
LINE
5
1379
100
AcDbEntity
8
0
100
AcDbLine
10
4065.9860914278843
20
260.50045898728695
30
0
11
4076.6960914278843
21
260.50045898728638
31
0
0
LINE
5
1380
100
AcDbEntity
8
0
100
AcDbLine
10
4107.9160914278846
20
381.75045898728638
30
0
11
4107.9160914278846
21
260.50045898728638
31
0
0
LINE
5
1381
100
AcDbEntity
8
0
100
AcDbLine
10
4055.6660914278841
20
357.63045898728586
30
0
11
4055.6660914278841
21
333.12045898728638
31
0
0
LINE
5
1382
100
AcDbEntity
8
0
100
AcDbLine
10
4055.6660914278841
20
260.50045898728638
30
0
11
4055.6660914278841
21
381.75045898728638
31
0
0
ENDSEC
0
SECTION
2
OBJECTS
0
DICTIONARY
5
C
100
AcDbDictionary
3
ACAD_GROUP
350
D
3
ACAD_MLINESTYLE
350
17
0
DICTIONARY
5
D
100
AcDbDictionary
0
DICTIONARY
5
1A
330
C
100
AcDbDictionary
0
DICTIONARY
5
17
100
AcDbDictionary
0
ENDSEC
0
EOF
