0
SECTION
2
HEADER
9
$INSUNITS
70
4
9
$ACADVER
1
AC1014
9
$HANDSEED
5
FFFF
0
ENDSEC
0
SECTION
2
TABLES
0
TABLE
2
VPORT
5
8
100
AcDbSymbolTable
0
ENDTAB
0
TABLE
2
LTYPE
5
5
100
AcDbSymbolTable
0
LTYPE
5
14
100
AcDbSymbolTableRecord
100
AcDbLinetypeTableRecord
2
BYBLOCK
70
0
0
LTYPE
5
15
100
AcDbSymbolTableRecord
100
AcDbLinetypeTableRecord
2
BYLAYER
70
0
0
ENDTAB
0
TABLE
2
LAYER
5
2
100
AcDbSymbolTable
70
2
0
LAYER
5
50
100
AcDbSymbolTableRecord
100
AcDbLayerTableRecord
2
0
70
0
6
CONTINUOUS
0
ENDTAB
0
TABLE
2
STYLE
5
3
100
AcDbSymbolTable
70
1
0
STYLE
5
11
100
AcDbSymbolTableRecord
100
AcDbTextStyleTableRecord
2
STANDARD
70
0
0
ENDTAB
0
TABLE
2
VIEW
5
6
100
AcDbSymbolTable
70
0
0
ENDTAB
0
TABLE
2
UCS
5
7
100
AcDbSymbolTable
70
0
0
ENDTAB
0
TABLE
2
APPID
5
9
100
AcDbSymbolTable
70
2
0
APPID
5
12
100
AcDbSymbolTableRecord
100
AcDbRegAppTableRecord
2
ACAD
70
0
0
ENDTAB
0
TABLE
2
DIMSTYLE
5
A
100
AcDbSymbolTable
70
1
0
ENDTAB
0
TABLE
2
BLOCK_RECORD
5
1
100
AcDbSymbolTable
70
1
0
BLOCK_RECORD
5
1F
100
AcDbSymbolTableRecord
100
AcDbBlockTableRecord
2
*MODEL_SPACE
0
BLOCK_RECORD
5
1B
100
AcDbSymbolTableRecord
100
AcDbBlockTableRecord
2
*PAPER_SPACE
0
ENDTAB
0
ENDSEC
0
SECTION
2
BLOCKS
0
BLOCK
5
20
100
AcDbEntity
100
AcDbBlockBegin
2
*MODEL_SPACE
0
ENDBLK
5
21
100
AcDbEntity
100
AcDbBlockEnd
0
BLOCK
5
1C
100
AcDbEntity
100
AcDbBlockBegin
2
*PAPER_SPACE
0
ENDBLK
5
1D
100
AcDbEntity
100
AcDbBlockEnd
0
ENDSEC
0
SECTION
2
ENTITIES
0
LWPOLYLINE
5
100
100
AcDbEntity
8
0
100
AcDbPolyline
90
4
70
1
43
0.0
10
46.34331910002372
20
152.53269257620553
10
51.343319100023706
20
152.53269257620553
42
0.89870282610197139
10
51.343319100023727
20
154.53558165096092
10
46.34331910002372
20
154.53558165096092
42
0.89862343401322231
0
LINE
5
101
100
AcDbEntity
8
0
100
AcDbLine
10
53.591070133148847
20
149.5341865180477
30
0
11
46.840270133148856
21
149.53418651804765
31
0
0
ARC
5
102
100
AcDbEntity
8
0
100
AcDbCircle
10
36.148495446958513
20
153.50379581500869
30
0
40
7.9856855658564898
210
0
220
-0
230
1
100
AcDbArc
50
49.400978851044904
51
179.63701887178644
0
ARC
5
103
100
AcDbEntity
8
0
100
AcDbCircle
10
47.125255665088801
20
140.21271241988688
30
0
40
9.3258295135659033
210
0
220
0
230
1
100
AcDbArc
50
91.751159036259409
51
129.43974080418249
0
LINE
5
104
100
AcDbEntity
8
0
100
AcDbLine
10
53.591070133148847
20
149.5341865180477
30
0
11
91.894092156237861
21
149.53418651804776
31
0
0
LINE
5
105
100
AcDbEntity
8
0
100
AcDbLine
10
91.894092156401456
20
157.53418651837205
30
0
11
46.989270133148835
21
157.53418651804768
31
0
0
ARC
5
106
100
AcDbEntity
8
0
100
AcDbCircle
10
36.066682221269133
20
153.55449860472899
30
0
40
7.9037120889150607
210
0
220
0
230
1
100
AcDbArc
50
180.00081254136251
51
270.0013622153121
0
ARC
5
107
100
AcDbEntity
8
0
100
AcDbCircle
10
36.29065665599974
20
153.35187415645811
30
0
40
7.7043384675315707
210
0
220
0
230
1
100
AcDbArc
50
268.3355057623491
51
309.59308304208184
0
ARC
5
108
100
AcDbEntity
8
0
100
AcDbCircle
10
47.091838036621965
20
166.66985092887012
30
0
40
9.1362401677052301
210
0
220
0
230
1
100
AcDbArc
50
231.02464297319909
51
269.35675602590629
0
LWPOLYLINE
5
109
100
AcDbEntity
8
0
100
AcDbPolyline
90
4
70
1
43
0.0
10
176.69170831372131
20
238.5661597562347
10
164.29180831372128
20
238.5661597562347
10
164.29180831372128
20
261.5661597562347
10
176.69170831372131
20
261.5661597562347
0
CIRCLE
5
110
100
AcDbEntity
8
0
100
AcDbCircle
10
178.99180482915693
20
265.96595976064742
30
0
40
2.8849999999999829
210
0
220
0
230
1
0
CIRCLE
5
111
100
AcDbEntity
8
0
100
AcDbCircle
10
161.99190482915691
20
265.96595976064742
30
0
40
2.8850000000000033
210
0
220
0
230
1
0
CIRCLE
5
112
100
AcDbEntity
8
0
100
AcDbCircle
10
178.99170482915693
20
233.36605976064729
30
0
40
2.8849999999999936
210
0
220
0
230
1
0
CIRCLE
5
113
100
AcDbEntity
8
0
100
AcDbCircle
10
161.9918874066245
20
233.3660597556096
30
0
40
2.884999999999998
210
0
220
0
230
1
0
CIRCLE
5
114
100
AcDbEntity
8
0
100
AcDbCircle
10
161.44180793090391
20
281.26610976016639
30
0
40
2.8850000000000025
210
0
220
0
230
1
0
CIRCLE
5
115
100
AcDbEntity
8
0
100
AcDbCircle
10
179.54170792733279
20
281.26610976016713
30
0
40
2.884999999999998
210
0
220
0
230
1
0
LWPOLYLINE
5
116
100
AcDbEntity
8
0
100
AcDbPolyline
90
4
70
1
43
0.0
10
187.57327984865839
20
290
10
155
20
290
10
155
20
225.05210915524771
10
187.57327984865839
20
225.05210915524771
0
CIRCLE
5
117
100
AcDbEntity
8
0
100
AcDbCircle
10
223.99170482915693
20
233.36605976064729
30
0
40
2.8849999999999936
210
0
220
0
230
1
0
CIRCLE
5
118
100
AcDbEntity
8
0
100
AcDbCircle
10
206.9918874066245
20
233.3660597556096
30
0
40
2.884999999999998
210
0
220
0
230
1
0
LWPOLYLINE
5
119
100
AcDbEntity
8
0
100
AcDbPolyline
90
4
70
1
43
0.0
10
200
20
225.05210915524771
10
232.57327984865839
20
225.05210915524771
10
232.57327984865839
20
272.6821128876868
10
200
20
272.6821128876868
0
LWPOLYLINE
5
120
100
AcDbEntity
8
0
100
AcDbPolyline
90
4
70
1
43
0.0
10
221.69170831372131
20
238.5661597562347
10
209.29180831372128
20
238.5661597562347
10
209.29180831372128
20
261.5661597562347
10
221.69170831372131
20
261.5661597562347
0
CIRCLE
5
121
100
AcDbEntity
8
0
100
AcDbCircle
10
206.99190482915691
20
265.96595976064742
30
0
40
2.8850000000000033
210
0
220
0
230
1
0
CIRCLE
5
122
100
AcDbEntity
8
0
100
AcDbCircle
10
223.99180482915693
20
265.96595976064742
30
0
40
2.8849999999999829
210
0
220
0
230
1
0
CIRCLE
5
123
100
AcDbEntity
8
0
100
AcDbCircle
10
253.7555574788243
20
147.52189103724314
30
0
40
2.8849999999999976
210
0
220
0
230
1
0
CIRCLE
5
124
100
AcDbEntity
8
0
100
AcDbCircle
10
253.7555574788243
20
147.52189103724314
30
0
40
4.4499999999999957
210
0
220
0
230
1
0
CIRCLE
5
125
100
AcDbEntity
8
0
100
AcDbCircle
10
36.143270133097886
20
153.53424389419109
30
0
40
3.3850000000000002
210
0
220
0
230
1
0
CIRCLE
5
126
100
AcDbEntity
8
0
100
AcDbCircle
10
95.595780959920347
20
153.53418651813422
30
0
40
2.8850000000000042
210
0
220
0
230
1
0
LINE
5
127
100
AcDbEntity
8
0
100
AcDbLine
10
39.528270133097877
20
153.53424389419109
30
0
11
52.528270132683048
21
153.5341400402213
31
0
0
LINE
5
128
100
AcDbEntity
8
0
100
AcDbLine
10
52.528270132683048
20
153.5341400402213
30
0
11
51.028270132730917
21
153.53415202337166
31
0
0
LINE
5
129
100
AcDbEntity
8
0
100
AcDbLine
10
51.028270132730917
20
153.53415202337166
30
0
11
51.028270132730917
21
155.53415202337166
31
0
0
LINE
5
130
100
AcDbEntity
8
0
100
AcDbLine
10
51.028270132730917
20
153.53415202337166
30
0
11
51.028254155197097
21
151.53415202343547
31
0
0
LINE
5
131
100
AcDbEntity
8
0
100
AcDbLine
10
91.894092156401456
20
157.53418651837205
30
0
11
71.342470133148851
21
157.5341865180477
31
0
0
LINE
5
132
100
AcDbEntity
8
0
100
AcDbLine
10
78.093270133148863
20
149.53418651804776
30
0
11
71.342470133148865
21
149.5341865180477
31
0
0
LINE
5
133
100
AcDbEntity
8
0
100
AcDbLine
10
78.093270133148863
20
149.53418651804776
30
0
11
91.894092156237861
21
149.53418651804776
31
0
0
LINE
5
134
100
AcDbEntity
8
0
100
AcDbLine
10
38.135740295829393
20
156.27071747356743
30
0
11
38.135740295829393
21
150.79777031481478
31
0
0
LINE
5
135
100
AcDbEntity
8
0
100
AcDbLine
10
38.135740295829393
20
156.27071747356743
30
0
11
51.028270132730917
21
155.53415202337166
31
0
0
LINE
5
136
100
AcDbEntity
8
0
100
AcDbLine
10
38.135740295829393
20
150.79777031481478
30
0
11
51.028254155197097
21
151.53415202343547
31
0
0
ARC
5
137
100
AcDbEntity
8
0
100
AcDbCircle
10
50.52171879123101
20
153.59173817222711
30
0
40
2.0073778495075336
210
0
220
0
230
1
100
AcDbArc
50
-1.6442260104124413
51
75.383691741317691
0
ARC
5
138
100
AcDbEntity
8
0
100
AcDbCircle
10
50.446550469927473
20
153.53294641045954
30
0
40
2.0817200049610869
210
0
220
0
230
1
100
AcDbArc
50
-73.773563354602146
51
0.032852617658709615
0
LWPOLYLINE
5
139
100
AcDbEntity
8
0
100
AcDbPolyline
90
4
70
1
43
0.0
10
99.632770133057704
20
207.93358337638182
10
99.63277013305769
20
240.33157347359958
42
2.3023360240501933
10
91.666907073498848
20
240.3348901726232
10
91.636453274597642
20
207.93734346590045
42
2.289473131995317
0
CIRCLE
5
140
100
AcDbEntity
8
0
100
AcDbCircle
10
95.632870132432672
20
204.23178651742265
30
0
40
2.9499999999999948
210
0
220
0
230
1
0
CIRCLE
5
141
100
AcDbEntity
8
0
100
AcDbCircle
10
95.632789581225737
20
244.0346365211268
30
0
40
2.9499999999999926
210
0
220
0
230
1
0
ARC
5
142
100
AcDbEntity
8
0
100
AcDbCircle
10
311.17746108704017
20
133.61661165582717
30
0
40
0.73183762449256129
210
0
220
-0
230
1
100
AcDbArc
50
47.657055402193443
51
116.16928633046317
0
ARC
5
143
100
AcDbEntity
8
0
100
AcDbCircle
10
323.43058754470292
20
133.11766296350987
30
0
40
1.3633236155969923
210
0
220
-0
230
1
100
AcDbArc
50
58.815944494320625
51
88.062602960678575
0
ARC
5
144
100
AcDbEntity
8
0
100
AcDbCircle
10
-325.29360497226952
20
135.87405397327024
30
0
40
1.9665114659198095
210
-0
220
0
230
-1
100
AcDbArc
50
275.07816175779783
51
306.04384378416086
0
ARC
5
145
100
AcDbEntity
8
0
100
AcDbCircle
10
308.70436438677825
20
137.4990414590867
30
0
40
3.8766621272040807
210
0
220
0
230
1
100
AcDbArc
50
257.05304415780904
51
303.6892310366361
0
LINE
5
146
100
AcDbEntity
8
0
100
AcDbLine
10
327.30414505888831
20
134.89150314711739
30
0
11
326.85486332891799
21
133.97401551962341
31
0
0
ARC
5
147
100
AcDbEntity
8
0
100
AcDbCircle
10
316.46644199589286
20
146.77599997679079
30
0
40
0.57472339384562676
210
0
220
0
230
1
100
AcDbArc
50
221.68425181264237
51
274.30359744228315
0
ARC
5
148
100
AcDbEntity
8
0
100
AcDbCircle
10
311.14854766984729
20
144.67481701579371
30
0
40
1.3633236155969772
210
0
220
0
230
1
100
AcDbArc
50
238.81594449432001
51
268.06260296067853
0
ARC
5
149
100
AcDbEntity
8
0
100
AcDbCircle
10
317.78792966329883
20
138.91482782470416
30
0
40
7.8457671548747419
210
0
220
0
230
1
100
AcDbArc
50
175.58483956422671
51
185.84199754355097
0
ARC
5
150
100
AcDbEntity
8
0
100
AcDbCircle
10
309.23439464249037
20
139.48489096045233
30
0
40
0.73183762449258016
210
0
220
-0
230
1
100
AcDbArc
50
2.6570554021922028
51
71.169286330460011
0
LINE
5
151
100
AcDbEntity
8
0
100
AcDbLine
10
307.27499015566184
20
142.90097683218616
30
0
11
307.72427188563216
21
143.81846445968017
31
0
0
ARC
5
152
100
AcDbEntity
8
0
100
AcDbCircle
10
317.65510638078871
20
138.55698838456442
30
0
40
7.8457671548747374
210
0
220
0
230
1
100
AcDbArc
50
130.58483956422654
51
140.84199754355095
0
ARC
5
153
100
AcDbEntity
8
0
100
AcDbCircle
10
312.00993927345047
20
145.00834650988671
30
0
40
0.73183762449257439
210
0
220
0
230
1
100
AcDbArc
50
-42.342944597808206
51
26.169286330460164
0
ARC
5
154
100
AcDbEntity
8
0
100
AcDbCircle
10
-311.29844195888415
20
132.8267985448143
30
0
40
5.084513686932369
210
0
220
0
230
-1
100
AcDbArc
50
33.229653551615606
51
52.892011509137063
0
ARC
5
155
100
AcDbEntity
8
0
100
AcDbCircle
10
-311.22012616243757
20
144.88736563804272
30
0
40
5.0845136869323735
210
0
220
0
230
-1
100
AcDbArc
50
123.22965355161578
51
142.89201150913752
0
ARC
5
156
100
AcDbEntity
8
0
100
AcDbCircle
10
317.03328176691184
20
147.32466783160254
30
0
40
1.3633236155970507
210
0
220
0
230
1
100
AcDbArc
50
193.81594449432023
51
223.06260296067774
0
ARC
5
157
100
AcDbEntity
8
0
100
AcDbCircle
10
-308.7614588306979
20
138.84086235891041
30
0
40
5.0845136869323824
210
0
220
0
230
-1
100
AcDbArc
50
78.22965355161665
51
97.892011509137504
0
ARC
5
158
100
AcDbEntity
8
0
100
AcDbCircle
10
-309.28553024228063
20
141.9184260060334
30
0
40
1.9665114659198131
210
0
220
0
230
-1
100
AcDbArc
50
95.07816175779945
51
126.04384378416273
0
LINE
5
159
100
AcDbEntity
8
0
100
AcDbLine
10
306.94525098647136
20
141.92156614723746
30
0
11
307.27499015566184
21
142.90097683218616
31
0
0
LINE
5
160
100
AcDbEntity
8
0
100
AcDbLine
10
312.11425981929392
20
148.35000506029269
30
0
11
313.03996855874516
21
148.80939219462908
31
0
0
ARC
5
161
100
AcDbEntity
8
0
100
AcDbCircle
10
-313.76686673580758
20
146.69295731350044
30
0
40
1.9665114659197962
210
0
220
0
230
-1
100
AcDbArc
50
140.07816175779811
51
171.04384378416162
0
ARC
5
162
100
AcDbEntity
8
0
100
AcDbCircle
10
315.89236907671
20
147.4814432101486
30
0
40
3.8766621272041095
210
0
220
0
230
1
100
AcDbArc
50
167.05304415780839
51
213.68923103663633
0
ARC
5
163
100
AcDbEntity
8
0
100
AcDbCircle
10
311.13569818466999
20
143.88603400910353
30
0
40
0.57472339384564219
210
0
220
0
230
1
100
AcDbArc
50
266.6842518126461
51
319.30359744228531
0
ARC
5
164
100
AcDbEntity
8
0
100
AcDbCircle
10
310.23094363657071
20
143.9789268491032
30
0
40
3.8766621272040784
210
0
220
0
230
1
100
AcDbArc
50
212.05304415780859
51
258.68923103663599
0
ARC
5
165
100
AcDbEntity
8
0
100
AcDbCircle
10
-309.49285028342638
20
135.37353911818425
30
0
40
1.9665114659197738
210
0
220
0
230
-1
100
AcDbArc
50
50.078161757799258
51
81.043843784161851
0
ARC
5
166
100
AcDbEntity
8
0
100
AcDbCircle
10
308.86113976532431
20
138.63995414928849
30
0
40
1.3633236155969692
210
0
220
0
230
1
100
AcDbArc
50
283.81594449431998
51
313.06260296067853
0
ARC
5
167
100
AcDbEntity
8
0
100
AcDbCircle
10
309.40980762013606
20
138.07311437826951
30
0
40
0.57472339384560023
210
0
220
0
230
1
100
AcDbArc
50
-48.315748187355979
51
4.3035974422890382
0
LINE
5
168
100
AcDbEntity
8
0
100
AcDbLine
10
313.03996855874516
20
148.80939219462908
30
0
11
314.00642043972618
21
149.14046375975963
31
0
0
ARC
5
169
100
AcDbEntity
8
0
100
AcDbCircle
10
-314.26738159089348
20
130.89220262465739
30
0
40
1.9665114659198273
210
0
220
0
230
-1
100
AcDbArc
50
5.078161757797842
51
36.043843784161375
0
ARC
5
170
100
AcDbEntity
8
0
100
AcDbCircle
10
316.92402883376144
20
139.23549159473919
30
0
40
7.8457671548747694
210
0
220
0
230
1
100
AcDbArc
50
310.58483956422731
51
320.8419975435512
0
ARC
5
171
100
AcDbEntity
8
0
100
AcDbCircle
10
317.30815544232746
20
138.397877933628
30
0
40
7.8457671548747445
210
0
220
-0
230
1
100
AcDbArc
50
85.584839564226527
51
95.841997543551074
0
ARC
5
172
100
AcDbEntity
8
0
100
AcDbCircle
10
318.68676613784021
20
130.31103676915501
30
0
40
3.8766621272041095
210
0
220
0
230
1
100
AcDbArc
50
-12.9469558421918
51
33.689231036636322
0
CIRCLE
5
173
100
AcDbEntity
8
0
100
AcDbCircle
10
317.28956760727505
20
138.8962399896518
30
0
40
2.9500000000000015
210
0
220
0
230
1
0
ARC
5
174
100
AcDbEntity
8
0
100
AcDbCircle
10
325.71799544922584
20
139.15252583001507
30
0
40
1.3633236155970205
210
0
220
0
230
1
100
AcDbArc
50
103.815944494322
51
133.06260296067944
0
ARC
5
175
100
AcDbEntity
8
0
100
AcDbCircle
10
-317.23418997653363
20
147.42434876622895
30
0
40
5.0845136869323788
210
0
220
0
230
-1
100
AcDbArc
50
168.22965355161611
51
187.8920115091374
0
LINE
5
176
100
AcDbEntity
8
0
100
AcDbLine
10
321.29430444980954
20
148.91081744126507
30
0
11
322.21179207730347
21
148.46153571129472
31
0
0
LINE
5
177
100
AcDbEntity
8
0
100
AcDbLine
10
307.37641540229782
20
134.64664094112186
30
0
11
307.04534383716725
21
135.61309282210286
31
0
0
ARC
5
178
100
AcDbEntity
8
0
100
AcDbCircle
10
316.79120555125121
20
138.87765215459945
30
0
40
7.8457671548747445
210
0
220
0
230
1
100
AcDbArc
50
-4.4151604357734726
51
5.8419975435506064
0
ARC
5
179
100
AcDbEntity
8
0
100
AcDbCircle
10
325.34474057205966
20
138.30758901885122
30
0
40
0.7318376244925785
210
0
220
0
230
1
100
AcDbArc
50
182.65705540219028
51
251.16928633046351
0
ARC
5
180
100
AcDbEntity
8
0
100
AcDbCircle
10
-325.08628493112371
20
142.41894086111932
30
0
40
1.9665114659198006
210
0
220
-0
230
-1
100
AcDbArc
50
230.07816175779979
51
261.04384378416182
0
ARC
5
181
100
AcDbEntity
8
0
100
AcDbCircle
10
325.87477082777184
20
140.29343852021691
30
0
40
3.876662127204114
210
0
220
-0
230
1
100
AcDbArc
50
77.053044157807562
51
123.68923103663516
0
ARC
5
182
100
AcDbEntity
8
0
100
AcDbCircle
10
-320.31175362365661
20
146.90027735464625
30
0
40
1.9665114659198273
210
0
220
-0
230
-1
100
AcDbArc
50
185.07816175779863
51
216.04384378416205
0
ARC
5
183
100
AcDbEntity
8
0
100
AcDbCircle
10
322.27936162672677
20
145.05010941225692
30
0
40
0.57472339384564219
210
0
220
0
230
1
100
AcDbArc
50
176.68425181264612
51
229.30359744228105
0
LINE
5
184
100
AcDbEntity
8
0
100
AcDbLine
10
327.20271981225238
20
143.14583903818178
30
0
11
327.53379137738295
21
142.17938715720075
31
0
0
ARC
5
185
100
AcDbEntity
8
0
100
AcDbCircle
10
324.34819157797932
20
133.8135531302004
30
0
40
3.8766621272041597
210
0
220
-0
230
1
100
AcDbArc
50
32.053044157807719
51
78.689231036635078
0
ARC
5
186
100
AcDbEntity
8
0
100
AcDbCircle
10
-323.28069325566605
20
144.96568143448928
30
0
40
5.0845136869323397
210
0
220
0
230
-1
100
AcDbArc
50
213.22965355161628
51
232.89201150913757
0
ARC
5
187
100
AcDbEntity
8
0
100
AcDbCircle
10
325.16932759441403
20
139.71936560103404
30
0
40
0.57472339384562676
210
0
220
0
230
1
100
AcDbArc
50
131.68425181264215
51
184.30359744228855
0
ARC
5
188
100
AcDbEntity
8
0
100
AcDbCircle
10
322.37225446672653
20
145.95486396035614
30
0
40
3.8766621272041091
210
0
220
0
230
1
100
AcDbArc
50
122.05304415780805
51
168.68923103663607
0
ARC
5
189
100
AcDbEntity
8
0
100
AcDbCircle
10
317.87821857807563
20
146.95141295443645
30
0
40
0.73183762449258016
210
0
220
0
230
1
100
AcDbArc
50
272.65705540219466
51
341.16928633046211
0
LINE
5
190
100
AcDbEntity
8
0
100
AcDbLine
10
320.31489376486081
20
149.24055661045551
30
0
11
321.29430444980954
21
148.91081744126507
31
0
0
ARC
5
191
100
AcDbEntity
8
0
100
AcDbCircle
10
316.95031600218766
20
138.5307012161382
30
0
40
7.8457671548747463
210
0
220
-0
230
1
100
AcDbArc
50
40.584839564226691
51
50.841997543551251
0
ARC
5
192
100
AcDbEntity
8
0
100
AcDbCircle
10
323.40167412750998
20
144.17586832347646
30
0
40
0.73183762449262224
210
0
220
0
230
1
100
AcDbArc
50
227.65705540219014
51
296.16928633046314
0
ARC
5
193
100
AcDbEntity
8
0
100
AcDbCircle
10
323.06814463341698
20
145.03725992707962
30
0
40
1.3633236155969772
210
0
220
0
230
1
100
AcDbArc
50
148.81594449432123
51
178.06260296067853
0
LINE
5
194
100
AcDbEntity
8
0
100
AcDbLine
10
326.74333267791599
20
144.07154777763299
30
0
11
327.20271981225238
21
143.14583903818178
31
0
0
LINE
5
195
100
AcDbEntity
8
0
100
AcDbLine
10
327.63388422807878
20
135.87091383206615
30
0
11
327.30414505888831
21
134.89150314711739
31
0
0
ARC
5
196
100
AcDbEntity
8
0
100
AcDbCircle
10
-317.34494523801646
20
130.36813121307466
30
0
40
5.0845136869324135
210
-0
220
0
230
-1
100
AcDbArc
50
-11.770346448383888
51
7.8920115091371361
0
ARC
5
197
100
AcDbEntity
8
0
100
AcDbCircle
10
312.29977358782332
20
132.74237056704669
30
0
40
0.57472339384564219
210
0
220
0
230
1
100
AcDbArc
50
-3.3157481873538845
51
49.303597442282879
0
ARC
5
198
100
AcDbEntity
8
0
100
AcDbCircle
10
311.51099058113311
20
132.75522005222399
30
0
40
1.3633236155970077
210
0
220
0
230
1
100
AcDbArc
50
328.81594449432123
51
358.06260296067853
0
ARC
5
199
100
AcDbEntity
8
0
100
AcDbCircle
10
-325.81767638385224
20
138.95161762039319
30
0
40
5.0845136869323966
210
0
220
-0
230
-1
100
AcDbArc
50
258.22965355161602
51
277.89201150913743
0
LINE
5
200
100
AcDbEntity
8
0
100
AcDbLine
10
307.83580253663422
20
133.72093220167068
30
0
11
307.37641540229782
21
134.64664094112186
31
0
0
ARC
5
201
100
AcDbEntity
8
0
100
AcDbCircle
10
323.44343702988022
20
133.90644597020008
30
0
40
0.57472339384562443
210
0
220
-0
230
1
100
AcDbArc
50
86.684251812646039
51
139.30359744228534
0
ARC
5
202
100
AcDbEntity
8
0
100
AcDbCircle
10
322.56919594109974
20
132.7841334694169
30
0
40
0.73183762449256018
210
0
220
0
230
1
100
AcDbArc
50
137.65705540218715
51
206.16928633046015
0
ARC
5
203
100
AcDbEntity
8
0
100
AcDbCircle
10
317.62881921236249
20
139.26177876316541
30
0
40
7.8457671548747729
210
0
220
0
230
1
100
AcDbArc
50
220.58483956422629
51
230.84199754355083
0
LINE
5
204
100
AcDbEntity
8
0
100
AcDbLine
10
439.31039883377019
20
146.88246248191601
30
0
11
439.98611419962009
21
146.11627297282328
31
0
0
ARC
5
205
100
AcDbEntity
8
0
100
AcDbCircle
10
-428.46336336118492
20
147.02049883614262
30
0
40
5.0845136869323539
210
0
220
0
230
-1
100
AcDbArc
50
145.72965355161554
51
165.39201150913675
0
ARC
5
206
100
AcDbEntity
8
0
100
AcDbCircle
10
434.7667340126045
20
147.04767410772484
30
0
40
1.3633236155970505
210
0
220
0
230
1
100
AcDbArc
50
171.31594449432163
51
200.56260296067762
0
ARC
5
207
100
AcDbEntity
8
0
100
AcDbCircle
10
439.17510036748416
20
143.73900394945696
30
0
40
3.8766621272041086
210
0
220
0
230
1
100
AcDbArc
50
99.553044157807747
51
146.1892310366361
0
ARC
5
208
100
AcDbEntity
8
0
100
AcDbCircle
10
434.03307625203894
20
146.75769129569198
30
0
40
0.57472339384565319
210
0
220
0
230
1
100
AcDbArc
50
199.1842518126428
51
251.80359744227903
0
ARC
5
209
100
AcDbEntity
8
0
100
AcDbCircle
10
439.466867188359
20
142.62494272662482
30
0
40
1.3633236155969772
210
0
220
0
230
1
100
AcDbArc
50
126.31594449431952
51
155.56260296067933
0
LINE
5
210
100
AcDbEntity
8
0
100
AcDbLine
10
440.17725176475733
20
132.40911028215669
30
0
11
439.49780825266379
21
131.63043851346069
31
0
0
ARC
5
211
100
AcDbEntity
8
0
100
AcDbCircle
10
431.98597938150755
20
138.70943254141895
30
0
40
7.8457671548746921
210
0
220
0
230
1
100
AcDbArc
50
108.08483956422552
51
118.34199754355082
0
ARC
5
212
100
AcDbEntity
8
0
100
AcDbCircle
10
-423.92033851108812
20
135.84801759043719
30
0
40
5.0845136869323397
210
0
220
0
230
-1
100
AcDbArc
50
55.729653551615904
51
75.392011509137149
0
LINE
5
213
100
AcDbEntity
8
0
100
AcDbLine
10
442.56290113390384
20
139.29526425919951
30
0
11
442.49892625369489
21
138.27568354430147
31
0
0
ARC
5
214
100
AcDbEntity
8
0
100
AcDbCircle
10
438.99483401802109
20
135.5363219660677
30
0
40
0.7318376244925785
210
0
220
0
230
1
100
AcDbArc
50
160.15705540219133
51
228.66928633045853
0
ARC
5
215
100
AcDbEntity
8
0
100
AcDbCircle
10
439.66301987847265
20
136.17410333462638
30
0
40
1.3633236155970205
210
0
220
-0
230
1
100
AcDbArc
50
81.315944494320888
51
110.56260296068069
0
LINE
5
216
100
AcDbEntity
8
0
100
AcDbLine
10
438.53172706507416
20
147.56190599400958
30
0
11
439.31039883377019
21
146.88246248191601
31
0
0
ARC
5
217
100
AcDbEntity
8
0
100
AcDbCircle
10
431.31055179913056
20
139.33628777004267
30
0
40
7.8457671548747445
210
-0
220
0
230
1
100
AcDbArc
50
333.08483956422651
51
343.34199754355063
0
ARC
5
218
100
AcDbEntity
8
0
100
AcDbCircle
10
-434.99049523759174
20
147.06288303975936
30
0
40
5.0845136869323451
210
0
220
-0
230
-1
100
AcDbArc
50
190.7296535516156
51
210.39201150913738
0
ARC
5
219
100
AcDbEntity
8
0
100
AcDbCircle
10
433.77266346971692
20
147.62912405548059
30
0
40
3.8766621272041095
210
0
220
0
230
1
100
AcDbArc
50
144.55304415780822
51
191.1892310366361
0
ARC
5
220
100
AcDbEntity
8
0
100
AcDbCircle
10
436.35434972020471
20
131.76573697974669
30
0
40
3.8766621272041588
210
0
220
-0
230
1
100
AcDbArc
50
9.5530441578077383
51
56.189231036635363
0
ARC
5
221
100
AcDbEntity
8
0
100
AcDbCircle
10
-431.50721487135161
20
147.71405260521013
30
0
40
1.966511465919796
210
0
220
0
230
-1
100
AcDbArc
50
162.5781617577976
51
193.54384378416293
0
ARC
5
222
100
AcDbEntity
8
0
100
AcDbCircle
10
431.6045495771881
20
138.69520602838281
30
0
40
7.8457671548747445
210
0
220
-0
230
1
100
AcDbArc
50
63.084839564226698
51
73.34199754355032
0
ARC
5
223
100
AcDbEntity
8
0
100
AcDbCircle
10
-439.63584460689043
20
142.47747398604582
30
0
40
5.0845136869323397
210
0
220
-0
230
-1
100
AcDbArc
50
235.72965355161645
51
255.3920115091378
0
ARC
5
224
100
AcDbEntity
8
0
100
AcDbCircle
10
-437.63323985458044
20
145.40097156922081
30
0
40
1.9665114659198273
210
0
220
-0
230
-1
100
AcDbArc
50
207.57816175779877
51
238.54384378415958
0
ARC
5
225
100
AcDbEntity
8
0
100
AcDbCircle
10
435.40451538116315
20
146.37948824727329
30
0
40
0.7318376244925785
210
0
220
0
230
1
100
AcDbArc
50
250.15705540218147
51
318.66928633045745
0
LINE
5
226
100
AcDbEntity
8
0
100
AcDbLine
10
442.49273616077494
20
140.32630746199754
30
0
11
442.56290113390384
21
139.29526425919951
31
0
0
LINE
5
227
100
AcDbEntity
8
0
100
AcDbLine
10
431.64557308803131
20
149.94755536315603
30
0
11
432.66515380292935
21
149.88358048294708
31
0
0
LINE
5
228
100
AcDbEntity
8
0
100
AcDbLine
10
430.61452988523331
20
149.87739039002716
30
0
11
431.64557308803131
21
149.94755536315603
31
0
0
ARC
5
229
100
AcDbEntity
8
0
100
AcDbCircle
10
440.24446982622834
20
137.16817387751394
30
0
40
3.876662127204114
210
0
220
-0
230
1
100
AcDbArc
50
54.553044157807882
51
101.18923103663457
0
ARC
5
230
100
AcDbEntity
8
0
100
AcDbCircle
10
431.32477831216676
20
138.95485796572322
30
0
40
7.8457671548747197
210
0
220
-0
230
1
100
AcDbArc
50
18.084839564226886
51
28.341997543551095
0
ARC
5
231
100
AcDbEntity
8
0
100
AcDbCircle
10
439.37303706643974
20
136.90776109519194
30
0
40
0.57472339384562676
210
0
220
0
230
1
100
AcDbArc
50
109.18425181264469
51
161.80359744228619
0
ARC
5
232
100
AcDbEntity
8
0
100
AcDbCircle
10
-440.32939837595791
20
139.43362247587928
30
0
40
1.9665114659198006
210
0
220
-0
230
-1
100
AcDbArc
50
252.57816175780096
51
283.54384378416137
0
ARC
5
233
100
AcDbEntity
8
0
100
AcDbCircle
10
439.44536796596316
20
141.70148444298425
30
0
40
0.73183762449262213
210
0
220
0
230
1
100
AcDbArc
50
205.15705540218855
51
273.66928633046149
0
ARC
5
234
100
AcDbEntity
8
0
100
AcDbCircle
10
-439.67822881050716
20
135.95034210963905
30
0
40
5.0845136869323966
210
-0
220
0
230
-1
100
AcDbArc
50
280.7296535516158
51
300.39201150913732
0
LINE
5
235
100
AcDbEntity
8
0
100
AcDbLine
10
439.49780825266379
20
131.63043851346069
30
0
11
438.73161874357106
21
130.95472314761065
31
0
0
ARC
5
236
100
AcDbEntity
8
0
100
AcDbCircle
10
424.18314605153876
20
141.41773048129102
30
0
40
0.57472339384560023
210
-0
220
0
230
1
100
AcDbArc
50
289.18425181265098
51
341.80359744228804
0
ARC
5
237
100
AcDbEntity
8
0
100
AcDbCircle
10
438.74304399797711
20
142.93866829137485
30
0
40
0.57472339384564231
210
0
220
0
230
1
100
AcDbArc
50
154.18425181264911
51
206.80359744228227
0
ARC
5
238
100
AcDbEntity
8
0
100
AcDbCircle
10
424.56134909995751
20
142.78916961041529
30
0
40
0.73183762449258016
210
-0
220
0
230
1
100
AcDbArc
50
-19.8429445978066
51
48.669286330463393
0
ARC
5
239
100
AcDbEntity
8
0
100
AcDbCircle
10
423.31171329175021
20
141.15731769896911
30
0
40
3.8766621272040975
210
0
220
0
230
1
100
AcDbArc
50
234.55304415780768
51
281.18923103663531
0
ARC
5
240
100
AcDbEntity
8
0
100
AcDbCircle
10
424.81313912000155
20
135.38682328510819
30
0
40
0.57472339384564231
210
-0
220
0
230
1
100
AcDbArc
50
-25.815748187355794
51
26.803597442284794
0
CIRCLE
5
241
100
AcDbEntity
8
0
100
AcDbCircle
10
431.77809155898927
20
139.16274578824152
30
0
40
2.9500000000000015
210
-0
220
0
230
1
0
ARC
5
242
100
AcDbEntity
8
0
100
AcDbCircle
10
424.38108275049439
20
134.58648762702603
30
0
40
3.8766621272041086
210
-0
220
0
230
1
100
AcDbArc
50
279.55304415780938
51
302.87113759722229
0
LINE
5
243
100
AcDbEntity
8
0
100
AcDbLine
10
424.24578428420853
20
131.44302909456695
30
0
11
423.57006891835846
21
132.20921860365974
31
0
0
ARC
5
244
100
AcDbEntity
8
0
100
AcDbCircle
10
-423.87795430747144
20
142.37514946684396
30
0
40
5.0845136869323824
210
0
220
0
230
-1
100
AcDbArc
50
100.72965355161708
51
120.39201150913735
0
ARC
5
245
100
AcDbEntity
8
0
100
AcDbCircle
10
423.8931632395059
20
142.15138824185661
30
0
40
1.3633236155969692
210
0
220
0
230
1
100
AcDbArc
50
261.31594449432055
51
290.56260296068069
0
ARC
5
246
100
AcDbEntity
8
0
100
AcDbCircle
10
-428.56568788038686
20
131.26260853672369
30
0
40
5.0845136869323451
210
0
220
0
230
-1
100
AcDbArc
50
10.729653551615812
51
30.392011509136729
0
LINE
5
247
100
AcDbEntity
8
0
100
AcDbLine
10
423.37893135322111
20
145.9163812943263
30
0
11
424.05837486531476
21
146.69505306302227
31
0
0
ARC
5
248
100
AcDbEntity
8
0
100
AcDbCircle
10
424.11081515201545
20
136.62400713349882
30
0
40
0.73183762449256129
210
0
220
-0
230
1
100
AcDbArc
50
25.157055402190462
51
93.669286330461759
0
ARC
5
249
100
AcDbEntity
8
0
100
AcDbCircle
10
424.08931592961949
20
135.70054884985825
30
0
40
1.3633236155969772
210
-0
220
0
230
1
100
AcDbArc
50
306.31594449432265
51
335.56260296067916
0
ARC
5
250
100
AcDbEntity
8
0
100
AcDbCircle
10
432.23140480581185
20
139.37063361075982
30
0
40
7.8457671548747729
210
0
220
0
230
1
100
AcDbArc
50
198.08483956422654
51
208.34199754355112
0
LINE
5
251
100
AcDbEntity
8
0
100
AcDbLine
10
421.06344695720361
20
137.99918411448553
30
0
11
420.99328198407483
21
139.0302273172835
31
0
0
ARC
5
252
100
AcDbEntity
8
0
100
AcDbCircle
10
428.00216905585603
20
146.12769822722927
30
0
40
0.57472339384564231
210
0
220
0
230
1
100
AcDbArc
50
244.18425181263655
51
296.80359744227724
0
LINE
5
253
100
AcDbEntity
8
0
100
AcDbLine
10
424.05837486531476
20
146.69505306302227
30
0
11
424.82456437440754
21
147.37076842887237
31
0
0
ARC
5
254
100
AcDbEntity
8
0
100
AcDbCircle
10
-425.92294326339805
20
132.92452000726226
30
0
40
1.9665114659198981
210
0
220
0
230
-1
100
AcDbArc
50
27.578161757798807
51
58.543843784162007
0
ARC
5
255
100
AcDbEntity
8
0
100
AcDbCircle
10
428.31589462060606
20
146.85152141761131
30
0
40
1.3633236155969772
210
0
220
0
230
1
100
AcDbArc
50
216.31594449432097
51
245.56260296067651
0
ARC
5
256
100
AcDbEntity
8
0
100
AcDbCircle
10
427.20183339777384
20
146.55975459673635
30
0
40
3.8766621272041086
210
0
220
0
230
1
100
AcDbArc
50
189.5530441578083
51
236.18923103663556
0
ARC
5
257
100
AcDbEntity
8
0
100
AcDbCircle
10
432.24563131884798
20
138.98920380644037
30
0
40
7.8457671548747419
210
0
220
0
230
1
100
AcDbArc
50
153.08483956422651
51
163.3419975435512
0
LINE
5
258
100
AcDbEntity
8
0
100
AcDbLine
10
420.99328198407483
20
139.0302273172835
30
0
11
421.05725686428372
21
140.04980803218155
31
0
0
ARC
5
259
100
AcDbEntity
8
0
100
AcDbCircle
10
429.23935290424657
20
146.83002219521532
30
0
40
0.73183762449260059
210
-0
220
0
230
1
100
AcDbArc
50
-64.842944597800397
51
3.6692863304592347
0
LINE
5
260
100
AcDbEntity
8
0
100
AcDbLine
10
425.0244560529045
20
130.76358558247341
30
0
11
424.24578428420853
21
131.44302909456695
31
0
0
ARC
5
261
100
AcDbEntity
8
0
100
AcDbCircle
10
-425.53986577801004
20
145.01789408383277
30
0
40
1.9665114659198093
210
0
220
0
230
-1
100
AcDbArc
50
117.57816175779806
51
148.54384378416202
0
ARC
5
262
100
AcDbEntity
8
0
100
AcDbCircle
10
-423.2267847420207
20
138.89186910060374
30
0
40
1.966511465919774
210
0
220
0
230
-1
100
AcDbArc
50
72.578161757797304
51
103.54384378415958
0
LINE
5
263
100
AcDbEntity
8
0
100
AcDbLine
10
312.36734313724662
20
129.33094426800892
30
0
11
312.36734313724662
21
89.330944268008921
31
0
0
CIRCLE
5
264
100
AcDbEntity
8
0
100
AcDbCircle
10
317.27932167636192
20
91.123644630225215
30
0
40
2.9500000000000037
210
0
220
0
230
1
0
LINE
5
265
100
AcDbEntity
8
0
100
AcDbLine
10
312.36734313724662
20
89.330944268008921
30
0
11
350.07970480052916
21
51.618582604726384
31
0
0
LINE
5
266
100
AcDbEntity
8
0
100
AcDbLine
10
322.49064313538861
20
89.490044267363118
30
0
11
353.13193698680561
21
58.848750415946071
31
0
0
LINE
5
267
100
AcDbEntity
8
0
100
AcDbLine
10
353.13193698680561
20
58.848750415946071
30
0
11
350.07970480052916
21
51.618582604726384
31
0
0
LINE
5
268
100
AcDbEntity
8
0
100
AcDbLine
10
322.46487539525623
20
129.44247491901092
30
0
11
322.49064313538861
21
89.490044267363118
31
0
0
LINE
5
269
100
AcDbEntity
8
0
100
AcDbLine
10
426.48514665442292
20
131.33050477438633
30
0
11
426.48514665442292
21
91.330504774386299
31
0
0
LINE
5
270
100
AcDbEntity
8
0
100
AcDbLine
10
437.10590468095802
20
91.38804730352399
30
0
11
467.64823448452267
21
60.8457174999592
31
0
0
LINE
5
271
100
AcDbEntity
8
0
100
AcDbLine
10
426.48514665442292
20
91.330504774386299
30
0
11
464.1957225592306
21
53.616357437184291
31
0
0
LINE
5
272
100
AcDbEntity
8
0
100
AcDbLine
10
467.64823448452267
20
60.8457174999592
30
0
11
464.1957225592306
21
53.616357437184291
31
0
0
CIRCLE
5
273
100
AcDbEntity
8
0
100
AcDbCircle
10
431.79561917407909
20
93.12061171423835
30
0
40
2.9500000000000037
210
-0
220
0
230
1
0
LINE
5
274
100
AcDbEntity
8
0
100
AcDbLine
10
437.10590468095796
20
131.5645208632655
30
0
11
437.10590468095802
21
91.38804730352399
31
0
0
ARC
5
275
100
AcDbEntity
8
0
100
AcDbCircle
10
95.595780959920347
20
153.53418651813422
30
0
40
5.449999999999986
210
0
220
0
230
1
100
AcDbArc
50
-132.78185886546495
51
132.78185886312178
0
ENDSEC
0
SECTION
2
OBJECTS
0
DICTIONARY
5
C
100
AcDbDictionary
3
ACAD_GROUP
350
D
3
ACAD_MLINESTYLE
350
17
0
DICTIONARY
5
D
100
AcDbDictionary
0
DICTIONARY
5
1A
330
C
100
AcDbDictionary
0
DICTIONARY
5
17
100
AcDbDictionary
0
ENDSEC
0
EOF
