0
SECTION
2
HEADER
9
$INSUNITS
70
4
9
$ACADVER
1
AC1014
9
$HANDSEED
5
FFFF
0
ENDSEC
0
SECTION
2
TABLES
0
TABLE
2
VPORT
5
8
100
AcDbSymbolTable
0
ENDTAB
0
TABLE
2
LTYPE
5
5
100
AcDbSymbolTable
0
LTYPE
5
14
100
AcDbSymbolTableRecord
100
AcDbLinetypeTableRecord
2
BYBLOCK
70
0
0
LTYPE
5
15
100
AcDbSymbolTableRecord
100
AcDbLinetypeTableRecord
2
BYLAYER
70
0
0
ENDTAB
0
TABLE
2
LAYER
5
2
100
AcDbSymbolTable
70
2
0
LAYER
5
50
100
AcDbSymbolTableRecord
100
AcDbLayerTableRecord
2
0
70
0
6
CONTINUOUS
0
ENDTAB
0
TABLE
2
STYLE
5
3
100
AcDbSymbolTable
70
1
0
STYLE
5
11
100
AcDbSymbolTableRecord
100
AcDbTextStyleTableRecord
2
STANDARD
70
0
0
ENDTAB
0
TABLE
2
VIEW
5
6
100
AcDbSymbolTable
70
0
0
ENDTAB
0
TABLE
2
UCS
5
7
100
AcDbSymbolTable
70
0
0
ENDTAB
0
TABLE
2
APPID
5
9
100
AcDbSymbolTable
70
2
0
APPID
5
12
100
AcDbSymbolTableRecord
100
AcDbRegAppTableRecord
2
ACAD
70
0
0
ENDTAB
0
TABLE
2
DIMSTYLE
5
A
100
AcDbSymbolTable
70
1
0
ENDTAB
0
TABLE
2
BLOCK_RECORD
5
1
100
AcDbSymbolTable
70
1
0
BLOCK_RECORD
5
1F
100
AcDbSymbolTableRecord
100
AcDbBlockTableRecord
2
*MODEL_SPACE
0
BLOCK_RECORD
5
1B
100
AcDbSymbolTableRecord
100
AcDbBlockTableRecord
2
*PAPER_SPACE
0
ENDTAB
0
ENDSEC
0
SECTION
2
BLOCKS
0
BLOCK
5
20
100
AcDbEntity
100
AcDbBlockBegin
2
*MODEL_SPACE
0
ENDBLK
5
21
100
AcDbEntity
100
AcDbBlockEnd
0
BLOCK
5
1C
100
AcDbEntity
100
AcDbBlockBegin
2
*PAPER_SPACE
0
ENDBLK
5
1D
100
AcDbEntity
100
AcDbBlockEnd
0
ENDSEC
0
SECTION
2
ENTITIES
0
LINE
5
100
100
AcDbEntity
8
0
100
AcDbLine
10
5.4120634920635933
20
-1249.972
30
0
11
33.412063492063602
21
-1249.972
31
0
0
LINE
5
101
100
AcDbEntity
8
0
100
AcDbLine
10
5.412063492063595
20
-1399.972
30
0
11
5.4120634920635959
21
-1449.972
31
0
0
LINE
5
102
100
AcDbEntity
8
0
100
AcDbLine
10
2.5120634920635947
20
-1299.972
30
0
11
5.4120634920636128
21
-1299.972
31
0
0
LINE
5
103
100
AcDbEntity
8
0
100
AcDbLine
10
15.412063492063595
20
-1249.972
30
0
11
27.012063492063596
21
-1249.972
31
0
0
LINE
5
104
100
AcDbEntity
8
0
100
AcDbLine
10
193.4120634920636
20
-1349.972
30
0
11
193.4120634920636
21
-1249.972
31
0
0
LINE
5
105
100
AcDbEntity
8
0
100
AcDbLine
10
2.5120634920635871
20
-1399.972
30
0
11
5.412063492063595
21
-1399.972
31
0
0
LINE
5
106
100
AcDbEntity
8
0
100
AcDbLine
10
0.41206349206359383
20
-1449.972
30
0
11
5.4120634920635959
21
-1449.972
31
0
0
LINE
5
107
100
AcDbEntity
8
0
100
AcDbLine
10
15.412063492063609
20
-1349.972
30
0
11
15.412063492063595
21
-1249.972
31
0
0
LINE
5
108
100
AcDbEntity
8
0
100
AcDbLine
10
1146.4170491803279
20
-1449.9760000000001
30
0
11
740.41704918032792
21
-1449.9760000000001
31
0
0
LINE
5
109
100
AcDbEntity
8
0
100
AcDbLine
10
27.012063492063596
20
-1249.972
30
0
11
27.012063492063604
21
-1349.972
31
0
0
LINE
5
110
100
AcDbEntity
8
0
100
AcDbLine
10
740.41704918032781
20
-1249.9759999999999
30
0
11
1146.4170491803279
21
-1249.9759999999999
31
0
0
LINE
5
111
100
AcDbEntity
8
0
100
AcDbLine
10
5.4120634920635933
20
-1249.972
30
0
11
15.412063492063595
21
-1249.972
31
0
0
LINE
5
112
100
AcDbEntity
8
0
100
AcDbLine
10
193.4120634920636
20
-1249.972
30
0
11
196.3120634920636
21
-1249.972
31
0
0
LINE
5
113
100
AcDbEntity
8
0
100
AcDbLine
10
33.412063492063602
20
-1249.972
30
0
11
193.4120634920636
21
-1249.972
31
0
0
LINE
5
114
100
AcDbEntity
8
0
100
AcDbLine
10
2.5120634920635956
20
-1449.972
30
0
11
2.5120634920635871
21
-1399.972
31
0
0
LINE
5
115
100
AcDbEntity
8
0
100
AcDbLine
10
5.4120634920636128
20
-1299.972
30
0
11
5.4120634920635933
21
-1249.972
31
0
0
LINE
5
116
100
AcDbEntity
8
0
100
AcDbLine
10
2.5120634920635956
20
-1249.972
30
0
11
2.5120634920635947
21
-1299.972
31
0
0
LINE
5
117
100
AcDbEntity
8
0
100
AcDbLine
10
5.4120634920635933
20
-1249.972
30
0
11
2.5120634920635956
21
-1249.972
31
0
0
LINE
5
118
100
AcDbEntity
8
0
100
AcDbLine
10
27.012063492063604
20
-1349.972
30
0
11
15.412063492063609
21
-1349.972
31
0
0
LINE
5
119
100
AcDbEntity
8
0
100
AcDbLine
10
196.31206349206354
20
-1349.972
30
0
11
193.4120634920636
21
-1349.972
31
0
0
LINE
5
120
100
AcDbEntity
8
0
100
AcDbLine
10
196.3120634920636
20
-1249.972
30
0
11
196.31206349206354
21
-1349.972
31
0
0
LINE
5
121
100
AcDbEntity
8
0
100
AcDbLine
10
5.4120634920635959
20
-1449.972
30
0
11
2.5120634920635956
21
-1449.972
31
0
0
LINE
5
122
100
AcDbEntity
8
0
100
AcDbLine
10
0.41206349206359377
20
-1249.972
30
0
11
5.4120634920635933
21
-1249.972
31
0
0
LINE
5
123
100
AcDbEntity
8
0
100
AcDbLine
10
0.41206349206359383
20
-1449.972
30
0
11
0.41206349206359377
21
-1249.972
31
0
0
LINE
5
124
100
AcDbEntity
8
0
100
AcDbLine
10
404.31206349206366
20
-1449.972
30
0
11
404.31206349206354
21
-1399.972
31
0
0
LINE
5
125
100
AcDbEntity
8
0
100
AcDbLine
10
404.31206349206366
20
-1249.972
30
0
11
404.31206349206354
21
-1299.972
31
0
0
LINE
5
126
100
AcDbEntity
8
0
100
AcDbLine
10
379.81206349206366
20
-1249.972
30
0
11
379.81206349206366
21
-1349.972
31
0
0
LINE
5
127
100
AcDbEntity
8
0
100
AcDbLine
10
401.41206349206362
20
-1299.972
30
0
11
401.41206349206362
21
-1249.972
31
0
0
LINE
5
128
100
AcDbEntity
8
0
100
AcDbLine
10
404.31206349206354
20
-1299.972
30
0
11
401.41206349206362
21
-1299.972
31
0
0
LINE
5
129
100
AcDbEntity
8
0
100
AcDbLine
10
379.81206349206366
20
-1349.972
30
0
11
391.41206349206362
21
-1349.972
31
0
0
LINE
5
130
100
AcDbEntity
8
0
100
AcDbLine
10
401.41206349206362
20
-1249.972
30
0
11
391.41206349206362
21
-1249.972
31
0
0
LINE
5
131
100
AcDbEntity
8
0
100
AcDbLine
10
406.41206349206362
20
-1249.972
30
0
11
401.41206349206362
21
-1249.972
31
0
0
LINE
5
132
100
AcDbEntity
8
0
100
AcDbLine
10
404.31206349206354
20
-1399.972
30
0
11
401.41206349206362
21
-1399.972
31
0
0
LINE
5
133
100
AcDbEntity
8
0
100
AcDbLine
10
401.41206349206362
20
-1449.972
30
0
11
404.31206349206366
21
-1449.972
31
0
0
LINE
5
134
100
AcDbEntity
8
0
100
AcDbLine
10
406.41206349206362
20
-1449.972
30
0
11
401.41206349206362
21
-1449.972
31
0
0
LINE
5
135
100
AcDbEntity
8
0
100
AcDbLine
10
406.41206349206362
20
-1249.972
30
0
11
406.41206349206362
21
-1449.972
31
0
0
LINE
5
136
100
AcDbEntity
8
0
100
AcDbLine
10
401.41206349206362
20
-1399.972
30
0
11
401.41206349206362
21
-1449.972
31
0
0
LINE
5
137
100
AcDbEntity
8
0
100
AcDbLine
10
401.41206349206362
20
-1249.972
30
0
11
404.31206349206366
21
-1249.972
31
0
0
LINE
5
138
100
AcDbEntity
8
0
100
AcDbLine
10
391.41206349206362
20
-1349.972
30
0
11
391.41206349206362
21
-1249.972
31
0
0
LINE
5
139
100
AcDbEntity
8
0
100
AcDbLine
10
391.41206349206362
20
-1249.972
30
0
11
379.81206349206366
21
-1249.972
31
0
0
LINE
5
140
100
AcDbEntity
8
0
100
AcDbLine
10
406.41206349206362
20
-1449.972
30
0
11
0.41206349206359383
21
-1449.972
31
0
0
LINE
5
141
100
AcDbEntity
8
0
100
AcDbLine
10
0.41206349206359377
20
-1249.972
30
0
11
406.41206349206362
21
-1249.972
31
0
0
LINE
5
142
100
AcDbEntity
8
0
100
AcDbLine
10
188.33606060606073
20
-1649.9606060606061
30
0
11
191.23606060606073
21
-1649.9606060606061
31
0
0
LINE
5
143
100
AcDbEntity
8
0
100
AcDbLine
10
28.33606060606073
20
-1649.9606060606061
30
0
11
188.33606060606073
21
-1649.9606060606061
31
0
0
LINE
5
144
100
AcDbEntity
8
0
100
AcDbLine
10
10.33606060606073
20
-1649.9606060606061
30
0
11
21.936060606060728
21
-1649.9606060606061
31
0
0
LINE
5
145
100
AcDbEntity
8
0
100
AcDbLine
10
0.33606060606073068
20
-1649.9606060606061
30
0
11
10.33606060606073
21
-1649.9606060606061
31
0
0
LINE
5
146
100
AcDbEntity
8
0
100
AcDbLine
10
188.3360606060607
20
-1749.9606060606061
30
0
11
188.33606060606073
21
-1649.9606060606061
31
0
0
LINE
5
147
100
AcDbEntity
8
0
100
AcDbLine
10
191.23606060606073
20
-1649.9606060606061
30
0
11
191.23606060606065
21
-1749.9606060606061
31
0
0
LINE
5
148
100
AcDbEntity
8
0
100
AcDbLine
10
21.936060606060728
20
-1649.9606060606061
30
0
11
21.936060606060739
21
-1749.9606060606061
31
0
0
LINE
5
149
100
AcDbEntity
8
0
100
AcDbLine
10
386.3360606060607
20
-1749.9606060606061
30
0
11
386.3360606060607
21
-1649.9606060606061
31
0
0
LINE
5
150
100
AcDbEntity
8
0
100
AcDbLine
10
374.73606060606073
20
-1649.9606060606061
30
0
11
374.73606060606073
21
-1749.9606060606061
31
0
0
LINE
5
151
100
AcDbEntity
8
0
100
AcDbLine
10
396.3360606060607
20
-1649.9606060606061
30
0
11
386.3360606060607
21
-1649.9606060606061
31
0
0
LINE
5
152
100
AcDbEntity
8
0
100
AcDbLine
10
396.33606060606064
20
-1849.9606060606061
30
0
11
0.3360606060606352
21
-1849.9606060606061
31
0
0
LINE
5
153
100
AcDbEntity
8
0
100
AcDbLine
10
0.33606060606073068
20
-1649.9606060606061
30
0
11
396.3360606060607
21
-1649.9606060606061
31
0
0
LINE
5
154
100
AcDbEntity
8
0
100
AcDbLine
10
386.3360606060607
20
-1649.9606060606061
30
0
11
374.73606060606073
21
-1649.9606060606061
31
0
0
LINE
5
155
100
AcDbEntity
8
0
100
AcDbLine
10
0.3360606060606352
20
-1849.9606060606061
30
0
11
0.33606060606073068
21
-1649.9606060606061
31
0
0
LINE
5
156
100
AcDbEntity
8
0
100
AcDbLine
10
396.3360606060607
20
-1649.9606060606061
30
0
11
396.33606060606064
21
-1849.9606060606061
31
0
0
LINE
5
157
100
AcDbEntity
8
0
100
AcDbLine
10
191.23606060606065
20
-1749.9606060606061
30
0
11
188.3360606060607
21
-1749.9606060606061
31
0
0
LINE
5
158
100
AcDbEntity
8
0
100
AcDbLine
10
0.33606060606073068
20
-1649.9606060606061
30
0
11
28.33606060606073
21
-1649.9606060606061
31
0
0
LINE
5
159
100
AcDbEntity
8
0
100
AcDbLine
10
10.33606060606073
20
-1749.9606060606061
30
0
11
10.33606060606073
21
-1649.9606060606061
31
0
0
LINE
5
160
100
AcDbEntity
8
0
100
AcDbLine
10
21.936060606060739
20
-1749.9606060606061
30
0
11
10.33606060606073
21
-1749.9606060606061
31
0
0
LINE
5
161
100
AcDbEntity
8
0
100
AcDbLine
10
374.73606060606073
20
-1749.9606060606061
30
0
11
386.3360606060607
21
-1749.9606060606061
31
0
0
LINE
5
162
100
AcDbEntity
8
0
100
AcDbLine
10
750.31363636363699
20
-1849.9566666666667
30
0
11
750.31363636363631
21
-1649.9566666666667
31
0
0
LINE
5
163
100
AcDbEntity
8
0
100
AcDbLine
10
750.31363636363631
20
-1649.9566666666667
30
0
11
760.31363636363631
21
-1649.9566666666667
31
0
0
LINE
5
164
100
AcDbEntity
8
0
100
AcDbLine
10
771.91363636363633
20
-1649.9566666666667
30
0
11
771.91363636363633
21
-1749.9566666666667
31
0
0
LINE
5
165
100
AcDbEntity
8
0
100
AcDbLine
10
740.41704918032792
20
-1449.9760000000001
30
0
11
740.41704918032781
21
-1249.9759999999999
31
0
0
LINE
5
166
100
AcDbEntity
8
0
100
AcDbLine
10
740.41704918032781
20
-1249.9759999999999
30
0
11
745.41704918032781
21
-1249.9759999999999
31
0
0
LINE
5
167
100
AcDbEntity
8
0
100
AcDbLine
10
755.41704918032781
20
-1249.9759999999999
30
0
11
767.01704918032772
21
-1249.9759999999999
31
0
0
LINE
5
168
100
AcDbEntity
8
0
100
AcDbLine
10
742.51704918032783
20
-1399.9760000000001
30
0
11
745.41704918032792
21
-1399.9760000000001
31
0
0
LINE
5
169
100
AcDbEntity
8
0
100
AcDbLine
10
760.31363636363631
20
-1749.9566666666667
30
0
11
760.31363636363631
21
-1649.9566666666667
31
0
0
LINE
5
170
100
AcDbEntity
8
0
100
AcDbLine
10
767.01704918032772
20
-1249.9759999999999
30
0
11
767.01704918032772
21
-1349.9760000000001
31
0
0
LINE
5
171
100
AcDbEntity
8
0
100
AcDbLine
10
767.01704918032772
20
-1349.9760000000001
30
0
11
755.41704918032792
21
-1349.9760000000001
31
0
0
LINE
5
172
100
AcDbEntity
8
0
100
AcDbLine
10
755.41704918032792
20
-1349.9760000000001
30
0
11
755.41704918032781
21
-1249.9759999999999
31
0
0
LINE
5
173
100
AcDbEntity
8
0
100
AcDbLine
10
742.51704918032772
20
-1249.9759999999999
30
0
11
742.51704918032783
21
-1299.9760000000001
31
0
0
LINE
5
174
100
AcDbEntity
8
0
100
AcDbLine
10
771.91363636363633
20
-1749.9566666666667
30
0
11
760.31363636363631
21
-1749.9566666666667
31
0
0
LINE
5
175
100
AcDbEntity
8
0
100
AcDbLine
10
760.31363636363631
20
-1649.9566666666667
30
0
11
771.91363636363633
21
-1649.9566666666667
31
0
0
LINE
5
176
100
AcDbEntity
8
0
100
AcDbLine
10
745.41704918032781
20
-1249.9759999999999
30
0
11
778.41704918032769
21
-1249.9759999999999
31
0
0
LINE
5
177
100
AcDbEntity
8
0
100
AcDbLine
10
745.41704918032781
20
-1249.9759999999999
30
0
11
755.41704918032781
21
-1249.9759999999999
31
0
0
LINE
5
178
100
AcDbEntity
8
0
100
AcDbLine
10
740.41704918032792
20
-1449.9760000000001
30
0
11
745.41704918032792
21
-1449.9760000000001
31
0
0
LINE
5
179
100
AcDbEntity
8
0
100
AcDbLine
10
745.41704918032792
20
-1399.9760000000001
30
0
11
745.41704918032792
21
-1449.9760000000001
31
0
0
LINE
5
180
100
AcDbEntity
8
0
100
AcDbLine
10
742.51704918032783
20
-1299.9760000000001
30
0
11
745.41704918032781
21
-1299.9760000000001
31
0
0
LINE
5
181
100
AcDbEntity
8
0
100
AcDbLine
10
742.51704918032783
20
-1449.9760000000001
30
0
11
742.51704918032783
21
-1399.9760000000001
31
0
0
LINE
5
182
100
AcDbEntity
8
0
100
AcDbLine
10
745.41704918032781
20
-1299.9760000000001
30
0
11
745.41704918032781
21
-1249.9759999999999
31
0
0
LINE
5
183
100
AcDbEntity
8
0
100
AcDbLine
10
745.41704918032792
20
-1449.9760000000001
30
0
11
742.51704918032783
21
-1449.9760000000001
31
0
0
LINE
5
184
100
AcDbEntity
8
0
100
AcDbLine
10
745.41704918032781
20
-1249.9759999999999
30
0
11
742.51704918032772
21
-1249.9759999999999
31
0
0
LINE
5
185
100
AcDbEntity
8
0
100
AcDbLine
10
-348.66810126582271
20
-1249.9855555555555
30
0
11
-345.76810126582274
21
-1249.9855555555555
31
0
0
LINE
5
186
100
AcDbEntity
8
0
100
AcDbLine
10
-348.66810126582271
20
-1449.9855555555555
30
0
11
-345.76810126582274
21
-1449.9855555555555
31
0
0
LINE
5
187
100
AcDbEntity
8
0
100
AcDbLine
10
-370.26810126582268
20
-1349.9855555555555
30
0
11
-358.66810126582271
21
-1349.9855555555555
31
0
0
LINE
5
188
100
AcDbEntity
8
0
100
AcDbLine
10
-358.66810126582271
20
-1349.9855555555555
30
0
11
-358.66810126582271
21
-1249.9855555555555
31
0
0
LINE
5
189
100
AcDbEntity
8
0
100
AcDbLine
10
-348.66810126582271
20
-1399.9855555555555
30
0
11
-348.66810126582271
21
-1449.9855555555555
31
0
0
LINE
5
190
100
AcDbEntity
8
0
100
AcDbLine
10
-343.66810126582271
20
-1249.9855555555555
30
0
11
-348.66810126582271
21
-1249.9855555555555
31
0
0
LINE
5
191
100
AcDbEntity
8
0
100
AcDbLine
10
-370.26810126582268
20
-1249.9855555555555
30
0
11
-370.26810126582268
21
-1349.9855555555555
31
0
0
LINE
5
192
100
AcDbEntity
8
0
100
AcDbLine
10
-348.66810126582271
20
-1249.9855555555555
30
0
11
-358.66810126582271
21
-1249.9855555555555
31
0
0
LINE
5
193
100
AcDbEntity
8
0
100
AcDbLine
10
-345.76810126582274
20
-1249.9855555555555
30
0
11
-345.76810126582279
21
-1299.9855555555555
31
0
0
LINE
5
194
100
AcDbEntity
8
0
100
AcDbLine
10
-348.66810126582266
20
-1299.9855555555555
30
0
11
-348.66810126582271
21
-1249.9855555555555
31
0
0
LINE
5
195
100
AcDbEntity
8
0
100
AcDbLine
10
-345.76810126582274
20
-1449.9855555555555
30
0
11
-345.76810126582279
21
-1399.9855555555555
31
0
0
LINE
5
196
100
AcDbEntity
8
0
100
AcDbLine
10
-345.76810126582279
20
-1299.9855555555555
30
0
11
-348.66810126582266
21
-1299.9855555555555
31
0
0
LINE
5
197
100
AcDbEntity
8
0
100
AcDbLine
10
-345.76810126582279
20
-1399.9855555555555
30
0
11
-348.66810126582271
21
-1399.9855555555555
31
0
0
LINE
5
198
100
AcDbEntity
8
0
100
AcDbLine
10
-358.66810126582271
20
-1249.9855555555555
30
0
11
-370.26810126582268
21
-1249.9855555555555
31
0
0
LINE
5
199
100
AcDbEntity
8
0
100
AcDbLine
10
-406.66810126582271
20
-1324.9855555555555
30
0
11
-406.66810126582271
21
-1399.9855555555555
31
0
0
LINE
5
200
100
AcDbEntity
8
0
100
AcDbLine
10
-343.66810126582271
20
-1449.9855555555555
30
0
11
-348.66810126582271
21
-1449.9855555555555
31
0
0
LINE
5
201
100
AcDbEntity
8
0
100
AcDbLine
10
-343.66810126582271
20
-1249.9855555555555
30
0
11
-343.66810126582271
21
-1449.9855555555555
31
0
0
LINE
5
202
100
AcDbEntity
8
0
100
AcDbLine
10
-506.66810126582271
20
-1249.9855555555555
30
0
11
-506.66810126582271
21
-1324.9855555555555
31
0
0
LINE
5
203
100
AcDbEntity
8
0
100
AcDbLine
10
-566.66810126582266
20
-1399.9855555555555
30
0
11
-716.66810126582266
21
-1399.9855555555555
31
0
0
LINE
5
204
100
AcDbEntity
8
0
100
AcDbLine
10
-747.56810126582263
20
-1449.9855555555555
30
0
11
-747.56810126582263
21
-1399.9855555555555
31
0
0
LINE
5
205
100
AcDbEntity
8
0
100
AcDbLine
10
-747.56810126582263
20
-1399.9855555555555
30
0
11
-744.66810126582254
21
-1399.9855555555555
31
0
0
LINE
5
206
100
AcDbEntity
8
0
100
AcDbLine
10
-744.66810126582254
20
-1249.9855555555555
30
0
11
-734.66810126582254
21
-1249.9855555555555
31
0
0
LINE
5
207
100
AcDbEntity
8
0
100
AcDbLine
10
-744.66810126582254
20
-1249.9855555555555
30
0
11
-747.56810126582263
21
-1249.9855555555555
31
0
0
LINE
5
208
100
AcDbEntity
8
0
100
AcDbLine
10
-723.06810126582263
20
-1249.9855555555555
30
0
11
-723.06810126582263
21
-1349.9855555555555
31
0
0
LINE
5
209
100
AcDbEntity
8
0
100
AcDbLine
10
-556.66810126582266
20
-1249.9855555555555
30
0
11
-506.66810126582271
21
-1249.9855555555555
31
0
0
LINE
5
210
100
AcDbEntity
8
0
100
AcDbLine
10
-716.66810126582266
20
-1399.9855555555555
30
0
11
-716.66810126582266
21
-1249.9855555555555
31
0
0
LINE
5
211
100
AcDbEntity
8
0
100
AcDbLine
10
-566.66810126582266
20
-1249.9855555555555
30
0
11
-566.66810126582266
21
-1399.9855555555555
31
0
0
LINE
5
212
100
AcDbEntity
8
0
100
AcDbLine
10
-553.76810126582268
20
-1249.9855555555555
30
0
11
-553.76810126582268
21
-1349.9855555555555
31
0
0
LINE
5
213
100
AcDbEntity
8
0
100
AcDbLine
10
-749.66810126582254
20
-1449.9855555555555
30
0
11
-744.66810126582254
21
-1449.9855555555555
31
0
0
LINE
5
214
100
AcDbEntity
8
0
100
AcDbLine
10
-723.06810126582263
20
-1349.9855555555555
30
0
11
-734.66810126582254
21
-1349.9855555555555
31
0
0
LINE
5
215
100
AcDbEntity
8
0
100
AcDbLine
10
-747.56810126582263
20
-1249.9855555555555
30
0
11
-747.56810126582263
21
-1299.9855555555555
31
0
0
LINE
5
216
100
AcDbEntity
8
0
100
AcDbLine
10
-744.66810126582254
20
-1249.9855555555555
30
0
11
-716.66810126582266
21
-1249.9855555555555
31
0
0
LINE
5
217
100
AcDbEntity
8
0
100
AcDbLine
10
-716.66810126582266
20
-1249.9855555555555
30
0
11
-566.66810126582266
21
-1249.9855555555555
31
0
0
LINE
5
218
100
AcDbEntity
8
0
100
AcDbLine
10
-556.66810126582266
20
-1249.9855555555555
30
0
11
-553.76810126582268
21
-1249.9855555555555
31
0
0
LINE
5
219
100
AcDbEntity
8
0
100
AcDbLine
10
-744.66810126582254
20
-1449.9855555555555
30
0
11
-747.56810126582263
21
-1449.9855555555555
31
0
0
LINE
5
220
100
AcDbEntity
8
0
100
AcDbLine
10
-744.66810126582254
20
-1399.9855555555555
30
0
11
-744.66810126582254
21
-1449.9855555555555
31
0
0
LINE
5
221
100
AcDbEntity
8
0
100
AcDbLine
10
-747.56810126582263
20
-1299.9855555555555
30
0
11
-744.66810126582254
21
-1299.9855555555555
31
0
0
LINE
5
222
100
AcDbEntity
8
0
100
AcDbLine
10
-744.66810126582254
20
-1299.9855555555555
30
0
11
-744.66810126582254
21
-1249.9855555555555
31
0
0
LINE
5
223
100
AcDbEntity
8
0
100
AcDbLine
10
-734.66810126582254
20
-1249.9855555555555
30
0
11
-723.06810126582263
21
-1249.9855555555555
31
0
0
LINE
5
224
100
AcDbEntity
8
0
100
AcDbLine
10
-553.76810126582268
20
-1349.9855555555555
30
0
11
-556.66810126582266
21
-1349.9855555555555
31
0
0
LINE
5
225
100
AcDbEntity
8
0
100
AcDbLine
10
-556.66810126582266
20
-1349.9855555555555
30
0
11
-556.66810126582266
21
-1249.9855555555555
31
0
0
LINE
5
226
100
AcDbEntity
8
0
100
AcDbLine
10
-506.66810126582271
20
-1399.9855555555555
30
0
11
-506.66810126582271
21
-1324.9855555555555
31
0
0
LINE
5
227
100
AcDbEntity
8
0
100
AcDbLine
10
-749.66810126582254
20
-1449.9855555555555
30
0
11
-749.66810126582254
21
-1249.9855555555555
31
0
0
LINE
5
228
100
AcDbEntity
8
0
100
AcDbLine
10
-716.66810126582266
20
-1249.9855555555555
30
0
11
-556.66810126582266
21
-1249.9855555555555
31
0
0
LINE
5
229
100
AcDbEntity
8
0
100
AcDbLine
10
-734.66810126582254
20
-1349.9855555555555
30
0
11
-734.66810126582254
21
-1249.9855555555555
31
0
0
LINE
5
230
100
AcDbEntity
8
0
100
AcDbLine
10
-749.66810126582254
20
-1249.9855555555555
30
0
11
-744.66810126582254
21
-1249.9855555555555
31
0
0
LINE
5
231
100
AcDbEntity
8
0
100
AcDbLine
10
-406.66810126582271
20
-1399.9855555555555
30
0
11
-506.66810126582271
21
-1399.9855555555555
31
0
0
LINE
5
232
100
AcDbEntity
8
0
100
AcDbLine
10
-343.66810126582271
20
-1449.9855555555555
30
0
11
-749.66810126582254
21
-1449.9855555555555
31
0
0
LINE
5
233
100
AcDbEntity
8
0
100
AcDbLine
10
-506.66810126582271
20
-1324.9855555555555
30
0
11
-406.66810126582271
21
-1324.9855555555555
31
0
0
LINE
5
234
100
AcDbEntity
8
0
100
AcDbLine
10
-749.66810126582254
20
-1249.9855555555555
30
0
11
-343.66810126582271
21
-1249.9855555555555
31
0
0
LINE
5
235
100
AcDbEntity
8
0
100
AcDbLine
10
943.31363636363631
20
-1749.9566666666667
30
0
11
943.31363636363631
21
-1649.9566666666667
31
0
0
LINE
5
236
100
AcDbEntity
8
0
100
AcDbLine
10
946.2136363636364
20
-1749.9566666666667
30
0
11
943.31363636363631
21
-1749.9566666666667
31
0
0
LINE
5
237
100
AcDbEntity
8
0
100
AcDbLine
10
1124.7136363636364
20
-1649.9566666666667
30
0
11
1124.7136363636364
21
-1749.9566666666667
31
0
0
LINE
5
238
100
AcDbEntity
8
0
100
AcDbLine
10
938.41704918032769
20
-1349.9760000000001
30
0
11
938.41704918032769
21
-1249.9759999999999
31
0
0
LINE
5
239
100
AcDbEntity
8
0
100
AcDbLine
10
1119.817049180328
20
-1249.9759999999999
30
0
11
1119.817049180328
21
-1349.9760000000001
31
0
0
LINE
5
240
100
AcDbEntity
8
0
100
AcDbLine
10
1146.4170491803279
20
-1249.9759999999999
30
0
11
1141.4170491803279
21
-1249.9759999999999
31
0
0
LINE
5
241
100
AcDbEntity
8
0
100
AcDbLine
10
1146.4170491803279
20
-1449.9760000000001
30
0
11
1141.4170491803279
21
-1449.9760000000001
31
0
0
LINE
5
242
100
AcDbEntity
8
0
100
AcDbLine
10
1141.4170491803279
20
-1449.9760000000001
30
0
11
1144.317049180328
21
-1449.9760000000001
31
0
0
LINE
5
243
100
AcDbEntity
8
0
100
AcDbLine
10
1141.4170491803279
20
-1249.9759999999999
30
0
11
1144.317049180328
21
-1249.9759999999999
31
0
0
LINE
5
244
100
AcDbEntity
8
0
100
AcDbLine
10
1144.317049180328
20
-1249.9759999999999
30
0
11
1144.317049180328
21
-1299.9760000000001
31
0
0
LINE
5
245
100
AcDbEntity
8
0
100
AcDbLine
10
1144.317049180328
20
-1299.9760000000001
30
0
11
1141.4170491803279
21
-1299.9760000000001
31
0
0
LINE
5
246
100
AcDbEntity
8
0
100
AcDbLine
10
943.31363636363631
20
-1649.9566666666667
30
0
11
946.2136363636364
21
-1649.9566666666667
31
0
0
LINE
5
247
100
AcDbEntity
8
0
100
AcDbLine
10
783.31363636363631
20
-1649.9566666666667
30
0
11
943.31363636363631
21
-1649.9566666666667
31
0
0
LINE
5
248
100
AcDbEntity
8
0
100
AcDbLine
10
1136.3136363636363
20
-1649.9566666666667
30
0
11
1124.7136363636364
21
-1649.9566666666667
31
0
0
LINE
5
249
100
AcDbEntity
8
0
100
AcDbLine
10
1141.4170491803279
20
-1299.9760000000001
30
0
11
1141.4170491803279
21
-1249.9759999999999
31
0
0
LINE
5
250
100
AcDbEntity
8
0
100
AcDbLine
10
1141.4170491803279
20
-1399.9760000000001
30
0
11
1141.4170491803279
21
-1449.9760000000001
31
0
0
LINE
5
251
100
AcDbEntity
8
0
100
AcDbLine
10
941.31704918032779
20
-1349.9760000000001
30
0
11
938.41704918032769
21
-1349.9760000000001
31
0
0
LINE
5
252
100
AcDbEntity
8
0
100
AcDbLine
10
941.31704918032779
20
-1249.9759999999999
30
0
11
941.31704918032779
21
-1349.9760000000001
31
0
0
LINE
5
253
100
AcDbEntity
8
0
100
AcDbLine
10
938.41704918032769
20
-1249.9759999999999
30
0
11
941.31704918032779
21
-1249.9759999999999
31
0
0
LINE
5
254
100
AcDbEntity
8
0
100
AcDbLine
10
1131.4170491803279
20
-1249.9759999999999
30
0
11
1119.817049180328
21
-1249.9759999999999
31
0
0
LINE
5
255
100
AcDbEntity
8
0
100
AcDbLine
10
1144.317049180328
20
-1449.9760000000001
30
0
11
1144.317049180328
21
-1399.9760000000001
31
0
0
LINE
5
256
100
AcDbEntity
8
0
100
AcDbLine
10
1144.317049180328
20
-1399.9760000000001
30
0
11
1141.4170491803279
21
-1399.9760000000001
31
0
0
LINE
5
257
100
AcDbEntity
8
0
100
AcDbLine
10
1146.4170491803279
20
-1249.9759999999999
30
0
11
1146.4170491803279
21
-1449.9760000000001
31
0
0
LINE
5
258
100
AcDbEntity
8
0
100
AcDbLine
10
946.2136363636364
20
-1649.9566666666667
30
0
11
946.2136363636364
21
-1749.9566666666667
31
0
0
LINE
5
259
100
AcDbEntity
8
0
100
AcDbLine
10
1136.3136363636363
20
-1749.9566666666667
30
0
11
1136.3136363636363
21
-1649.9566666666667
31
0
0
LINE
5
260
100
AcDbEntity
8
0
100
AcDbLine
10
1146.3136363636363
20
-1649.9566666666667
30
0
11
1136.3136363636363
21
-1649.9566666666667
31
0
0
LINE
5
261
100
AcDbEntity
8
0
100
AcDbLine
10
1146.3136363636363
20
-1649.9566666666667
30
0
11
1146.3136363636368
21
-1849.9566666666667
31
0
0
LINE
5
262
100
AcDbEntity
8
0
100
AcDbLine
10
1124.7136363636364
20
-1749.9566666666667
30
0
11
1136.3136363636363
21
-1749.9566666666667
31
0
0
LINE
5
263
100
AcDbEntity
8
0
100
AcDbLine
10
1141.4170491803279
20
-1249.9759999999999
30
0
11
1131.4170491803279
21
-1249.9759999999999
31
0
0
LINE
5
264
100
AcDbEntity
8
0
100
AcDbLine
10
1119.817049180328
20
-1349.9760000000001
30
0
11
1131.4170491803279
21
-1349.9760000000001
31
0
0
LINE
5
265
100
AcDbEntity
8
0
100
AcDbLine
10
1131.4170491803279
20
-1349.9760000000001
30
0
11
1131.4170491803279
21
-1249.9759999999999
31
0
0
LINE
5
266
100
AcDbEntity
8
0
100
AcDbLine
10
1345.0081250000014
20
-1399.9388235294111
30
0
11
1355.0081250000014
21
-1399.9388235294111
31
0
0
LINE
5
267
100
AcDbEntity
8
0
100
AcDbLine
10
1340.0081250000017
20
-1449.9388235294111
30
0
11
1340.0081250000014
21
-1399.9388235294111
31
0
0
LINE
5
268
100
AcDbEntity
8
0
100
AcDbLine
10
1342.1081250000016
20
-1412.4388235294111
30
0
11
1345.0081250000014
21
-1412.4388235294111
31
0
0
LINE
5
269
100
AcDbEntity
8
0
100
AcDbLine
10
1340.0081250000014
20
-1399.9388235294111
30
0
11
1342.1081250000016
21
-1399.9388235294111
31
0
0
LINE
5
270
100
AcDbEntity
8
0
100
AcDbLine
10
1340.0081250000017
20
-1449.9388235294111
30
0
11
1345.0081250000017
21
-1449.9388235294111
31
0
0
LINE
5
271
100
AcDbEntity
8
0
100
AcDbLine
10
1345.0081250000014
20
-1412.4388235294111
30
0
11
1345.0081250000014
21
-1399.9388235294111
31
0
0
LINE
5
272
100
AcDbEntity
8
0
100
AcDbLine
10
1345.0081250000014
20
-1399.9388235294111
30
0
11
1355.0081250000014
21
-1399.9388235294111
31
0
0
LINE
5
273
100
AcDbEntity
8
0
100
AcDbLine
10
1340.0081250000014
20
-1399.9388235294111
30
0
11
1342.1081250000016
21
-1399.9388235294111
31
0
0
LINE
5
274
100
AcDbEntity
8
0
100
AcDbLine
10
1366.6081250000013
20
-1399.9388235294111
30
0
11
1366.6081250000013
21
-1424.9388235294111
31
0
0
LINE
5
275
100
AcDbEntity
8
0
100
AcDbLine
10
1342.1081250000016
20
-1399.9388235294111
30
0
11
1342.1081250000016
21
-1412.4388235294111
31
0
0
LINE
5
276
100
AcDbEntity
8
0
100
AcDbLine
10
1355.0081250000014
20
-1424.9388235294111
30
0
11
1355.0081250000014
21
-1399.9388235294111
31
0
0
LINE
5
277
100
AcDbEntity
8
0
100
AcDbLine
10
1366.6081250000013
20
-1424.9388235294111
30
0
11
1355.0081250000014
21
-1424.9388235294111
31
0
0
LINE
5
278
100
AcDbEntity
8
0
100
AcDbLine
10
1345.0081250000014
20
-1399.9388235294111
30
0
11
1355.0081250000014
21
-1399.9388235294111
31
0
0
LINE
5
279
100
AcDbEntity
8
0
100
AcDbLine
10
750.31363636363631
20
-1649.9566666666667
30
0
11
783.31363636363631
21
-1649.9566666666667
31
0
0
LINE
5
280
100
AcDbEntity
8
0
100
AcDbLine
10
1146.3136363636368
20
-1849.9566666666667
30
0
11
750.31363636363699
21
-1849.9566666666667
31
0
0
LINE
5
281
100
AcDbEntity
8
0
100
AcDbLine
10
750.31363636363631
20
-1649.9566666666667
30
0
11
1146.3136363636363
21
-1649.9566666666667
31
0
0
LINE
5
282
100
AcDbEntity
8
0
100
AcDbLine
10
778.41704918032769
20
-1249.9759999999999
30
0
11
938.41704918032769
21
-1249.9759999999999
31
0
0
CIRCLE
5
283
100
AcDbEntity
8
0
100
AcDbCircle
10
868.65665148400353
20
-2126.1075142965087
30
0
40
4.7499999999999876
210
0
220
0
230
1
0
LINE
5
284
100
AcDbEntity
8
0
100
AcDbLine
10
1234.9066514839808
20
-2107.7525142967847
30
0
11
1234.906651483981
21
-2126.1075142967852
31
0
0
CIRCLE
5
285
100
AcDbEntity
8
0
100
AcDbCircle
10
1205.1566514839778
20
-2126.1075142967848
30
0
40
4.7499999999999876
210
0
220
0
230
1
0
LWPOLYLINE
5
286
100
AcDbEntity
8
0
100
AcDbPolyline
90
8
70
1
43
0.0
10
938.91546328867037
20
-2492.7177919665755
42
-0.41429498911297125
10
888.90409072858029
20
-2442.6925142982186
10
888.90409072858824
20
-2250.6929516307864
42
-0.41422697551583726
10
938.90711302242266
20
-2200.6922191787662
10
1134.9070840176228
20
-2200.6922191787939
42
-0.41421429568769619
10
1184.9072389791584
20
-2250.6924993254888
10
1184.9072389791822
20
-2442.7177893203684
42
-0.41421375463353632
10
1134.9072691538895
20
-2492.7177919665651
0
LINE
5
287
100
AcDbEntity
8
0
100
AcDbLine
10
1213.3072691538896
20
-2692.7177893203589
30
0
11
1213.3072691538896
21
-2642.7177893203589
31
0
0
LINE
5
288
100
AcDbEntity
8
0
100
AcDbLine
10
1234.9072691526617
20
-2692.7177893203589
30
0
11
1224.9072691538895
21
-2692.7177893203589
31
0
0
LINE
5
289
100
AcDbEntity
8
0
100
AcDbLine
10
838.90726915388905
20
-2692.7177893203589
30
0
11
848.90726915388905
21
-2692.7177893203598
31
0
0
LINE
5
290
100
AcDbEntity
8
0
100
AcDbLine
10
1234.9072691526615
20
-2492.7177893202488
30
0
11
1184.9072691526608
21
-2492.7177893202306
31
0
0
LINE
5
291
100
AcDbEntity
8
0
100
AcDbLine
10
1213.3072691538896
20
-2642.7177893203589
30
0
11
1224.9072691538895
21
-2642.7177893203589
31
0
0
LINE
5
292
100
AcDbEntity
8
0
100
AcDbLine
10
860.50726915388907
20
-2642.7177893203589
30
0
11
848.90726915388905
21
-2642.7177893203589
31
0
0
LINE
5
293
100
AcDbEntity
8
0
100
AcDbLine
10
860.50726915388907
20
-2692.7177893203589
30
0
11
860.50726915388907
21
-2642.7177893203589
31
0
0
LINE
5
294
100
AcDbEntity
8
0
100
AcDbLine
10
1234.906651483981
20
-2126.1075142967852
30
0
11
1205.156651483981
21
-2126.1075142967852
31
0
0
LINE
5
295
100
AcDbEntity
8
0
100
AcDbLine
10
838.90726915388905
20
-2107.7177893203593
30
0
11
1234.907269153889
21
-2107.7177893203593
31
0
0
LINE
5
296
100
AcDbEntity
8
0
100
AcDbLine
10
-5.2705091608991393e-05
20
-2685.0221484128024
30
0
11
27.999947294908392
21
-2685.0221484128024
31
0
0
LINE
5
297
100
AcDbEntity
8
0
100
AcDbLine
10
385.99994729490845
20
-2635.0221484128033
30
0
11
385.99994729490845
21
-2685.0221484128024
31
0
0
LINE
5
298
100
AcDbEntity
8
0
100
AcDbLine
10
374.39994729490849
20
-2685.0221484128024
30
0
11
374.39994729490849
21
-2635.0221484128024
31
0
0
LINE
5
299
100
AcDbEntity
8
0
100
AcDbLine
10
385.99994729490845
20
-2685.0221484128024
30
0
11
374.39994729490849
21
-2685.0221484128024
31
0
0
LINE
5
300
100
AcDbEntity
8
0
100
AcDbLine
10
21.599947294908386
20
-2635.0221484128024
30
0
11
9.9999472949083916
21
-2635.0221484128033
31
0
0
LINE
5
301
100
AcDbEntity
8
0
100
AcDbLine
10
395.99994729490845
20
-2685.0221484128024
30
0
11
385.99994729490845
21
-2685.0221484128024
31
0
0
LINE
5
302
100
AcDbEntity
8
0
100
AcDbLine
10
395.99994729490845
20
-2685.0221484128024
30
0
11
-5.2705091608991393e-05
21
-2685.0221484128024
31
0
0
ARC
5
303
100
AcDbEntity
8
0
100
AcDbCircle
10
99.999948609525461
20
-2435.0221470981837
30
0
40
50.00000131461703
210
0
220
0
230
1
100
AcDbArc
50
180.00000147877932
51
269.99999849355987
0
LINE
5
304
100
AcDbEntity
8
0
100
AcDbLine
10
9.9999472949083916
20
-2685.0221484128024
30
0
11
21.599947294908389
21
-2685.0221484128024
31
0
0
LINE
5
305
100
AcDbEntity
8
0
100
AcDbLine
10
345.9999472949084
20
-2485.0221484128024
30
0
11
295.9999472949084
21
-2485.0221484128024
31
0
0
ARC
5
306
100
AcDbEntity
8
0
100
AcDbCircle
10
295.9999472949084
20
-2435.0221436724114
30
0
40
50.000004740390978
210
0
220
0
230
1
100
AcDbArc
50
270
51
359.99999460026129
0
LINE
5
307
100
AcDbEntity
8
0
100
AcDbLine
10
27.999947294908388
20
-2635.0221484128024
30
0
11
27.999947294908392
21
-2685.0221484128024
31
0
0
LINE
5
308
100
AcDbEntity
8
0
100
AcDbLine
10
27.999947294908392
20
-2685.0221484128024
30
0
11
177.9999472949084
21
-2685.0221484128024
31
0
0
LINE
5
309
100
AcDbEntity
8
0
100
AcDbLine
10
374.39994729490849
20
-2635.0221484128024
30
0
11
385.99994729490845
21
-2635.0221484128033
31
0
0
LINE
5
310
100
AcDbEntity
8
0
100
AcDbLine
10
9.9999472949083916
20
-2635.0221484128033
30
0
11
9.9999472949083916
21
-2685.0221484128024
31
0
0
LINE
5
311
100
AcDbEntity
8
0
100
AcDbLine
10
21.599947294908389
20
-2685.0221484128024
30
0
11
21.599947294908386
21
-2635.0221484128024
31
0
0
LINE
5
312
100
AcDbEntity
8
0
100
AcDbLine
10
49.999947294908438
20
-2485.0221484128024
30
0
11
99.999947294908438
21
-2485.0221484128024
31
0
0
LINE
5
313
100
AcDbEntity
8
0
100
AcDbLine
10
295.9999472949084
20
-2485.0221484128024
30
0
11
99.999947294908438
21
-2485.0221484128024
31
0
0
LINE
5
314
100
AcDbEntity
8
0
100
AcDbLine
10
177.9999472949084
20
-2635.0221484128024
30
0
11
27.999947294908388
21
-2635.0221484128024
31
0
0
LINE
5
315
100
AcDbEntity
8
0
100
AcDbLine
10
177.9999472949084
20
-2685.0221484128024
30
0
11
177.9999472949084
21
-2635.0221484128024
31
0
0
LINE
5
316
100
AcDbEntity
8
0
100
AcDbLine
10
395.99994729490845
20
-2685.0221484128024
30
0
11
395.9999472949084
21
-2485.0221484128024
31
0
0
LINE
5
317
100
AcDbEntity
8
0
100
AcDbLine
10
-5.2705091608991393e-05
20
-2685.0221484128024
30
0
11
9.9999472949083916
21
-2685.0221484128024
31
0
0
LINE
5
318
100
AcDbEntity
8
0
100
AcDbLine
10
345.99994729490896
20
-2193.0221484128024
30
0
11
345.99994729490834
21
-2243.0221484128024
31
0
0
LINE
5
319
100
AcDbEntity
8
0
100
AcDbLine
10
345.99994729490896
20
-2193.0221484128024
30
0
11
295.99994729490953
21
-2193.0221484128019
31
0
0
LINE
5
320
100
AcDbEntity
8
0
100
AcDbLine
10
49.999947294908587
20
-2193.0221484128001
30
0
11
49.999947294908424
21
-2243.0221484128006
31
0
0
ARC
5
321
100
AcDbEntity
8
0
100
AcDbCircle
10
99.999946803777988
20
-2243.0221435632229
30
0
40
49.999999508861784
210
0
220
-0
230
1
100
AcDbArc
50
89.999999437206
51
180.00000553308561
0
LINE
5
322
100
AcDbEntity
8
0
100
AcDbLine
10
99.999947294908395
20
-2193.022144054361
30
0
11
295.99994729490953
21
-2193.0221484128019
31
0
0
LINE
5
323
100
AcDbEntity
8
0
100
AcDbLine
10
-5.2705091599535145e-05
20
-2100.0221484128028
30
0
11
395.99994729490845
21
-2100.0221484128028
31
0
0
LINE
5
324
100
AcDbEntity
8
0
100
AcDbLine
10
395.99994729490845
20
-2100.0221484128028
30
0
11
395.99994729490845
21
-2685.0221484128024
31
0
0
LINE
5
325
100
AcDbEntity
8
0
100
AcDbLine
10
345.99994729490834
20
-2243.0221484128024
30
0
11
345.99994729490777
21
-2435.0221484128024
31
0
0
LINE
5
326
100
AcDbEntity
8
0
100
AcDbLine
10
49.999947294908445
20
-2435.0221484128024
30
0
11
49.999947294908424
21
-2243.0221484128006
31
0
0
LINE
5
327
100
AcDbEntity
8
0
100
AcDbLine
10
-5.2705091608991393e-05
20
-2685.0221484128024
30
0
11
-5.2705091599535145e-05
21
-2100.0221484128028
31
0
0
LINE
5
328
100
AcDbEntity
8
0
100
AcDbLine
10
395.9999472949084
20
-2485.0221484128024
30
0
11
345.9999472949084
21
-2485.0221484128024
31
0
0
LINE
5
329
100
AcDbEntity
8
0
100
AcDbLine
10
1234.9072691526617
20
-2692.7177893203589
30
0
11
1234.9072691526615
21
-2492.7177893202488
31
0
0
LINE
5
330
100
AcDbEntity
8
0
100
AcDbLine
10
1224.9072691538895
20
-2692.7177893203589
30
0
11
1213.3072691538896
21
-2692.7177893203589
31
0
0
LINE
5
331
100
AcDbEntity
8
0
100
AcDbLine
10
1234.9072691526617
20
-2692.7177893203589
30
0
11
838.90726915388905
21
-2692.7177893203589
31
0
0
LINE
5
332
100
AcDbEntity
8
0
100
AcDbLine
10
848.90726915388905
20
-2642.7177893203589
30
0
11
848.90726915388905
21
-2692.7177893203598
31
0
0
LINE
5
333
100
AcDbEntity
8
0
100
AcDbLine
10
1224.9072691538895
20
-2642.7177893203589
30
0
11
1224.9072691538895
21
-2692.7177893203589
31
0
0
LINE
5
334
100
AcDbEntity
8
0
100
AcDbLine
10
848.90726915388905
20
-2692.7177893203598
30
0
11
860.50726915388907
21
-2692.7177893203589
31
0
0
LINE
5
335
100
AcDbEntity
8
0
100
AcDbLine
10
838.90726915388905
20
-2692.7177893203589
30
0
11
838.90726915388905
21
-2107.7177893203593
31
0
0
LINE
5
336
100
AcDbEntity
8
0
100
AcDbLine
10
1234.907269153889
20
-2107.7177893203593
30
0
11
1234.9072691526617
21
-2692.7177893203589
31
0
0
ARC
5
337
100
AcDbEntity
8
0
100
AcDbCircle
10
295.99994729490777
20
-2243.0221484127928
30
0
40
50.000000000000533
210
0
220
0
230
1
100
AcDbArc
50
0
51
89.999999999997982
0
LWPOLYLINE
5
338
100
AcDbEntity
8
0
100
AcDbPolyline
90
4
70
1
43
0.0
10
121.88974216670339
20
-2100.0221484128028
10
152.22128062824154
20
-2100.0221484128028
10
152.22128062824154
20
-2102.7921484128028
10
121.88974216670339
20
-2102.7921484128028
0
LWPOLYLINE
5
339
100
AcDbEntity
8
0
100
AcDbPolyline
90
4
70
1
43
0.0
10
182.83440883337008
20
-2100.0221484128028
10
213.16594729490831
20
-2100.0221484128028
10
213.16594729490831
20
-2102.7921484128028
10
182.83440883337008
20
-2102.7921484128028
0
LWPOLYLINE
5
340
100
AcDbEntity
8
0
100
AcDbPolyline
90
4
70
1
43
0.0
10
30.33194729490873
20
-2102.7921484128028
10
0.00040883336993147168
20
-2102.7921484128028
10
0.00040883336993147168
20
-2100.0221484128028
10
30.33194729490873
20
-2100.0221484128028
0
LWPOLYLINE
5
341
100
AcDbEntity
8
0
100
AcDbPolyline
90
4
70
1
43
0.0
10
243.77907550003684
20
-2100.0221484128028
10
274.11061396157504
20
-2100.0221484128028
10
274.11061396157504
20
-2102.7921484128028
10
243.77907550003684
20
-2102.7921484128028
0
LWPOLYLINE
5
342
100
AcDbEntity
8
0
100
AcDbPolyline
90
4
70
1
43
0.0
10
91.276613961575421
20
-2102.7921484128028
10
60.945075500036623
20
-2102.7921484128028
10
60.945075500036623
20
-2100.0221484128028
10
91.276613961575421
20
-2100.0221484128028
0
LWPOLYLINE
5
343
100
AcDbEntity
8
0
100
AcDbPolyline
90
4
70
1
43
0.0
10
395.99994729490845
20
-2100.0221484128028
10
395.99994729490845
20
-2102.7921484128028
10
365.68203855634295
20
-2102.7921484128028
10
365.68198476358327
20
-2100.0221484128028
0
LWPOLYLINE
5
344
100
AcDbEntity
8
0
100
AcDbPolyline
90
4
70
1
43
0.0
10
335.05528062824175
20
-2100.0221484128028
10
335.05528062824783
20
-2102.7881910419055
10
304.72374216670903
20
-2102.7891766645398
10
304.72374216670295
20
-2100.0221484128028
0
LWPOLYLINE
5
345
100
AcDbEntity
8
0
100
AcDbPolyline
90
4
70
1
43
0.0
10
1204.5752691538887
20
-2107.7177893203593
10
1234.9068076154276
20
-2107.7177893203593
10
1234.9068076154276
20
-2110.4877893203588
10
1204.5752691538887
20
-2110.4877893203588
0
LWPOLYLINE
5
346
100
AcDbEntity
8
0
100
AcDbPolyline
90
4
70
1
43
0.0
10
1113.0174742820941
20
-2107.7177893203593
10
1113.0174742820941
20
-2110.4877893203588
10
1082.6859358205559
20
-2110.4877893203588
10
1082.6859358205559
20
-2107.7177893203593
0
LWPOLYLINE
5
347
100
AcDbEntity
8
0
100
AcDbPolyline
90
4
70
1
43
0.0
10
1143.6306024872219
20
-2110.4877893203588
10
1143.6306024872219
20
-2107.7177893203593
10
1173.9621409487609
20
-2107.7177893203593
10
1173.9621409487609
20
-2110.4877893203588
0
LWPOLYLINE
5
348
100
AcDbEntity
8
0
100
AcDbPolyline
90
4
70
1
43
0.0
10
869.23880761542796
20
-2110.4877893203588
10
838.90726915388905
20
-2110.4877893203588
10
838.90726915388905
20
-2107.7177893203593
10
869.23880761542796
20
-2107.7177893203593
0
LWPOLYLINE
5
349
100
AcDbEntity
8
0
100
AcDbPolyline
90
4
70
1
43
0.0
10
991.12814094876057
20
-2110.4877893203588
10
960.79660248722234
20
-2110.4877893203588
10
960.79660248722234
20
-2107.7177893203593
10
991.12814094876057
20
-2107.7177893203593
0
LWPOLYLINE
5
350
100
AcDbEntity
8
0
100
AcDbPolyline
90
4
70
1
43
0.0
10
1052.0728076154273
20
-2110.4877893203588
10
1021.7412691538891
20
-2110.4877893203588
10
1021.7412691538891
20
-2107.7177893203593
10
1052.0728076154273
20
-2107.7177893203593
0
LWPOLYLINE
5
351
100
AcDbEntity
8
0
100
AcDbPolyline
90
4
70
1
43
0.0
10
899.85193582055581
20
-2110.4877893203588
10
899.85193582055581
20
-2107.7177893203593
10
930.18347428209472
20
-2107.7177893203593
10
930.18347428209472
20
-2110.4877893203588
0
LINE
5
352
100
AcDbEntity
8
0
100
AcDbLine
10
838.90726915388905
20
-2107.7177893203593
30
0
11
841.80726915388914
21
-2107.7177893203593
31
0
0
LINE
5
353
100
AcDbEntity
8
0
100
AcDbLine
10
841.80726915388914
20
-2107.7177893203593
30
0
11
841.80726915388914
21
-2152.7177893203593
31
0
0
LINE
5
354
100
AcDbEntity
8
0
100
AcDbLine
10
841.80726915388914
20
-2152.7177893203593
30
0
11
838.90726915388905
21
-2152.7177893203593
31
0
0
LINE
5
355
100
AcDbEntity
8
0
100
AcDbLine
10
838.90726915388905
20
-2152.7177893203593
30
0
11
838.90726915388905
21
-2107.7177893203593
31
0
0
LINE
5
356
100
AcDbEntity
8
0
100
AcDbLine
10
838.90726915388905
20
-2152.7177893203593
30
0
11
838.90726915388905
21
-2197.7177893203593
31
0
0
LINE
5
357
100
AcDbEntity
8
0
100
AcDbLine
10
838.90726915388905
20
-2197.7177893203593
30
0
11
841.80726915388914
21
-2197.7177893203593
31
0
0
LINE
5
358
100
AcDbEntity
8
0
100
AcDbLine
10
841.80726915388914
20
-2197.7177893203593
30
0
11
841.80726915388914
21
-2242.7177893203593
31
0
0
LINE
5
359
100
AcDbEntity
8
0
100
AcDbLine
10
841.80726915388914
20
-2242.7177893203593
30
0
11
838.90726915388905
21
-2242.7177893203593
31
0
0
LINE
5
360
100
AcDbEntity
8
0
100
AcDbLine
10
838.90726915388905
20
-2242.7177893203593
30
0
11
838.90726915388905
21
-2197.7177893203593
31
0
0
LWPOLYLINE
5
361
100
AcDbEntity
8
0
100
AcDbPolyline
90
4
70
1
43
0.0
10
838.90726915388905
20
-2332.7177893203593
10
841.80726915388914
20
-2332.7177893203593
10
841.80726915388914
20
-2287.7177893203593
10
838.90726915388905
20
-2287.7177893203593
0
LWPOLYLINE
5
362
100
AcDbEntity
8
0
100
AcDbPolyline
90
4
70
1
43
0.0
10
838.90726915388905
20
-2422.7177893203589
10
841.80726915388914
20
-2422.7177893203589
10
841.80726915388914
20
-2377.7177893203589
10
838.90726915388905
20
-2377.7177893203589
0
LWPOLYLINE
5
363
100
AcDbEntity
8
0
100
AcDbPolyline
90
4
70
1
43
0.0
10
838.90726915388905
20
-2512.7177893203589
10
841.80726915388914
20
-2512.7177893203589
10
841.80726915388914
20
-2467.7177893203589
10
838.90726915388905
20
-2467.7177893203589
0
LWPOLYLINE
5
364
100
AcDbEntity
8
0
100
AcDbPolyline
90
4
70
1
43
0.0
10
838.90726915388905
20
-2602.7177893203589
10
841.80726915388914
20
-2602.7177893203589
10
841.80726915388914
20
-2557.7177893203589
10
838.90726915388905
20
-2557.7177893203589
0
LINE
5
365
100
AcDbEntity
8
0
100
AcDbLine
10
838.90726915388905
20
-2692.7177893203589
30
0
11
841.80726915388914
21
-2692.7177893203589
31
0
0
LINE
5
366
100
AcDbEntity
8
0
100
AcDbLine
10
841.80726915388914
20
-2692.7177893203589
30
0
11
841.80726915388914
21
-2647.7177893203589
31
0
0
LINE
5
367
100
AcDbEntity
8
0
100
AcDbLine
10
841.80726915388914
20
-2647.7177893203589
30
0
11
838.90726915388905
21
-2647.7177893203589
31
0
0
LINE
5
368
100
AcDbEntity
8
0
100
AcDbLine
10
838.90726915388905
20
-2647.7177893203589
30
0
11
838.90726915388905
21
-2692.7177893203589
31
0
0
LWPOLYLINE
5
369
100
AcDbEntity
8
0
100
AcDbPolyline
90
4
70
1
43
0.0
10
1234.9072691538893
20
-2467.7177893203589
10
1232.0072691538892
20
-2467.7177893203589
10
1232.0072691538892
20
-2512.7177893203589
10
1234.9072691538893
20
-2512.7177893203589
0
LWPOLYLINE
5
370
100
AcDbEntity
8
0
100
AcDbPolyline
90
4
70
1
43
0.0
10
1232.0072691538892
20
-2287.7177893203593
10
1232.0072691538892
20
-2332.7177893203593
10
1234.9072691538893
20
-2332.7177893203593
10
1234.9072691538893
20
-2287.7177893203593
0
LINE
5
371
100
AcDbEntity
8
0
100
AcDbLine
10
1232.0072691538892
20
-2197.7177893203593
30
0
11
1234.9072691538893
21
-2197.7177893203593
31
0
0
LWPOLYLINE
5
372
100
AcDbEntity
8
0
100
AcDbPolyline
90
4
70
1
43
0.0
10
1232.0072691538892
20
-2647.7177893203589
10
1234.9072691538893
20
-2647.7177893203589
10
1234.9072691538893
20
-2692.7177893203589
10
1232.0072691538892
20
-2692.7177893203589
0
LWPOLYLINE
5
373
100
AcDbEntity
8
0
100
AcDbPolyline
90
4
70
1
43
0.0
10
1232.0072691538892
20
-2557.7177893203589
10
1232.0072691538892
20
-2602.7177893203589
10
1234.9072691538893
20
-2602.7177893203589
10
1234.9072691538893
20
-2557.7177893203589
0
LINE
5
374
100
AcDbEntity
8
0
100
AcDbLine
10
1234.9072691538893
20
-2107.7177893203593
30
0
11
1234.9072691538893
21
-2152.7177893203593
31
0
0
LINE
5
375
100
AcDbEntity
8
0
100
AcDbLine
10
1232.0072691538892
20
-2107.7177893203593
30
0
11
1234.9072691538893
21
-2107.7177893203593
31
0
0
LINE
5
376
100
AcDbEntity
8
0
100
AcDbLine
10
1232.0072691538892
20
-2107.7177893203593
30
0
11
1232.0072691538892
21
-2110.4877893203588
31
0
0
LINE
5
377
100
AcDbEntity
8
0
100
AcDbLine
10
1232.0072691538892
20
-2152.7177893203593
30
0
11
1232.0072691538892
21
-2107.7177893203593
31
0
0
LINE
5
378
100
AcDbEntity
8
0
100
AcDbLine
10
1234.9072691538893
20
-2152.7177893203593
30
0
11
1232.0072691538892
21
-2152.7177893203593
31
0
0
LINE
5
379
100
AcDbEntity
8
0
100
AcDbLine
10
1232.0072691538892
20
-2152.7177893203593
30
0
11
1232.0072691538892
21
-2197.7177893203593
31
0
0
LWPOLYLINE
5
380
100
AcDbEntity
8
0
100
AcDbPolyline
90
4
70
1
43
0.0
10
1232.0072691538892
20
-2422.7177893203589
10
1234.9072691538893
20
-2422.7177893203589
10
1234.9072691538893
20
-2377.7177893203589
10
1232.0072691538892
20
-2377.7177893203589
0
LINE
5
381
100
AcDbEntity
8
0
100
AcDbLine
10
1232.0072691538892
20
-2242.7177893203593
30
0
11
1232.0072691538892
21
-2197.7177893203593
31
0
0
LINE
5
382
100
AcDbEntity
8
0
100
AcDbLine
10
1234.9072691538893
20
-2242.7177893203593
30
0
11
1232.0072691538892
21
-2242.7177893203593
31
0
0
LINE
5
383
100
AcDbEntity
8
0
100
AcDbLine
10
1234.9072691538893
20
-2197.7177893203593
30
0
11
1234.9072691538893
21
-2242.7177893203593
31
0
0
LINE
5
384
100
AcDbEntity
8
0
100
AcDbLine
10
395.99994729490845
20
-2100.0221484128028
30
0
11
395.99994729490845
21
-2145.0221484128028
31
0
0
LINE
5
385
100
AcDbEntity
8
0
100
AcDbLine
10
395.99994729490845
20
-2145.0221484128028
30
0
11
393.09994729490847
21
-2145.0221484128028
31
0
0
LINE
5
386
100
AcDbEntity
8
0
100
AcDbLine
10
393.09994729490847
20
-2145.0221484128028
30
0
11
393.09994729490847
21
-2190.0221484128028
31
0
0
LINE
5
387
100
AcDbEntity
8
0
100
AcDbLine
10
393.09994729490847
20
-2190.0221484128028
30
0
11
395.99994729490845
21
-2190.0221484128028
31
0
0
LINE
5
388
100
AcDbEntity
8
0
100
AcDbLine
10
395.99994729490845
20
-2190.0221484128028
30
0
11
395.99994729490845
21
-2145.0221484128028
31
0
0
LWPOLYLINE
5
389
100
AcDbEntity
8
0
100
AcDbPolyline
90
4
70
1
43
0.0
10
393.09994729490847
20
-2235.0221484128028
10
395.99994729490845
20
-2235.0221484128028
10
395.99994729490845
20
-2280.0221484128028
10
393.09994729490847
20
-2280.0221484128028
0
LWPOLYLINE
5
390
100
AcDbEntity
8
0
100
AcDbPolyline
90
4
70
1
43
0.0
10
393.09994729490847
20
-2325.0221484128028
10
395.99994729490845
20
-2325.0221484128028
10
395.99994729490845
20
-2370.0221484128028
10
393.09994729490847
20
-2370.0221484128028
0
LWPOLYLINE
5
391
100
AcDbEntity
8
0
100
AcDbPolyline
90
4
70
1
43
0.0
10
393.09994729490847
20
-2415.0221484128033
10
395.99994729490845
20
-2415.0221484128033
10
395.99994729490845
20
-2460.0221484128033
10
393.09994729490847
20
-2460.0221484128033
0
LWPOLYLINE
5
392
100
AcDbEntity
8
0
100
AcDbPolyline
90
4
70
1
43
0.0
10
393.09994729490847
20
-2505.0221484128033
10
395.99994729490845
20
-2505.0221484128033
10
395.99994729490845
20
-2550.0221484128033
10
393.09994729490847
20
-2550.0221484128033
0
LWPOLYLINE
5
393
100
AcDbEntity
8
0
100
AcDbPolyline
90
4
70
1
43
0.0
10
393.09994729490847
20
-2595.0221484128033
10
395.99994729490845
20
-2595.0221484128033
10
395.99994729490845
20
-2640.0221484128033
10
393.09994729490847
20
-2640.0221484128033
0
LWPOLYLINE
5
394
100
AcDbEntity
8
0
100
AcDbPolyline
90
4
70
1
43
0.0
10
2.8999472949084293
20
-2370.0221484128028
10
-5.27050915621885e-05
20
-2370.0221484128028
10
-5.27050915621885e-05
20
-2325.0221484128028
10
2.8999472949084293
20
-2325.0221484128028
0
LWPOLYLINE
5
395
100
AcDbEntity
8
0
100
AcDbPolyline
90
4
70
1
43
0.0
10
-5.27050915621885e-05
20
-2235.0221484128028
10
2.8999472949084293
20
-2235.0221484128028
10
2.8999472949084293
20
-2280.0221484128028
10
-5.27050915621885e-05
20
-2280.0221484128028
0
LWPOLYLINE
5
396
100
AcDbEntity
8
0
100
AcDbPolyline
90
4
70
1
43
0.0
10
2.8999472949084293
20
-2460.0221484128033
10
-5.27050915621885e-05
20
-2460.0221484128033
10
-5.27050915621885e-05
20
-2415.0221484128033
10
2.8999472949084293
20
-2415.0221484128033
0
LWPOLYLINE
5
397
100
AcDbEntity
8
0
100
AcDbPolyline
90
4
70
1
43
0.0
10
2.8999472949084293
20
-2190.0221484128028
10
-5.27050915621885e-05
20
-2190.0221484128028
10
-5.27050915621885e-05
20
-2145.0221484128028
10
2.8999472949084293
20
-2145.0221484128028
0
LINE
5
398
100
AcDbEntity
8
0
100
AcDbLine
10
2.8999472949084293
20
-2102.7921484128028
30
0
11
2.8999472949084293
21
-2100.0221484128028
31
0
0
LWPOLYLINE
5
399
100
AcDbEntity
8
0
100
AcDbPolyline
90
4
70
1
43
0.0
10
2.8999472949084293
20
-2640.0221484128033
10
-5.27050915621885e-05
20
-2640.0221484128033
10
-5.27050915621885e-05
20
-2595.0221484128033
10
2.8999472949084293
20
-2595.0221484128033
0
LWPOLYLINE
5
400
100
AcDbEntity
8
0
100
AcDbPolyline
90
4
70
1
43
0.0
10
2.8999472949084293
20
-2550.0221484128033
10
-5.27050915621885e-05
20
-2550.0221484128033
10
-5.27050915621885e-05
20
-2505.0221484128033
10
2.8999472949084293
20
-2505.0221484128033
0
LWPOLYLINE
5
401
100
AcDbEntity
8
0
100
AcDbPolyline
90
4
70
1
43
0.0
10
-750.00005270509155
20
-2415.0221484128033
10
-747.10005270509157
20
-2415.0221484128033
10
-747.10005270509157
20
-2460.0221484128033
10
-750.00005270509155
20
-2460.0221484128033
0
LWPOLYLINE
5
402
100
AcDbEntity
8
0
100
AcDbPolyline
90
4
70
1
43
0.0
10
-356.90005270509153
20
-2595.0221484128033
10
-354.00005270509155
20
-2595.0221484128033
10
-354.00005270509155
20
-2640.0221484128033
10
-356.90005270509153
20
-2640.0221484128033
0
LWPOLYLINE
5
403
100
AcDbEntity
8
0
100
AcDbPolyline
90
4
70
1
43
0.0
10
-747.10005270509157
20
-2190.0221484128028
10
-750.00005270509155
20
-2190.0221484128028
10
-750.00005270509155
20
-2145.0221484128028
10
-747.10005270509157
20
-2145.0221484128028
0
LWPOLYLINE
5
404
100
AcDbEntity
8
0
100
AcDbPolyline
90
4
70
1
43
0.0
10
-354.00005270509155
20
-2370.0221484128028
10
-356.90005270509153
20
-2370.0221484128028
10
-356.90005270509153
20
-2325.0221484128028
10
-354.00005270509155
20
-2325.0221484128028
0
LWPOLYLINE
5
405
100
AcDbEntity
8
0
100
AcDbPolyline
90
4
70
1
43
0.0
10
-747.10005270509157
20
-2235.0221484128028
10
-747.10005270509157
20
-2280.0221484128028
10
-750.00005270509155
20
-2280.0221484128028
10
-750.00005270509155
20
-2235.0221484128028
0
LWPOLYLINE
5
406
100
AcDbEntity
8
0
100
AcDbPolyline
90
4
70
1
43
0.0
10
-356.90005270509153
20
-2460.0221484128033
10
-356.90005270509153
20
-2415.0221484128033
10
-354.00005270509155
20
-2415.0221484128033
10
-354.00005270509155
20
-2460.0221484128033
0
LINE
5
407
100
AcDbEntity
8
0
100
AcDbLine
10
-356.90005270509153
20
-2190.0221484128028
30
0
11
-354.00005270509155
21
-2190.0221484128028
31
0
0
LWPOLYLINE
5
408
100
AcDbEntity
8
0
100
AcDbPolyline
90
4
70
1
43
0.0
10
-750.00005270509155
20
-2550.0221484128033
10
-750.00005270509155
20
-2505.0221484128033
10
-747.10005270509157
20
-2505.0221484128033
10
-747.10005270509157
20
-2550.0221484128033
0
LWPOLYLINE
5
409
100
AcDbEntity
8
0
100
AcDbPolyline
90
4
70
1
43
0.0
10
-356.90005270509153
20
-2235.0221484128028
10
-354.00005270509155
20
-2235.0221484128028
10
-354.00005270509155
20
-2280.0221484128028
10
-356.90005270509153
20
-2280.0221484128028
0
LWPOLYLINE
5
410
100
AcDbEntity
8
0
100
AcDbPolyline
90
4
70
1
43
0.0
10
-747.10005270509157
20
-2370.0221484128028
10
-750.00005270509155
20
-2370.0221484128028
10
-750.00005270509155
20
-2325.0221484128028
10
-747.10005270509157
20
-2325.0221484128028
0
LINE
5
411
100
AcDbEntity
8
0
100
AcDbLine
10
-728.40005270509164
20
-2685.0221484128033
30
0
11
-728.40005270509164
21
-2635.0221484128033
31
0
0
LWPOLYLINE
5
412
100
AcDbEntity
8
0
100
AcDbPolyline
90
4
70
1
43
0.0
10
-747.10005270509157
20
-2640.0221484128033
10
-750.00005270509155
20
-2640.0221484128033
10
-750.00005270509155
20
-2595.0221484128033
10
-747.10005270509157
20
-2595.0221484128033
0
LWPOLYLINE
5
413
100
AcDbEntity
8
0
100
AcDbPolyline
90
4
70
1
43
0.0
10
-354.00005270509155
20
-2550.0221484128033
10
-356.90005270509153
20
-2550.0221484128033
10
-356.90005270509153
20
-2505.0221484128033
10
-354.00005270509155
20
-2505.0221484128033
0
LINE
5
414
100
AcDbEntity
8
0
100
AcDbLine
10
-354.0000527050916
20
-2685.0221484128033
30
0
11
-354.00005270509149
21
-2485.0221484128033
31
0
0
LINE
5
415
100
AcDbEntity
8
0
100
AcDbLine
10
-750.00005270509155
20
-2685.0221484128033
30
0
11
-740.00005270509166
21
-2685.0221484128033
31
0
0
LINE
5
416
100
AcDbEntity
8
0
100
AcDbLine
10
-750.00005270509155
20
-2685.0221484128033
30
0
11
-722.00005270509166
21
-2685.0221484128033
31
0
0
LINE
5
417
100
AcDbEntity
8
0
100
AcDbLine
10
-728.40005270509164
20
-2635.0221484128033
30
0
11
-740.00005270509166
21
-2635.0221484128037
31
0
0
LINE
5
418
100
AcDbEntity
8
0
100
AcDbLine
10
-375.60005270509151
20
-2685.0221484128033
30
0
11
-375.60005270509151
21
-2635.0221484128033
31
0
0
LINE
5
419
100
AcDbEntity
8
0
100
AcDbLine
10
-375.60005270509151
20
-2635.0221484128033
30
0
11
-364.00005270509155
21
-2635.0221484128037
31
0
0
LINE
5
420
100
AcDbEntity
8
0
100
AcDbLine
10
-740.00005270509166
20
-2685.0221484128033
30
0
11
-728.40005270509164
21
-2685.0221484128033
31
0
0
LWPOLYLINE
5
421
100
AcDbEntity
8
0
100
AcDbPolyline
90
4
70
1
43
0.0
10
-384.31796144365705
20
-2102.7921484128028
10
-384.31801523641673
20
-2100.0221484128028
10
-354.00005270509155
20
-2100.0221484128028
10
-354.00005270509155
20
-2102.7921484128028
0
LWPOLYLINE
5
422
100
AcDbEntity
8
0
100
AcDbPolyline
90
4
70
1
43
0.0
10
-475.88938603842496
20
-2100.0221484128028
10
-475.88938603842496
20
-2102.7921484128028
10
-506.22092449996319
20
-2102.7921484128028
10
-506.22092449996319
20
-2100.0221484128028
0
LINE
5
423
100
AcDbEntity
8
0
100
AcDbLine
10
-354.00005270509155
20
-2100.0221484128028
30
0
11
-354.00005270509155
21
-2145.0221484128028
31
0
0
LWPOLYLINE
5
424
100
AcDbEntity
8
0
100
AcDbPolyline
90
4
70
1
43
0.0
10
-445.27625783329705
20
-2100.0221484128028
10
-414.94471937175825
20
-2100.0221484128028
10
-414.94471937175217
20
-2102.7881910419055
10
-445.27625783329097
20
-2102.7891766645398
0
LWPOLYLINE
5
425
100
AcDbEntity
8
0
100
AcDbPolyline
90
4
70
1
43
0.0
10
-536.83405270509172
20
-2100.0221484128028
10
-536.83405270509172
20
-2102.7921484128028
10
-567.16559116662995
20
-2102.7921484128028
10
-567.16559116662995
20
-2100.0221484128028
0
LWPOLYLINE
5
426
100
AcDbEntity
8
0
100
AcDbPolyline
90
4
70
1
43
0.0
10
-597.77871937175848
20
-2100.0221484128028
10
-597.77871937175848
20
-2102.7921484128028
10
-628.1102578332966
20
-2102.7921484128028
10
-628.1102578332966
20
-2100.0221484128028
0
LINE
5
427
100
AcDbEntity
8
0
100
AcDbLine
10
-354.00005270509155
20
-2145.0221484128028
30
0
11
-356.90005270509153
21
-2145.0221484128028
31
0
0
LINE
5
428
100
AcDbEntity
8
0
100
AcDbLine
10
-750.00005270509155
20
-2685.0221484128033
30
0
11
-750.00005270509166
21
-2100.0221484128028
31
0
0
LINE
5
429
100
AcDbEntity
8
0
100
AcDbLine
10
-356.90005270509153
20
-2145.0221484128028
30
0
11
-356.90005270509153
21
-2190.0221484128028
31
0
0
LINE
5
430
100
AcDbEntity
8
0
100
AcDbLine
10
-354.00005270509155
20
-2100.0221484128028
30
0
11
-354.0000527050916
21
-2685.0221484128033
31
0
0
LWPOLYLINE
5
431
100
AcDbEntity
8
0
100
AcDbPolyline
90
4
70
1
43
0.0
10
-658.72338603842445
20
-2102.7921484128028
10
-689.05492449996336
20
-2102.7921484128028
10
-689.05492449996336
20
-2100.0221484128028
10
-658.72338603842445
20
-2100.0221484128028
0
LINE
5
432
100
AcDbEntity
8
0
100
AcDbLine
10
-740.00005270509166
20
-2635.0221484128037
30
0
11
-740.00005270509166
21
-2685.0221484128033
31
0
0
LINE
5
433
100
AcDbEntity
8
0
100
AcDbLine
10
-354.0000527050916
20
-2685.0221484128033
30
0
11
-750.00005270509155
21
-2685.0221484128033
31
0
0
LINE
5
434
100
AcDbEntity
8
0
100
AcDbLine
10
-354.0000527050916
20
-2685.0221484128033
30
0
11
-364.00005270509155
21
-2685.0221484128033
31
0
0
LINE
5
435
100
AcDbEntity
8
0
100
AcDbLine
10
-364.00005270509155
20
-2685.0221484128033
30
0
11
-375.60005270509151
21
-2685.0221484128033
31
0
0
LINE
5
436
100
AcDbEntity
8
0
100
AcDbLine
10
-364.00005270509155
20
-2635.0221484128037
30
0
11
-364.00005270509155
21
-2685.0221484128033
31
0
0
LINE
5
437
100
AcDbEntity
8
0
100
AcDbLine
10
-354.00005270509155
20
-2190.0221484128028
30
0
11
-354.00005270509155
21
-2145.0221484128028
31
0
0
LWPOLYLINE
5
438
100
AcDbEntity
8
0
100
AcDbPolyline
90
4
70
1
43
0.0
10
-719.66805270509121
20
-2100.0221484128028
10
-719.66805270509121
20
-2102.7921484128028
10
-749.99959116663013
20
-2102.7921484128028
10
-749.99959116663013
20
-2100.0221484128028
0
LINE
5
439
100
AcDbEntity
8
0
100
AcDbLine
10
-354.00005270509149
20
-2485.0221484128033
30
0
11
-404.00005270509155
21
-2485.0221484128033
31
0
0
LINE
5
440
100
AcDbEntity
8
0
100
AcDbLine
10
-750.00005270509166
20
-2100.0221484128028
30
0
11
-354.00005270509155
21
-2100.0221484128028
31
0
0
LINE
5
441
100
AcDbEntity
8
0
100
AcDbLine
10
-747.10005270509157
20
-2102.7921484128028
30
0
11
-747.10005270509157
21
-2100.0221484128028
31
0
0
LWPOLYLINE
5
442
100
AcDbEntity
8
0
100
AcDbPolyline
90
4
70
1
43
0.0
10
559.56923776312647
20
-3888.8329233464501
10
559.56923776312647
20
-3916.8329233464506
10
526.56923776312647
20
-3916.8329233464506
10
526.56923776312647
20
-3888.8329233464501
0
LWPOLYLINE
5
443
100
AcDbEntity
8
0
100
AcDbPolyline
90
8
70
1
43
0.0
10
526.56923776312647
20
-3520.8329233464501
10
559.56923776312647
20
-3520.8329233464501
10
163.56923776312647
20
-3520.8329233464501
10
163.56923776312647
20
-3916.8329233464506
10
559.56923776312647
20
-3916.8329233464506
10
559.56923776312647
20
-3520.8329233464501
10
559.56923776312647
20
-3548.8329233464501
10
526.56923776312647
20
-3548.8329233464501
0
LWPOLYLINE
5
444
100
AcDbEntity
8
0
100
AcDbPolyline
90
4
70
1
43
0.0
10
196.56923776312641
20
-3888.8329233464501
10
196.56923776312641
20
-3916.8329233464506
10
163.56923776312644
20
-3916.8329233464506
10
163.56923776312644
20
-3888.8329233464501
0
LINE
5
445
100
AcDbEntity
8
0
100
AcDbLine
10
196.56923776312641
20
-3548.8329233464501
30
0
11
196.56923776312641
21
-3520.8329233464501
31
0
0
LINE
5
446
100
AcDbEntity
8
0
100
AcDbLine
10
196.56923776312641
20
-3520.8329233464501
30
0
11
163.56923776312644
21
-3520.8329233464501
31
0
0
LINE
5
447
100
AcDbEntity
8
0
100
AcDbLine
10
163.56923776312644
20
-3548.8329233464501
30
0
11
196.56923776312641
21
-3548.8329233464501
31
0
0
LINE
5
448
100
AcDbEntity
8
0
100
AcDbLine
10
163.56923776312644
20
-3520.8329233464501
30
0
11
163.56923776312644
21
-3548.8329233464501
31
0
0
LINE
5
449
100
AcDbEntity
8
0
100
AcDbLine
10
196.56923776312641
20
-3548.8329233464501
30
0
11
346.56923776312635
21
-3548.8329233464501
31
0
0
LINE
5
450
100
AcDbEntity
8
0
100
AcDbLine
10
346.56923776312635
20
-3548.8329233464501
30
0
11
346.56923776312635
21
-3698.8329233464501
31
0
0
LINE
5
451
100
AcDbEntity
8
0
100
AcDbLine
10
346.56923776312635
20
-3698.8329233464501
30
0
11
196.56923776312641
21
-3698.8329233464501
31
0
0
LINE
5
452
100
AcDbEntity
8
0
100
AcDbLine
10
196.56923776312641
20
-3698.8329233464501
30
0
11
196.56923776312641
21
-3548.8329233464501
31
0
0
ENDSEC
0
SECTION
2
OBJECTS
0
DICTIONARY
5
C
100
AcDbDictionary
3
ACAD_GROUP
350
D
3
ACAD_MLINESTYLE
350
17
0
DICTIONARY
5
D
100
AcDbDictionary
0
DICTIONARY
5
1A
330
C
100
AcDbDictionary
0
DICTIONARY
5
17
100
AcDbDictionary
0
ENDSEC
0
EOF
