ISO-10303-21;
HEADER;
/* Generated by software containing ST-Developer
 * from STEP Tools, Inc. (www.steptools.com) 
 */

FILE_DESCRIPTION(
/* description */ (''),
/* implementation_level */ '2;1');

FILE_NAME(
/* name */ '/Users/hanson/Downloads/energy tokens.step',
/* time_stamp */ '2022-06-14T10:55:48+08:00',
/* author */ (''),
/* organization */ (''),
/* preprocessor_version */ 'ST-DEVELOPER v19',
/* originating_system */ 'Autodesk Translation Framework v11.7.0.108',
/* authorisation */ '');

FILE_SCHEMA (('AUTOMOTIVE_DESIGN { 1 0 10303 214 3 1 1 }'));
ENDSEC;

DATA;
#10=MECHANICAL_DESIGN_GEOMETRIC_PRESENTATION_REPRESENTATION('',(#59,#60,
#61),#291);
#11=SHAPE_REPRESENTATION_RELATIONSHIP('SRR','None',#298,#12);
#12=ADVANCED_BREP_SHAPE_REPRESENTATION('',(#62,#63,#64),#290);
#13=LINE('',#251,#31);
#14=LINE('',#253,#32);
#15=LINE('',#254,#33);
#16=LINE('',#257,#34);
#17=LINE('',#258,#35);
#18=LINE('',#260,#36);
#19=LINE('',#265,#37);
#20=LINE('',#267,#38);
#21=LINE('',#269,#39);
#22=LINE('',#270,#40);
#23=LINE('',#274,#41);
#24=LINE('',#276,#42);
#25=LINE('',#278,#43);
#26=LINE('',#279,#44);
#27=LINE('',#281,#45);
#28=LINE('',#282,#46);
#29=LINE('',#284,#47);
#30=LINE('',#286,#48);
#31=VECTOR('',#207,10.);
#32=VECTOR('',#208,10.);
#33=VECTOR('',#209,10.);
#34=VECTOR('',#212,10.);
#35=VECTOR('',#213,10.);
#36=VECTOR('',#216,10.);
#37=VECTOR('',#221,10.);
#38=VECTOR('',#222,10.);
#39=VECTOR('',#223,10.);
#40=VECTOR('',#224,10.);
#41=VECTOR('',#227,10.);
#42=VECTOR('',#228,10.);
#43=VECTOR('',#229,10.);
#44=VECTOR('',#230,10.);
#45=VECTOR('',#233,10.);
#46=VECTOR('',#234,10.);
#47=VECTOR('',#237,10.);
#48=VECTOR('',#240,10.);
#49=PLANE('',#189);
#50=PLANE('',#190);
#51=PLANE('',#191);
#52=PLANE('',#192);
#53=PLANE('',#193);
#54=PLANE('',#194);
#55=PLANE('',#195);
#56=PLANE('',#196);
#57=PLANE('',#197);
#58=PLANE('',#198);
#59=STYLED_ITEM('',(#307),#62);
#60=STYLED_ITEM('',(#307),#63);
#61=STYLED_ITEM('',(#307),#64);
#62=MANIFOLD_SOLID_BREP('Body1',#171);
#63=MANIFOLD_SOLID_BREP('Body3',#172);
#64=MANIFOLD_SOLID_BREP('Body4',#173);
#65=FACE_OUTER_BOUND('',#76,.T.);
#66=FACE_OUTER_BOUND('',#77,.T.);
#67=FACE_OUTER_BOUND('',#78,.T.);
#68=FACE_OUTER_BOUND('',#79,.T.);
#69=FACE_OUTER_BOUND('',#80,.T.);
#70=FACE_OUTER_BOUND('',#81,.T.);
#71=FACE_OUTER_BOUND('',#82,.T.);
#72=FACE_OUTER_BOUND('',#83,.T.);
#73=FACE_OUTER_BOUND('',#84,.T.);
#74=FACE_OUTER_BOUND('',#85,.T.);
#75=FACE_OUTER_BOUND('',#86,.T.);
#76=EDGE_LOOP('',(#121,#122));
#77=EDGE_LOOP('',(#123,#124,#125));
#78=EDGE_LOOP('',(#126,#127,#128));
#79=EDGE_LOOP('',(#129,#130,#131));
#80=EDGE_LOOP('',(#132,#133,#134));
#81=EDGE_LOOP('',(#135,#136,#137,#138));
#82=EDGE_LOOP('',(#139,#140,#141,#142));
#83=EDGE_LOOP('',(#143,#144,#145,#146));
#84=EDGE_LOOP('',(#147,#148,#149,#150));
#85=EDGE_LOOP('',(#151,#152,#153,#154));
#86=EDGE_LOOP('',(#155,#156,#157,#158));
#87=CIRCLE('',#188,5.);
#88=VERTEX_POINT('',#245);
#89=VERTEX_POINT('',#246);
#90=VERTEX_POINT('',#249);
#91=VERTEX_POINT('',#250);
#92=VERTEX_POINT('',#252);
#93=VERTEX_POINT('',#256);
#94=VERTEX_POINT('',#263);
#95=VERTEX_POINT('',#264);
#96=VERTEX_POINT('',#266);
#97=VERTEX_POINT('',#268);
#98=VERTEX_POINT('',#272);
#99=VERTEX_POINT('',#273);
#100=VERTEX_POINT('',#275);
#101=VERTEX_POINT('',#277);
#102=EDGE_CURVE('',#88,#89,#87,.T.);
#103=EDGE_CURVE('',#90,#91,#13,.T.);
#104=EDGE_CURVE('',#92,#90,#14,.T.);
#105=EDGE_CURVE('',#91,#92,#15,.T.);
#106=EDGE_CURVE('',#91,#93,#16,.T.);
#107=EDGE_CURVE('',#90,#93,#17,.T.);
#108=EDGE_CURVE('',#92,#93,#18,.T.);
#109=EDGE_CURVE('',#94,#95,#19,.T.);
#110=EDGE_CURVE('',#95,#96,#20,.T.);
#111=EDGE_CURVE('',#96,#97,#21,.T.);
#112=EDGE_CURVE('',#97,#94,#22,.T.);
#113=EDGE_CURVE('',#98,#99,#23,.T.);
#114=EDGE_CURVE('',#99,#100,#24,.T.);
#115=EDGE_CURVE('',#100,#101,#25,.T.);
#116=EDGE_CURVE('',#101,#98,#26,.T.);
#117=EDGE_CURVE('',#97,#100,#27,.T.);
#118=EDGE_CURVE('',#94,#99,#28,.T.);
#119=EDGE_CURVE('',#96,#101,#29,.T.);
#120=EDGE_CURVE('',#95,#98,#30,.T.);
#121=ORIENTED_EDGE('',*,*,#102,.T.);
#122=ORIENTED_EDGE('',*,*,#102,.F.);
#123=ORIENTED_EDGE('',*,*,#103,.F.);
#124=ORIENTED_EDGE('',*,*,#104,.F.);
#125=ORIENTED_EDGE('',*,*,#105,.F.);
#126=ORIENTED_EDGE('',*,*,#103,.T.);
#127=ORIENTED_EDGE('',*,*,#106,.T.);
#128=ORIENTED_EDGE('',*,*,#107,.F.);
#129=ORIENTED_EDGE('',*,*,#105,.T.);
#130=ORIENTED_EDGE('',*,*,#108,.T.);
#131=ORIENTED_EDGE('',*,*,#106,.F.);
#132=ORIENTED_EDGE('',*,*,#104,.T.);
#133=ORIENTED_EDGE('',*,*,#107,.T.);
#134=ORIENTED_EDGE('',*,*,#108,.F.);
#135=ORIENTED_EDGE('',*,*,#109,.T.);
#136=ORIENTED_EDGE('',*,*,#110,.T.);
#137=ORIENTED_EDGE('',*,*,#111,.T.);
#138=ORIENTED_EDGE('',*,*,#112,.T.);
#139=ORIENTED_EDGE('',*,*,#113,.T.);
#140=ORIENTED_EDGE('',*,*,#114,.T.);
#141=ORIENTED_EDGE('',*,*,#115,.T.);
#142=ORIENTED_EDGE('',*,*,#116,.T.);
#143=ORIENTED_EDGE('',*,*,#117,.T.);
#144=ORIENTED_EDGE('',*,*,#114,.F.);
#145=ORIENTED_EDGE('',*,*,#118,.F.);
#146=ORIENTED_EDGE('',*,*,#112,.F.);
#147=ORIENTED_EDGE('',*,*,#119,.T.);
#148=ORIENTED_EDGE('',*,*,#115,.F.);
#149=ORIENTED_EDGE('',*,*,#117,.F.);
#150=ORIENTED_EDGE('',*,*,#111,.F.);
#151=ORIENTED_EDGE('',*,*,#120,.T.);
#152=ORIENTED_EDGE('',*,*,#116,.F.);
#153=ORIENTED_EDGE('',*,*,#119,.F.);
#154=ORIENTED_EDGE('',*,*,#110,.F.);
#155=ORIENTED_EDGE('',*,*,#118,.T.);
#156=ORIENTED_EDGE('',*,*,#113,.F.);
#157=ORIENTED_EDGE('',*,*,#120,.F.);
#158=ORIENTED_EDGE('',*,*,#109,.F.);
#159=SPHERICAL_SURFACE('',#187,5.);
#160=ADVANCED_FACE('',(#65),#159,.T.);
#161=ADVANCED_FACE('',(#66),#49,.F.);
#162=ADVANCED_FACE('',(#67),#50,.T.);
#163=ADVANCED_FACE('',(#68),#51,.T.);
#164=ADVANCED_FACE('',(#69),#52,.T.);
#165=ADVANCED_FACE('',(#70),#53,.T.);
#166=ADVANCED_FACE('',(#71),#54,.F.);
#167=ADVANCED_FACE('',(#72),#55,.F.);
#168=ADVANCED_FACE('',(#73),#56,.F.);
#169=ADVANCED_FACE('',(#74),#57,.F.);
#170=ADVANCED_FACE('',(#75),#58,.F.);
#171=CLOSED_SHELL('',(#160));
#172=CLOSED_SHELL('',(#161,#162,#163,#164));
#173=CLOSED_SHELL('',(#165,#166,#167,#168,#169,#170));
#174=DERIVED_UNIT_ELEMENT(#176,1.);
#175=DERIVED_UNIT_ELEMENT(#293,-3.);
#176=(
MASS_UNIT()
NAMED_UNIT(*)
SI_UNIT(.KILO.,.GRAM.)
);
#177=DERIVED_UNIT((#174,#175));
#178=MEASURE_REPRESENTATION_ITEM('density measure',
POSITIVE_RATIO_MEASURE(7850.),#177);
#179=PROPERTY_DEFINITION_REPRESENTATION(#184,#181);
#180=PROPERTY_DEFINITION_REPRESENTATION(#185,#182);
#181=REPRESENTATION('material name',(#183),#290);
#182=REPRESENTATION('density',(#178),#290);
#183=DESCRIPTIVE_REPRESENTATION_ITEM('Steel','Steel');
#184=PROPERTY_DEFINITION('material property','material name',#300);
#185=PROPERTY_DEFINITION('material property','density of part',#300);
#186=AXIS2_PLACEMENT_3D('placement',#243,#199,#200);
#187=AXIS2_PLACEMENT_3D('',#244,#201,#202);
#188=AXIS2_PLACEMENT_3D('',#247,#203,#204);
#189=AXIS2_PLACEMENT_3D('',#248,#205,#206);
#190=AXIS2_PLACEMENT_3D('',#255,#210,#211);
#191=AXIS2_PLACEMENT_3D('',#259,#214,#215);
#192=AXIS2_PLACEMENT_3D('',#261,#217,#218);
#193=AXIS2_PLACEMENT_3D('',#262,#219,#220);
#194=AXIS2_PLACEMENT_3D('',#271,#225,#226);
#195=AXIS2_PLACEMENT_3D('',#280,#231,#232);
#196=AXIS2_PLACEMENT_3D('',#283,#235,#236);
#197=AXIS2_PLACEMENT_3D('',#285,#238,#239);
#198=AXIS2_PLACEMENT_3D('',#287,#241,#242);
#199=DIRECTION('axis',(0.,0.,1.));
#200=DIRECTION('refdir',(1.,0.,0.));
#201=DIRECTION('center_axis',(0.,0.,1.));
#202=DIRECTION('ref_axis',(1.,0.,0.));
#203=DIRECTION('center_axis',(0.,-1.,0.));
#204=DIRECTION('ref_axis',(-1.,0.,0.));
#205=DIRECTION('center_axis',(0.,0.,1.));
#206=DIRECTION('ref_axis',(1.,0.,0.));
#207=DIRECTION('',(0.447213595499958,-0.894427190999916,0.));
#208=DIRECTION('',(-0.998203466991462,0.0599152608792167,0.));
#209=DIRECTION('',(0.550989871491505,0.834511930120699,0.));
#210=DIRECTION('center_axis',(-0.848528137423857,-0.424264068711928,0.316227766016838));
#211=DIRECTION('ref_axis',(0.349215147884789,0.,0.937042571331636));
#212=DIRECTION('',(0.0332350069665871,0.553703659012868,0.832050294337844));
#213=DIRECTION('',(0.462903931390246,-0.305634189834452,0.832050294337844));
#214=DIRECTION('center_axis',(0.791687530129405,-0.522714888478989,0.316227766016838));
#215=DIRECTION('ref_axis',(0.370938370117366,0.,-0.928657485607408));
#216=DIRECTION('',(-0.496138938356834,-0.248069469178417,0.832050294337844));
#217=DIRECTION('center_axis',(0.0568406072944523,0.946978957190918,0.316227766016838));
#218=DIRECTION('ref_axis',(0.,-0.31673985017576,0.9485124497394));
#219=DIRECTION('center_axis',(0.,0.,1.));
#220=DIRECTION('ref_axis',(0.,-1.,0.));
#221=DIRECTION('',(1.,0.,0.));
#222=DIRECTION('',(0.,1.,0.));
#223=DIRECTION('',(-1.,0.,0.));
#224=DIRECTION('',(0.,-1.,0.));
#225=DIRECTION('center_axis',(0.,0.,1.));
#226=DIRECTION('ref_axis',(0.,-1.,0.));
#227=DIRECTION('',(-1.,0.,0.));
#228=DIRECTION('',(0.,1.,0.));
#229=DIRECTION('',(1.,0.,0.));
#230=DIRECTION('',(0.,-1.,0.));
#231=DIRECTION('center_axis',(1.,0.,0.));
#232=DIRECTION('ref_axis',(0.,0.,1.));
#233=DIRECTION('',(0.,0.,-1.));
#234=DIRECTION('',(0.,0.,-1.));
#235=DIRECTION('center_axis',(0.,-1.,0.));
#236=DIRECTION('ref_axis',(0.,0.,-1.));
#237=DIRECTION('',(0.,0.,-1.));
#238=DIRECTION('center_axis',(-1.,0.,0.));
#239=DIRECTION('ref_axis',(0.,0.,-1.));
#240=DIRECTION('',(0.,0.,-1.));
#241=DIRECTION('center_axis',(0.,1.,0.));
#242=DIRECTION('ref_axis',(0.,0.,1.));
#243=CARTESIAN_POINT('',(0.,0.,0.));
#244=CARTESIAN_POINT('Origin',(15.,15.,0.));
#245=CARTESIAN_POINT('',(15.,15.,5.));
#246=CARTESIAN_POINT('',(15.,15.,-5.));
#247=CARTESIAN_POINT('Origin',(15.,15.,0.));
#248=CARTESIAN_POINT('Origin',(10.0000001490116,5.00000007450581,0.));
#249=CARTESIAN_POINT('',(4.99292856828742,8.30593930345483,0.));
#250=CARTESIAN_POINT('',(9.64050858373631,-0.989220727442965,0.));
#251=CARTESIAN_POINT('',(4.99292856828742,8.30593930345483,0.));
#252=CARTESIAN_POINT('',(15.3665632950111,7.68328164750555,0.));
#253=CARTESIAN_POINT('',(15.3665632950111,7.68328164750555,0.));
#254=CARTESIAN_POINT('',(9.64050858373631,-0.989220727442965,0.));
#255=CARTESIAN_POINT('Origin',(4.99292856828742,8.30593930345483,0.));
#256=CARTESIAN_POINT('',(10.0000001490116,5.00000007450581,9.));
#257=CARTESIAN_POINT('',(9.64050858373631,-0.989220727442965,0.));
#258=CARTESIAN_POINT('',(4.99292856828742,8.30593930345483,0.));
#259=CARTESIAN_POINT('Origin',(9.64050858373631,-0.989220727442965,0.));
#260=CARTESIAN_POINT('',(15.3665632950111,7.68328164750555,0.));
#261=CARTESIAN_POINT('Origin',(15.3665632950111,7.68328164750555,0.));
#262=CARTESIAN_POINT('Origin',(42.5000005811453,5.50000013411045,7.));
#263=CARTESIAN_POINT('',(39.0000005811453,2.00000013411045,7.));
#264=CARTESIAN_POINT('',(46.0000005811453,2.00000013411045,7.));
#265=CARTESIAN_POINT('',(42.5000005811453,2.00000013411045,7.));
#266=CARTESIAN_POINT('',(46.0000005811453,9.00000013411045,7.));
#267=CARTESIAN_POINT('',(46.0000005811453,5.50000013411045,7.));
#268=CARTESIAN_POINT('',(39.0000005811453,9.00000013411045,7.));
#269=CARTESIAN_POINT('',(42.5000005811453,9.00000013411045,7.));
#270=CARTESIAN_POINT('',(39.0000005811453,5.50000013411045,7.));
#271=CARTESIAN_POINT('Origin',(42.5000005811453,5.50000013411045,0.));
#272=CARTESIAN_POINT('',(46.0000005811453,2.00000013411045,0.));
#273=CARTESIAN_POINT('',(39.0000005811453,2.00000013411045,0.));
#274=CARTESIAN_POINT('',(42.5000005811453,2.00000013411045,0.));
#275=CARTESIAN_POINT('',(39.0000005811453,9.00000013411045,0.));
#276=CARTESIAN_POINT('',(39.0000005811453,5.50000013411045,0.));
#277=CARTESIAN_POINT('',(46.0000005811453,9.00000013411045,0.));
#278=CARTESIAN_POINT('',(42.5000005811453,9.00000013411045,0.));
#279=CARTESIAN_POINT('',(46.0000005811453,5.50000013411045,0.));
#280=CARTESIAN_POINT('Origin',(39.0000005811453,5.50000013411045,3.5));
#281=CARTESIAN_POINT('',(39.0000005811453,9.00000013411045,3.5));
#282=CARTESIAN_POINT('',(39.0000005811453,2.00000013411045,3.5));
#283=CARTESIAN_POINT('Origin',(42.5000005811453,9.00000013411045,3.5));
#284=CARTESIAN_POINT('',(46.0000005811453,9.00000013411045,3.5));
#285=CARTESIAN_POINT('Origin',(46.0000005811453,5.50000013411045,3.5));
#286=CARTESIAN_POINT('',(46.0000005811453,2.00000013411045,3.5));
#287=CARTESIAN_POINT('Origin',(42.5000005811453,2.00000013411045,3.5));
#288=UNCERTAINTY_MEASURE_WITH_UNIT(LENGTH_MEASURE(0.01),#292,
'DISTANCE_ACCURACY_VALUE',
'Maximum model space distance between geometric entities at asserted c
onnectivities');
#289=UNCERTAINTY_MEASURE_WITH_UNIT(LENGTH_MEASURE(0.01),#292,
'DISTANCE_ACCURACY_VALUE',
'Maximum model space distance between geometric entities at asserted c
onnectivities');
#290=(
GEOMETRIC_REPRESENTATION_CONTEXT(3)
GLOBAL_UNCERTAINTY_ASSIGNED_CONTEXT((#288))
GLOBAL_UNIT_ASSIGNED_CONTEXT((#292,#294,#295))
REPRESENTATION_CONTEXT('','3D')
);
#291=(
GEOMETRIC_REPRESENTATION_CONTEXT(3)
GLOBAL_UNCERTAINTY_ASSIGNED_CONTEXT((#289))
GLOBAL_UNIT_ASSIGNED_CONTEXT((#292,#294,#295))
REPRESENTATION_CONTEXT('','3D')
);
#292=(
LENGTH_UNIT()
NAMED_UNIT(*)
SI_UNIT(.MILLI.,.METRE.)
);
#293=(
LENGTH_UNIT()
NAMED_UNIT(*)
SI_UNIT($,.METRE.)
);
#294=(
NAMED_UNIT(*)
PLANE_ANGLE_UNIT()
SI_UNIT($,.RADIAN.)
);
#295=(
NAMED_UNIT(*)
SI_UNIT($,.STERADIAN.)
SOLID_ANGLE_UNIT()
);
#296=SHAPE_DEFINITION_REPRESENTATION(#297,#298);
#297=PRODUCT_DEFINITION_SHAPE('',$,#300);
#298=SHAPE_REPRESENTATION('',(#186),#290);
#299=PRODUCT_DEFINITION_CONTEXT('part definition',#304,'design');
#300=PRODUCT_DEFINITION('energy tokens','energy tokens v2',#301,#299);
#301=PRODUCT_DEFINITION_FORMATION('',$,#306);
#302=PRODUCT_RELATED_PRODUCT_CATEGORY('energy tokens v2',
'energy tokens v2',(#306));
#303=APPLICATION_PROTOCOL_DEFINITION('international standard',
'automotive_design',2009,#304);
#304=APPLICATION_CONTEXT(
'Core Data for Automotive Mechanical Design Process');
#305=PRODUCT_CONTEXT('part definition',#304,'mechanical');
#306=PRODUCT('energy tokens','energy tokens v2',$,(#305));
#307=PRESENTATION_STYLE_ASSIGNMENT((#308));
#308=SURFACE_STYLE_USAGE(.BOTH.,#309);
#309=SURFACE_SIDE_STYLE('',(#310));
#310=SURFACE_STYLE_FILL_AREA(#311);
#311=FILL_AREA_STYLE('Steel - Satin',(#312));
#312=FILL_AREA_STYLE_COLOUR('Steel - Satin',#313);
#313=COLOUR_RGB('Steel - Satin',0.627450980392157,0.627450980392157,0.627450980392157);
ENDSEC;
END-ISO-10303-21;
