999
"DXF R12 Output" (www.mydxf.blogspot.com)
 0 
SECTION
 2 
HEADER
 9 
$ACADVER
 1 
AC1009
 9 
$EXTMIN
 10 
 0 
 20 
 0 
 9 
$EXTMAX
 10 
 8.5 
 20 
 11 
 0 
ENDSEC
 0 
SECTION
 2 
ENTITIES
0
LINE
8
Layer 1
10
0.846666
20
913.686000
11
-0.846666
21
911.992000
0
LINE
8
Layer 1
10
0.000000
20
914.250000
11
0.000000
21
911.428000
0
LINE
8
Layer 1
10
2.257780
20
911.710000
11
1.128890
21
910.581110
0
LINE
8
Layer 1
10
1.693330
20
912.275000
11
0.564440
21
911.146110
0
LINE
8
Layer 1
10
1.128890
20
912.839000
11
0.000000
21
911.710110
0
LINE
8
0
10
-1296.470000
20
1266.490000
11
-1343.458180
21
1266.240000
0
LINE
8
0
10
-1343.458180
20
1266.240000
11
-1390.403473
21
1265.490002
0
LINE
8
0
10
-1390.403473
20
1265.490002
11
-1437.305880
21
1264.240004
0
LINE
8
0
10
-1437.305880
20
1264.240004
11
-1484.165406
21
1262.490006
0
LINE
8
0
10
-1484.165406
20
1262.490006
11
-1530.982053
21
1260.240010
0
LINE
8
0
10
-1530.982053
20
1260.240010
11
-1577.755824
21
1257.490014
0
LINE
8
0
10
-1577.755824
20
1257.490014
11
-1624.486722
21
1254.240019
0
LINE
8
0
10
-1624.486722
20
1254.240019
11
-1671.174750
21
1250.490025
0
LINE
8
0
10
-1671.174750
20
1250.490025
11
-1717.819911
21
1246.240032
0
LINE
8
0
10
-1717.819911
20
1246.240032
11
-1764.422207
21
1241.490039
0
LINE
8
0
10
-1764.422207
20
1241.490039
11
-1810.981642
21
1236.240047
0
LINE
8
0
10
-1810.981642
20
1236.240047
11
-1857.498219
21
1230.490056
0
LINE
8
0
10
-1857.498219
20
1230.490056
11
-1903.971940
21
1224.240066
0
LINE
8
0
10
-1903.971940
20
1224.240066
11
-1950.402809
21
1217.490077
0
LINE
8
0
10
-1950.402809
20
1217.490077
11
-1996.790828
21
1210.240088
0
LINE
8
0
10
-1996.790828
20
1210.240088
11
-2043.136000
21
1202.490100
0
LINE
8
0
10
-1296.470000
20
1266.490000
11
-1296.470000
21
1245.150000
0
LINE
8
0
10
-1296.470000
20
1181.150000
11
-1343.458180
21
1180.899996
0
LINE
8
0
10
-1343.458180
20
1180.899996
11
-1390.403473
21
1180.149983
0
LINE
8
0
10
-1390.403473
20
1180.149983
11
-1437.305880
21
1178.899962
0
LINE
8
0
10
-1437.305880
20
1178.899962
11
-1484.165406
21
1177.149933
0
LINE
8
0
10
-1484.165406
20
1177.149933
11
-1530.982053
21
1174.899896
0
LINE
8
0
10
-1530.982053
20
1174.899896
11
-1577.755824
21
1172.149851
0
LINE
8
0
10
-1577.755824
20
1172.149851
11
-1624.486722
21
1168.899798
0
LINE
8
0
10
-1624.486722
20
1168.899798
11
-1671.174750
21
1165.149737
0
LINE
8
0
10
-1671.174750
20
1165.149737
11
-1717.819911
21
1160.899670
0
LINE
8
0
10
-1717.819911
20
1160.899670
11
-1764.422207
21
1156.149595
0
LINE
8
0
10
-1764.422207
20
1156.149595
11
-1810.981642
21
1150.899513
0
LINE
8
0
10
-1810.981642
20
1150.899513
11
-1857.498219
21
1145.149423
0
LINE
8
0
10
-1857.498219
20
1145.149423
11
-1903.971940
21
1138.899327
0
LINE
8
0
10
-1903.971940
20
1138.899327
11
-1950.402809
21
1132.149225
0
LINE
8
0
10
-1950.402809
20
1132.149225
11
-1996.790828
21
1124.899116
0
LINE
8
0
10
-1996.790828
20
1124.899116
11
-2043.136000
21
1117.149000
0
LINE
8
0
10
-2043.140000
20
1202.490000
11
-2043.140000
21
1117.150000
0
LINE
8
0
10
-1296.470000
20
1202.490000
11
-1296.470000
21
1181.150000
0
LINE
8
0
10
-1278.870000
20
1202.490000
11
-1296.470000
21
1202.490000
0
LINE
8
0
10
-1278.870000
20
1245.150000
11
-1278.870000
21
1202.490000
0
LINE
8
0
10
-819.589000
20
839.687000
11
-819.734791
21
848.598179
0
LINE
8
0
10
-819.734791
20
848.598179
11
-820.175012
21
857.460939
0
LINE
8
0
10
-820.175012
20
857.460939
11
-820.906156
21
866.269205
0
LINE
8
0
10
-820.906156
20
866.269205
11
-821.924718
21
875.016901
0
LINE
8
0
10
-821.924718
20
875.016901
11
-823.227191
21
883.697951
0
LINE
8
0
10
-823.227191
20
883.697951
11
-824.810069
21
892.306277
0
LINE
8
0
10
-824.810069
20
892.306277
11
-826.669844
21
900.835806
0
LINE
8
0
10
-826.669844
20
900.835806
11
-828.803012
21
909.280459
0
LINE
8
0
10
-828.803012
20
909.280459
11
-831.206064
21
917.634162
0
LINE
8
0
10
-831.206064
20
917.634162
11
-833.875496
21
925.890839
0
LINE
8
0
10
-833.875496
20
925.890839
11
-836.807801
21
934.044412
0
LINE
8
0
10
-836.807801
20
934.044412
11
-839.999472
21
942.088807
0
LINE
8
0
10
-839.999472
20
942.088807
11
-843.447002
21
950.017946
0
LINE
8
0
10
-843.447002
20
950.017946
11
-847.146887
21
957.825755
0
LINE
8
0
10
-847.146887
20
957.825755
11
-851.095618
21
965.506157
0
LINE
8
0
10
-851.095618
20
965.506157
11
-855.289691
21
973.053075
0
LINE
8
0
10
-855.289691
20
973.053075
11
-859.725598
21
980.460434
0
LINE
8
0
10
-859.725598
20
980.460434
11
-864.399833
21
987.722158
0
LINE
8
0
10
-864.399833
20
987.722158
11
-869.308889
21
994.832171
0
LINE
8
0
10
-869.308889
20
994.832171
11
-874.449261
21
1001.784396
0
LINE
8
0
10
-874.449261
20
1001.784396
11
-879.817442
21
1008.572758
0
LINE
8
0
10
-879.817442
20
1008.572758
11
-885.409925
21
1015.191181
0
LINE
8
0
10
-885.409925
20
1015.191181
11
-891.223205
21
1021.633588
0
LINE
8
0
10
-891.223205
20
1021.633588
11
-897.253775
21
1027.893903
0
LINE
8
0
10
-897.253775
20
1027.893903
11
-903.498128
21
1033.966051
0
LINE
8
0
10
-903.498128
20
1033.966051
11
-909.952758
21
1039.843955
0
LINE
8
0
10
-909.952758
20
1039.843955
11
-916.614158
21
1045.521539
0
LINE
8
0
10
-916.614158
20
1045.521539
11
-923.478824
21
1050.992727
0
LINE
8
0
10
-923.478824
20
1050.992727
11
-930.543247
21
1056.251443
0
LINE
8
0
10
-930.543247
20
1056.251443
11
-937.803921
21
1061.291612
0
LINE
8
0
10
-937.803921
20
1061.291612
11
-945.257341
21
1066.107156
0
LINE
8
0
10
-945.257341
20
1066.107156
11
-952.900000
21
1070.692000
0
LINE
8
0
10
-952.900000
20
1070.690000
11
-960.691035
21
1075.017824
0
LINE
8
0
10
-960.691035
20
1075.017824
11
-968.587300
21
1079.066434
0
LINE
8
0
10
-968.587300
20
1079.066434
11
-976.581780
21
1082.835829
0
LINE
8
0
10
-976.581780
20
1082.835829
11
-984.667460
21
1086.326009
0
LINE
8
0
10
-984.667460
20
1086.326009
11
-992.837324
21
1089.536976
0
LINE
8
0
10
-992.837324
20
1089.536976
11
-1001.084356
21
1092.468727
0
LINE
8
0
10
-1001.084356
20
1092.468727
11
-1009.401542
21
1095.121265
0
LINE
8
0
10
-1009.401542
20
1095.121265
11
-1017.781866
21
1097.494587
0
LINE
8
0
10
-1017.781866
20
1097.494587
11
-1026.218312
21
1099.588696
0
LINE
8
0
10
-1026.218312
20
1099.588696
11
-1034.703865
21
1101.403590
0
LINE
8
0
10
-1034.703865
20
1101.403590
11
-1043.231511
21
1102.939269
0
LINE
8
0
10
-1043.231511
20
1102.939269
11
-1051.794232
21
1104.195734
0
LINE
8
0
10
-1051.794232
20
1104.195734
11
-1060.385015
21
1105.172985
0
LINE
8
0
10
-1060.385015
20
1105.172985
11
-1068.996843
21
1105.871021
0
LINE
8
0
10
-1068.996843
20
1105.871021
11
-1077.622702
21
1106.289843
0
LINE
8
0
10
-1077.622702
20
1106.289843
11
-1086.255575
21
1106.429450
0
LINE
8
0
10
-1086.255575
20
1106.429450
11
-1094.888448
21
1106.289843
0
LINE
8
0
10
-1094.888448
20
1106.289843
11
-1103.514304
21
1105.871021
0
LINE
8
0
10
-1103.514304
20
1105.871021
11
-1112.126130
21
1105.172985
0
LINE
8
0
10
-1112.126130
20
1105.172985
11
-1120.716908
21
1104.195734
0
LINE
8
0
10
-1120.716908
20
1104.195734
11
-1129.279625
21
1102.939269
0
LINE
8
0
10
-1129.279625
20
1102.939269
11
-1137.807263
21
1101.403590
0
LINE
8
0
10
-1137.807263
20
1101.403590
11
-1146.292809
21
1099.588696
0
LINE
8
0
10
-1146.292809
20
1099.588696
11
-1154.729247
21
1097.494587
0
LINE
8
0
10
-1154.729247
20
1097.494587
11
-1163.109561
21
1095.121265
0
LINE
8
0
10
-1163.109561
20
1095.121265
11
-1171.426735
21
1092.468727
0
LINE
8
0
10
-1171.426735
20
1092.468727
11
-1179.673756
21
1089.536976
0
LINE
8
0
10
-1179.673756
20
1089.536976
11
-1187.843606
21
1086.326009
0
LINE
8
0
10
-1187.843606
20
1086.326009
11
-1195.929271
21
1082.835829
0
LINE
8
0
10
-1195.929271
20
1082.835829
11
-1203.923735
21
1079.066434
0
LINE
8
0
10
-1203.923735
20
1079.066434
11
-1211.819983
21
1075.017824
0
LINE
8
0
10
-1211.819983
20
1075.017824
11
-1219.611000
21
1070.690000
0
LINE
8
0
10
-1219.610000
20
1070.690000
11
-1227.252642
21
1066.105193
0
LINE
8
0
10
-1227.252642
20
1066.105193
11
-1234.706049
21
1061.289686
0
LINE
8
0
10
-1234.706049
20
1061.289686
11
-1241.966715
21
1056.249555
0
LINE
8
0
10
-1241.966715
20
1056.249555
11
-1249.031133
21
1050.990875
0
LINE
8
0
10
-1249.031133
20
1050.990875
11
-1255.895796
21
1045.519722
0
LINE
8
0
10
-1255.895796
20
1045.519722
11
-1262.557197
21
1039.842172
0
LINE
8
0
10
-1262.557197
20
1039.842172
11
-1269.011831
21
1033.964301
0
LINE
8
0
10
-1269.011831
20
1033.964301
11
-1275.256189
21
1027.892184
0
LINE
8
0
10
-1275.256189
20
1027.892184
11
-1281.286766
21
1021.631899
0
LINE
8
0
10
-1281.286766
20
1021.631899
11
-1287.100055
21
1015.189519
0
LINE
8
0
10
-1287.100055
20
1015.189519
11
-1292.692549
21
1008.571122
0
LINE
8
0
10
-1292.692549
20
1008.571122
11
-1298.060741
21
1001.782783
0
LINE
8
0
10
-1298.060741
20
1001.782783
11
-1303.201125
21
994.830578
0
LINE
8
0
10
-1303.201125
20
994.830578
11
-1308.110195
21
987.720583
0
LINE
8
0
10
-1308.110195
20
987.720583
11
-1312.784443
21
980.458873
0
LINE
8
0
10
-1312.784443
20
980.458873
11
-1317.220362
21
973.051525
0
LINE
8
0
10
-1317.220362
20
973.051525
11
-1321.414447
21
965.504614
0
LINE
8
0
10
-1321.414447
20
965.504614
11
-1325.363191
21
957.824216
0
LINE
8
0
10
-1325.363191
20
957.824216
11
-1329.063086
21
950.016408
0
LINE
8
0
10
-1329.063086
20
950.016408
11
-1332.510626
21
942.087264
0
LINE
8
0
10
-1332.510626
20
942.087264
11
-1335.702305
21
934.042860
0
LINE
8
0
10
-1335.702305
20
934.042860
11
-1338.634615
21
925.889274
0
LINE
8
0
10
-1338.634615
20
925.889274
11
-1341.304051
21
917.632579
0
LINE
8
0
10
-1341.304051
20
917.632579
11
-1343.707105
21
909.278853
0
LINE
8
0
10
-1343.707105
20
909.278853
11
-1345.840270
21
900.834171
0
LINE
8
0
10
-1345.840270
20
900.834171
11
-1347.700041
21
892.304609
0
LINE
8
0
10
-1347.700041
20
892.304609
11
-1349.282911
21
883.696242
0
LINE
8
0
10
-1349.282911
20
883.696242
11
-1350.585372
21
875.015147
0
LINE
8
0
10
-1350.585372
20
875.015147
11
-1351.603918
21
866.267400
0
LINE
8
0
10
-1351.603918
20
866.267400
11
-1352.335042
21
857.459075
0
LINE
8
0
10
-1352.335042
20
857.459075
11
-1352.775239
21
848.596250
0
LINE
8
0
10
-1352.775239
20
848.596250
11
-1352.921000
21
839.685000
0
LINE
8
0
10
-1352.920000
20
839.687000
11
-1352.774209
21
830.775821
0
LINE
8
0
10
-1352.774209
20
830.775821
11
-1352.333988
21
821.913061
0
LINE
8
0
10
-1352.333988
20
821.913061
11
-1351.602844
21
813.104795
0
LINE
8
0
10
-1351.602844
20
813.104795
11
-1350.584282
21
804.357099
0
LINE
8
0
10
-1350.584282
20
804.357099
11
-1349.281809
21
795.676049
0
LINE
8
0
10
-1349.281809
20
795.676049
11
-1347.698931
21
787.067723
0
LINE
8
0
10
-1347.698931
20
787.067723
11
-1345.839156
21
778.538194
0
LINE
8
0
10
-1345.839156
20
778.538194
11
-1343.705988
21
770.093541
0
LINE
8
0
10
-1343.705988
20
770.093541
11
-1341.302936
21
761.739838
0
LINE
8
0
10
-1341.302936
20
761.739838
11
-1338.633504
21
753.483161
0
LINE
8
0
10
-1338.633504
20
753.483161
11
-1335.701199
21
745.329588
0
LINE
8
0
10
-1335.701199
20
745.329588
11
-1332.509528
21
737.285193
0
LINE
8
0
10
-1332.509528
20
737.285193
11
-1329.061998
21
729.356054
0
LINE
8
0
10
-1329.061998
20
729.356054
11
-1325.362113
21
721.548245
0
LINE
8
0
10
-1325.362113
20
721.548245
11
-1321.413382
21
713.867843
0
LINE
8
0
10
-1321.413382
20
713.867843
11
-1317.219309
21
706.320925
0
LINE
8
0
10
-1317.219309
20
706.320925
11
-1312.783402
21
698.913566
0
LINE
8
0
10
-1312.783402
20
698.913566
11
-1308.109167
21
691.651842
0
LINE
8
0
10
-1308.109167
20
691.651842
11
-1303.200111
21
684.541829
0
LINE
8
0
10
-1303.200111
20
684.541829
11
-1298.059739
21
677.589604
0
LINE
8
0
10
-1298.059739
20
677.589604
11
-1292.691558
21
670.801242
0
LINE
8
0
10
-1292.691558
20
670.801242
11
-1287.099075
21
664.182819
0
LINE
8
0
10
-1287.099075
20
664.182819
11
-1281.285795
21
657.740412
0
LINE
8
0
10
-1281.285795
20
657.740412
11
-1275.255225
21
651.480097
0
LINE
8
0
10
-1275.255225
20
651.480097
11
-1269.010872
21
645.407949
0
LINE
8
0
10
-1269.010872
20
645.407949
11
-1262.556242
21
639.530045
0
LINE
8
0
10
-1262.556242
20
639.530045
11
-1255.894842
21
633.852461
0
LINE
8
0
10
-1255.894842
20
633.852461
11
-1249.030176
21
628.381273
0
LINE
8
0
10
-1249.030176
20
628.381273
11
-1241.965753
21
623.122557
0
LINE
8
0
10
-1241.965753
20
623.122557
11
-1234.705079
21
618.082388
0
LINE
8
0
10
-1234.705079
20
618.082388
11
-1227.251659
21
613.266844
0
LINE
8
0
10
-1227.251659
20
613.266844
11
-1219.609000
21
608.682000
0
LINE
8
0
10
-1219.610000
20
608.683000
11
-1211.818965
21
604.355176
0
LINE
8
0
10
-1211.818965
20
604.355176
11
-1203.922700
21
600.306566
0
LINE
8
0
10
-1203.922700
20
600.306566
11
-1195.928220
21
596.537171
0
LINE
8
0
10
-1195.928220
20
596.537171
11
-1187.842540
21
593.046991
0
LINE
8
0
10
-1187.842540
20
593.046991
11
-1179.672676
21
589.836024
0
LINE
8
0
10
-1179.672676
20
589.836024
11
-1171.425644
21
586.904273
0
LINE
8
0
10
-1171.425644
20
586.904273
11
-1163.108458
21
584.251735
0
LINE
8
0
10
-1163.108458
20
584.251735
11
-1154.728134
21
581.878412
0
LINE
8
0
10
-1154.728134
20
581.878412
11
-1146.291688
21
579.784304
0
LINE
8
0
10
-1146.291688
20
579.784304
11
-1137.806135
21
577.969410
0
LINE
8
0
10
-1137.806135
20
577.969410
11
-1129.278489
21
576.433731
0
LINE
8
0
10
-1129.278489
20
576.433731
11
-1120.715768
21
575.177266
0
LINE
8
0
10
-1120.715768
20
575.177266
11
-1112.124985
21
574.200015
0
LINE
8
0
10
-1112.124985
20
574.200015
11
-1103.513157
21
573.501979
0
LINE
8
0
10
-1103.513157
20
573.501979
11
-1094.887298
21
573.083157
0
LINE
8
0
10
-1094.887298
20
573.083157
11
-1086.254425
21
572.943550
0
LINE
8
0
10
-1086.254425
20
572.943550
11
-1077.621552
21
573.083157
0
LINE
8
0
10
-1077.621552
20
573.083157
11
-1068.995696
21
573.501979
0
LINE
8
0
10
-1068.995696
20
573.501979
11
-1060.383870
21
574.200015
0
LINE
8
0
10
-1060.383870
20
574.200015
11
-1051.793092
21
575.177266
0
LINE
8
0
10
-1051.793092
20
575.177266
11
-1043.230375
21
576.433731
0
LINE
8
0
10
-1043.230375
20
576.433731
11
-1034.702737
21
577.969410
0
LINE
8
0
10
-1034.702737
20
577.969410
11
-1026.217191
21
579.784304
0
LINE
8
0
10
-1026.217191
20
579.784304
11
-1017.780753
21
581.878412
0
LINE
8
0
10
-1017.780753
20
581.878412
11
-1009.400439
21
584.251735
0
LINE
8
0
10
-1009.400439
20
584.251735
11
-1001.083265
21
586.904273
0
LINE
8
0
10
-1001.083265
20
586.904273
11
-992.836244
21
589.836024
0
LINE
8
0
10
-992.836244
20
589.836024
11
-984.666394
21
593.046991
0
LINE
8
0
10
-984.666394
20
593.046991
11
-976.580729
21
596.537171
0
LINE
8
0
10
-976.580729
20
596.537171
11
-968.586265
21
600.306566
0
LINE
8
0
10
-968.586265
20
600.306566
11
-960.690017
21
604.355176
0
LINE
8
0
10
-960.690017
20
604.355176
11
-952.899000
21
608.683000
0
LINE
8
0
10
-952.900000
20
608.683000
11
-945.257367
21
613.267807
0
LINE
8
0
10
-945.257367
20
613.267807
11
-937.803967
21
618.083314
0
LINE
8
0
10
-937.803967
20
618.083314
11
-930.543308
21
623.123445
0
LINE
8
0
10
-930.543308
20
623.123445
11
-923.478896
21
628.382125
0
LINE
8
0
10
-923.478896
20
628.382125
11
-916.614237
21
633.853278
0
LINE
8
0
10
-916.614237
20
633.853278
11
-909.952840
21
639.530828
0
LINE
8
0
10
-909.952840
20
639.530828
11
-903.498209
21
645.408699
0
LINE
8
0
10
-903.498209
20
645.408699
11
-897.253853
21
651.480816
0
LINE
8
0
10
-897.253853
20
651.480816
11
-891.223278
21
657.741101
0
LINE
8
0
10
-891.223278
20
657.741101
11
-885.409990
21
664.183481
0
LINE
8
0
10
-885.409990
20
664.183481
11
-879.817496
21
670.801878
0
LINE
8
0
10
-879.817496
20
670.801878
11
-874.449303
21
677.590217
0
LINE
8
0
10
-874.449303
20
677.590217
11
-869.308917
21
684.542422
0
LINE
8
0
10
-869.308917
20
684.542422
11
-864.399847
21
691.652417
0
LINE
8
0
10
-864.399847
20
691.652417
11
-859.725597
21
698.914127
0
LINE
8
0
10
-859.725597
20
698.914127
11
-855.289675
21
706.321475
0
LINE
8
0
10
-855.289675
20
706.321475
11
-851.095588
21
713.868386
0
LINE
8
0
10
-851.095588
20
713.868386
11
-847.146842
21
721.548784
0
LINE
8
0
10
-847.146842
20
721.548784
11
-843.446944
21
729.356592
0
LINE
8
0
10
-843.446944
20
729.356592
11
-839.999400
21
737.285736
0
LINE
8
0
10
-839.999400
20
737.285736
11
-836.807719
21
745.330140
0
LINE
8
0
10
-836.807719
20
745.330140
11
-833.875405
21
753.483726
0
LINE
8
0
10
-833.875405
20
753.483726
11
-831.205966
21
761.740421
0
LINE
8
0
10
-831.205966
20
761.740421
11
-828.802909
21
770.094147
0
LINE
8
0
10
-828.802909
20
770.094147
11
-826.669741
21
778.538829
0
LINE
8
0
10
-826.669741
20
778.538829
11
-824.809967
21
787.068391
0
LINE
8
0
10
-824.809967
20
787.068391
11
-823.227096
21
795.676758
0
LINE
8
0
10
-823.227096
20
795.676758
11
-821.924632
21
804.357853
0
LINE
8
0
10
-821.924632
20
804.357853
11
-820.906085
21
813.105600
0
LINE
8
0
10
-820.906085
20
813.105600
11
-820.174959
21
821.913925
0
LINE
8
0
10
-820.174959
20
821.913925
11
-819.734762
21
830.776750
0
LINE
8
0
10
-819.734762
20
830.776750
11
-819.589000
21
839.688000
0
LINE
8
0
10
-1296.470000
20
1245.150000
11
-1278.870000
21
1245.150000
0
LINE
8
0
10
-915.993000
20
851.421000
11
-916.440585
21
856.716033
0
LINE
8
0
10
-916.440585
20
856.716033
11
-917.049899
21
861.974826
0
LINE
8
0
10
-917.049899
20
861.974826
11
-917.819005
21
867.194275
0
LINE
8
0
10
-917.819005
20
867.194275
11
-918.745963
21
872.371274
0
LINE
8
0
10
-918.745963
20
872.371274
11
-919.828838
21
877.502719
0
LINE
8
0
10
-919.828838
20
877.502719
11
-921.065692
21
882.585507
0
LINE
8
0
10
-921.065692
20
882.585507
11
-922.454586
21
887.616532
0
LINE
8
0
10
-922.454586
20
887.616532
11
-923.993583
21
892.592691
0
LINE
8
0
10
-923.993583
20
892.592691
11
-925.680746
21
897.510878
0
LINE
8
0
10
-925.680746
20
897.510878
11
-927.514136
21
902.367990
0
LINE
8
0
10
-927.514136
20
902.367990
11
-929.491817
21
907.160921
0
LINE
8
0
10
-929.491817
20
907.160921
11
-931.611851
21
911.886568
0
LINE
8
0
10
-931.611851
20
911.886568
11
-933.872300
21
916.541827
0
LINE
8
0
10
-933.872300
20
916.541827
11
-936.271227
21
921.123592
0
LINE
8
0
10
-936.271227
20
921.123592
11
-938.806694
21
925.628759
0
LINE
8
0
10
-938.806694
20
925.628759
11
-941.476763
21
930.054225
0
LINE
8
0
10
-941.476763
20
930.054225
11
-944.279496
21
934.396884
0
LINE
8
0
10
-944.279496
20
934.396884
11
-947.212957
21
938.653632
0
LINE
8
0
10
-947.212957
20
938.653632
11
-950.275207
21
942.821365
0
LINE
8
0
10
-950.275207
20
942.821365
11
-953.464310
21
946.896979
0
LINE
8
0
10
-953.464310
20
946.896979
11
-956.778326
21
950.877368
0
LINE
8
0
10
-956.778326
20
950.877368
11
-960.215320
21
954.759428
0
LINE
8
0
10
-960.215320
20
954.759428
11
-963.773352
21
958.540056
0
LINE
8
0
10
-963.773352
20
958.540056
11
-967.450486
21
962.216147
0
LINE
8
0
10
-967.450486
20
962.216147
11
-971.244784
21
965.784596
0
LINE
8
0
10
-971.244784
20
965.784596
11
-975.154308
21
969.242298
0
LINE
8
0
10
-975.154308
20
969.242298
11
-979.177121
21
972.586151
0
LINE
8
0
10
-979.177121
20
972.586151
11
-983.311285
21
975.813048
0
LINE
8
0
10
-983.311285
20
975.813048
11
-987.554862
21
978.919886
0
LINE
8
0
10
-987.554862
20
978.919886
11
-991.905916
21
981.903560
0
LINE
8
0
10
-991.905916
20
981.903560
11
-996.362508
21
984.760966
0
LINE
8
0
10
-996.362508
20
984.760966
11
-1000.922700
21
987.489000
0
LINE
8
0
10
-1000.920000
20
987.489000
11
-1005.562684
21
990.074189
0
LINE
8
0
10
-1005.562684
20
990.074189
11
-1010.265606
21
992.504973
0
LINE
8
0
10
-1010.265606
20
992.504973
11
-1015.025106
21
994.781225
0
LINE
8
0
10
-1015.025106
20
994.781225
11
-1019.837529
21
996.902820
0
LINE
8
0
10
-1019.837529
20
996.902820
11
-1024.699217
21
998.869631
0
LINE
8
0
10
-1024.699217
20
998.869631
11
-1029.606512
21
1000.681534
0
LINE
8
0
10
-1029.606512
20
1000.681534
11
-1034.555757
21
1002.338402
0
LINE
8
0
10
-1034.555757
20
1002.338402
11
-1039.543295
21
1003.840109
0
LINE
8
0
10
-1039.543295
20
1003.840109
11
-1044.565469
21
1005.186529
0
LINE
8
0
10
-1044.565469
20
1005.186529
11
-1049.618621
21
1006.377536
0
LINE
8
0
10
-1049.618621
20
1006.377536
11
-1054.699093
21
1007.413005
0
LINE
8
0
10
-1054.699093
20
1007.413005
11
-1059.803229
21
1008.292810
0
LINE
8
0
10
-1059.803229
20
1008.292810
11
-1064.927372
21
1009.016825
0
LINE
8
0
10
-1064.927372
20
1009.016825
11
-1070.067863
21
1009.584923
0
LINE
8
0
10
-1070.067863
20
1009.584923
11
-1075.221046
21
1009.996980
0
LINE
8
0
10
-1075.221046
20
1009.996980
11
-1080.383263
21
1010.252869
0
LINE
8
0
10
-1080.383263
20
1010.252869
11
-1085.550856
21
1010.352464
0
LINE
8
0
10
-1085.550856
20
1010.352464
11
-1090.720169
21
1010.295639
0
LINE
8
0
10
-1090.720169
20
1010.295639
11
-1095.887545
21
1010.082269
0
LINE
8
0
10
-1095.887545
20
1010.082269
11
-1101.049325
21
1009.712228
0
LINE
8
0
10
-1101.049325
20
1009.712228
11
-1106.201853
21
1009.185390
0
LINE
8
0
10
-1106.201853
20
1009.185390
11
-1111.341471
21
1008.501628
0
LINE
8
0
10
-1111.341471
20
1008.501628
11
-1116.464522
21
1007.660817
0
LINE
8
0
10
-1116.464522
20
1007.660817
11
-1121.567348
21
1006.662832
0
LINE
8
0
10
-1121.567348
20
1006.662832
11
-1126.646293
21
1005.507546
0
LINE
8
0
10
-1126.646293
20
1005.507546
11
-1131.697699
21
1004.194833
0
LINE
8
0
10
-1131.697699
20
1004.194833
11
-1136.717908
21
1002.724568
0
LINE
8
0
10
-1136.717908
20
1002.724568
11
-1141.703263
21
1001.096625
0
LINE
8
0
10
-1141.703263
20
1001.096625
11
-1146.650107
21
999.310877
0
LINE
8
0
10
-1146.650107
20
999.310877
11
-1151.554783
21
997.367199
0
LINE
8
0
10
-1151.554783
20
997.367199
11
-1156.413633
21
995.265466
0
LINE
8
0
10
-1156.413633
20
995.265466
11
-1161.223000
21
993.005550
0
LINE
8
0
10
-1181.550000
20
981.273000
11
-1185.911864
21
978.237877
0
LINE
8
0
10
-1185.911864
20
978.237877
11
-1190.161477
21
975.080812
0
LINE
8
0
10
-1190.161477
20
975.080812
11
-1194.297121
21
971.805034
0
LINE
8
0
10
-1194.297121
20
971.805034
11
-1198.317075
21
968.413775
0
LINE
8
0
10
-1198.317075
20
968.413775
11
-1202.219620
21
964.910265
0
LINE
8
0
10
-1202.219620
20
964.910265
11
-1206.003036
21
961.297733
0
LINE
8
0
10
-1206.003036
20
961.297733
11
-1209.665604
21
957.579411
0
LINE
8
0
10
-1209.665604
20
957.579411
11
-1213.205605
21
953.758528
0
LINE
8
0
10
-1213.205605
20
953.758528
11
-1216.621318
21
949.838315
0
LINE
8
0
10
-1216.621318
20
949.838315
11
-1219.911023
21
945.822002
0
LINE
8
0
10
-1219.911023
20
945.822002
11
-1223.073002
21
941.712820
0
LINE
8
0
10
-1223.073002
20
941.712820
11
-1226.105535
21
937.513998
0
LINE
8
0
10
-1226.105535
20
937.513998
11
-1229.006902
21
933.228767
0
LINE
8
0
10
-1229.006902
20
933.228767
11
-1231.775384
21
928.860358
0
LINE
8
0
10
-1231.775384
20
928.860358
11
-1234.409261
21
924.412001
0
LINE
8
0
10
-1234.409261
20
924.412001
11
-1236.906812
21
919.886925
0
LINE
8
0
10
-1236.906812
20
919.886925
11
-1239.266320
21
915.288362
0
LINE
8
0
10
-1239.266320
20
915.288362
11
-1241.486064
21
910.619541
0
LINE
8
0
10
-1241.486064
20
910.619541
11
-1243.564324
21
905.883693
0
LINE
8
0
10
-1243.564324
20
905.883693
11
-1245.499382
21
901.084049
0
LINE
8
0
10
-1245.499382
20
901.084049
11
-1247.289517
21
896.223838
0
LINE
8
0
10
-1247.289517
20
896.223838
11
-1248.933009
21
891.306291
0
LINE
8
0
10
-1248.933009
20
891.306291
11
-1250.428140
21
886.334638
0
LINE
8
0
10
-1250.428140
20
886.334638
11
-1251.773189
21
881.312109
0
LINE
8
0
10
-1251.773189
20
881.312109
11
-1252.966437
21
876.241936
0
LINE
8
0
10
-1252.966437
20
876.241936
11
-1254.006165
21
871.127347
0
LINE
8
0
10
-1254.006165
20
871.127347
11
-1254.890652
21
865.971574
0
LINE
8
0
10
-1254.890652
20
865.971574
11
-1255.618180
21
860.777846
0
LINE
8
0
10
-1255.618180
20
860.777846
11
-1256.187028
21
855.549395
0
LINE
8
0
10
-1256.187028
20
855.549395
11
-1256.595477
21
850.289450
0
LINE
8
0
10
-1256.595477
20
850.289450
11
-1256.841808
21
845.001241
0
LINE
8
0
10
-1256.841808
20
845.001241
11
-1256.924300
21
839.688000
0
LINE
8
0
10
-1256.920000
20
839.687000
11
-1256.837508
21
834.373712
0
LINE
8
0
10
-1256.837508
20
834.373712
11
-1256.591177
21
829.085459
0
LINE
8
0
10
-1256.591177
20
829.085459
11
-1256.182728
21
823.825470
0
LINE
8
0
10
-1256.182728
20
823.825470
11
-1255.613880
21
818.596977
0
LINE
8
0
10
-1255.613880
20
818.596977
11
-1254.886352
21
813.403210
0
LINE
8
0
10
-1254.886352
20
813.403210
11
-1254.001865
21
808.247399
0
LINE
8
0
10
-1254.001865
20
808.247399
11
-1252.962137
21
803.132774
0
LINE
8
0
10
-1252.962137
20
803.132774
11
-1251.768889
21
798.062567
0
LINE
8
0
10
-1251.768889
20
798.062567
11
-1250.423840
21
793.040008
0
LINE
8
0
10
-1250.423840
20
793.040008
11
-1248.928709
21
788.068327
0
LINE
8
0
10
-1248.928709
20
788.068327
11
-1247.285217
21
783.150754
0
LINE
8
0
10
-1247.285217
20
783.150754
11
-1245.495082
21
778.290521
0
LINE
8
0
10
-1245.495082
20
778.290521
11
-1243.560024
21
773.490857
0
LINE
8
0
10
-1243.560024
20
773.490857
11
-1241.481764
21
768.754993
0
LINE
8
0
10
-1241.481764
20
768.754993
11
-1239.262020
21
764.086160
0
LINE
8
0
10
-1239.262020
20
764.086160
11
-1236.902513
21
759.487588
0
LINE
8
0
10
-1236.902513
20
759.487588
11
-1234.404961
21
754.962507
0
LINE
8
0
10
-1234.404961
20
754.962507
11
-1231.771084
21
750.514148
0
LINE
8
0
10
-1231.771084
20
750.514148
11
-1229.002602
21
746.145742
0
LINE
8
0
10
-1229.002602
20
746.145742
11
-1226.101235
21
741.860519
0
LINE
8
0
10
-1226.101235
20
741.860519
11
-1223.068702
21
737.661709
0
LINE
8
0
10
-1223.068702
20
737.661709
11
-1219.906723
21
733.552543
0
LINE
8
0
10
-1219.906723
20
733.552543
11
-1216.617018
21
729.536251
0
LINE
8
0
10
-1216.617018
20
729.536251
11
-1213.201305
21
725.616064
0
LINE
8
0
10
-1213.201305
20
725.616064
11
-1209.661304
21
721.795213
0
LINE
8
0
10
-1209.661304
20
721.795213
11
-1205.998736
21
718.076927
0
LINE
8
0
10
-1205.998736
20
718.076927
11
-1202.215320
21
714.464437
0
LINE
8
0
10
-1202.215320
20
714.464437
11
-1198.312775
21
710.960974
0
LINE
8
0
10
-1198.312775
20
710.960974
11
-1194.292821
21
707.569769
0
LINE
8
0
10
-1194.292821
20
707.569769
11
-1190.157177
21
704.294051
0
LINE
8
0
10
-1190.157177
20
704.294051
11
-1185.907564
21
701.137051
0
LINE
8
0
10
-1185.907564
20
701.137051
11
-1181.545700
21
698.102000
0
LINE
8
0
10
-1161.220000
20
993.005000
11
-1190.297300
21
1043.369800
0
LINE
8
0
10
-1190.297300
20
1043.369800
11
-1210.622900
21
1031.636400
0
LINE
8
0
10
-1210.622900
20
1031.636400
11
-1181.542700
21
981.271600
0
LINE
8
0
10
-1161.230000
20
686.369000
11
-1156.420587
21
684.109089
0
LINE
8
0
10
-1156.420587
20
684.109089
11
-1151.561693
21
682.007358
0
LINE
8
0
10
-1151.561693
20
682.007358
11
-1146.656975
21
680.063683
0
LINE
8
0
10
-1146.656975
20
680.063683
11
-1141.710091
21
678.277938
0
LINE
8
0
10
-1141.710091
20
678.277938
11
-1136.724698
21
676.649995
0
LINE
8
0
10
-1136.724698
20
676.649995
11
-1131.704453
21
675.179731
0
LINE
8
0
10
-1131.704453
20
675.179731
11
-1126.653014
21
673.867018
0
LINE
8
0
10
-1126.653014
20
673.867018
11
-1121.574039
21
672.711732
0
LINE
8
0
10
-1121.574039
20
672.711732
11
-1116.471185
21
671.713746
0
LINE
8
0
10
-1116.471185
20
671.713746
11
-1111.348109
21
670.872934
0
LINE
8
0
10
-1111.348109
20
670.872934
11
-1106.208468
21
670.189171
0
LINE
8
0
10
-1106.208468
20
670.189171
11
-1101.055921
21
669.662331
0
LINE
8
0
10
-1101.055921
20
669.662331
11
-1095.894124
21
669.292287
0
LINE
8
0
10
-1095.894124
20
669.292287
11
-1090.726736
21
669.078915
0
LINE
8
0
10
-1090.726736
20
669.078915
11
-1085.557413
21
669.022089
0
LINE
8
0
10
-1085.557413
20
669.022089
11
-1080.389813
21
669.121681
0
LINE
8
0
10
-1080.389813
20
669.121681
11
-1075.227593
21
669.377568
0
LINE
8
0
10
-1075.227593
20
669.377568
11
-1070.074411
21
669.789622
0
LINE
8
0
10
-1070.074411
20
669.789622
11
-1064.933924
21
670.357718
0
LINE
8
0
10
-1064.933924
20
670.357718
11
-1059.809790
21
671.081731
0
LINE
8
0
10
-1059.809790
20
671.081731
11
-1054.705666
21
671.961534
0
LINE
8
0
10
-1054.705666
20
671.961534
11
-1049.625210
21
672.997002
0
LINE
8
0
10
-1049.625210
20
672.997002
11
-1044.572079
21
674.188008
0
LINE
8
0
10
-1044.572079
20
674.188008
11
-1039.549930
21
675.534427
0
LINE
8
0
10
-1039.549930
20
675.534427
11
-1034.562421
21
677.036134
0
LINE
8
0
10
-1034.562421
20
677.036134
11
-1029.613209
21
678.693002
0
LINE
8
0
10
-1029.613209
20
678.693002
11
-1024.705952
21
680.504905
0
LINE
8
0
10
-1024.705952
20
680.504905
11
-1019.844308
21
682.471718
0
LINE
8
0
10
-1019.844308
20
682.471718
11
-1015.031933
21
684.593315
0
LINE
8
0
10
-1015.031933
20
684.593315
11
-1010.272485
21
686.869570
0
LINE
8
0
10
-1010.272485
20
686.869570
11
-1005.569621
21
689.300357
0
LINE
8
0
10
-1005.569621
20
689.300357
11
-1000.927000
21
691.885550
0
LINE
8
0
10
-1000.920000
20
691.886000
11
-996.359808
21
694.614070
0
LINE
8
0
10
-996.359808
20
694.614070
11
-991.903216
21
697.471509
0
LINE
8
0
10
-991.903216
20
697.471509
11
-987.552162
21
700.455214
0
LINE
8
0
10
-987.552162
20
700.455214
11
-983.308585
21
703.562079
0
LINE
8
0
10
-983.308585
20
703.562079
11
-979.174421
21
706.789001
0
LINE
8
0
10
-979.174421
20
706.789001
11
-975.151608
21
710.132876
0
LINE
8
0
10
-975.151608
20
710.132876
11
-971.242084
21
713.590598
0
LINE
8
0
10
-971.242084
20
713.590598
11
-967.447786
21
717.159064
0
LINE
8
0
10
-967.447786
20
717.159064
11
-963.770652
21
720.835169
0
LINE
8
0
10
-963.770652
20
720.835169
11
-960.212620
21
724.615809
0
LINE
8
0
10
-960.212620
20
724.615809
11
-956.775626
21
728.497880
0
LINE
8
0
10
-956.775626
20
728.497880
11
-953.461610
21
732.478276
0
LINE
8
0
10
-953.461610
20
732.478276
11
-950.272507
21
736.553895
0
LINE
8
0
10
-950.272507
20
736.553895
11
-947.210257
21
740.721631
0
LINE
8
0
10
-947.210257
20
740.721631
11
-944.276796
21
744.978380
0
LINE
8
0
10
-944.276796
20
744.978380
11
-941.474062
21
749.321037
0
LINE
8
0
10
-941.474062
20
749.321037
11
-938.803994
21
753.746500
0
LINE
8
0
10
-938.803994
20
753.746500
11
-936.268527
21
758.251662
0
LINE
8
0
10
-936.268527
20
758.251662
11
-933.869600
21
762.833420
0
LINE
8
0
10
-933.869600
20
762.833420
11
-931.609151
21
767.488669
0
LINE
8
0
10
-931.609151
20
767.488669
11
-929.489117
21
772.214305
0
LINE
8
0
10
-929.489117
20
772.214305
11
-927.511436
21
777.007224
0
LINE
8
0
10
-927.511436
20
777.007224
11
-925.678046
21
781.864321
0
LINE
8
0
10
-925.678046
20
781.864321
11
-923.990883
21
786.782492
0
LINE
8
0
10
-923.990883
20
786.782492
11
-922.451886
21
791.758633
0
LINE
8
0
10
-922.451886
20
791.758633
11
-921.062992
21
796.789639
0
LINE
8
0
10
-921.062992
20
796.789639
11
-919.826138
21
801.872405
0
LINE
8
0
10
-919.826138
20
801.872405
11
-918.743263
21
807.003829
0
LINE
8
0
10
-918.743263
20
807.003829
11
-917.816305
21
812.180804
0
LINE
8
0
10
-917.816305
20
812.180804
11
-917.047199
21
817.400227
0
LINE
8
0
10
-917.047199
20
817.400227
11
-916.437885
21
822.658994
0
LINE
8
0
10
-916.437885
20
822.658994
11
-915.990300
21
827.954000
0
LINE
8
0
10
-1181.550000
20
698.102000
11
-1210.630200
21
647.736700
0
LINE
8
0
10
-1210.630200
20
647.736700
11
-1190.304600
21
636.003300
0
LINE
8
0
10
-1190.304600
20
636.003300
11
-1161.227300
21
686.368600
0
LINE
8
0
10
-1425.260000
20
863.470000
11
-1425.416609
21
872.974511
0
LINE
8
0
10
-1425.416609
20
872.974511
11
-1425.887223
21
882.427349
0
LINE
8
0
10
-1425.887223
20
882.427349
11
-1426.668102
21
891.822035
0
LINE
8
0
10
-1426.668102
20
891.822035
11
-1427.755506
21
901.152090
0
LINE
8
0
10
-1427.755506
20
901.152090
11
-1429.145696
21
910.411034
0
LINE
8
0
10
-1429.145696
20
910.411034
11
-1430.834932
21
919.592387
0
LINE
8
0
10
-1430.834932
20
919.592387
11
-1432.819473
21
928.689671
0
LINE
8
0
10
-1432.819473
20
928.689671
11
-1435.095579
21
937.696406
0
LINE
8
0
10
-1435.095579
20
937.696406
11
-1437.659511
21
946.606113
0
LINE
8
0
10
-1437.659511
20
946.606113
11
-1440.507529
21
955.412312
0
LINE
8
0
10
-1440.507529
20
955.412312
11
-1443.635893
21
964.108524
0
LINE
8
0
10
-1443.635893
20
964.108524
11
-1447.040862
21
972.688270
0
LINE
8
0
10
-1447.040862
20
972.688270
11
-1450.718698
21
981.145069
0
LINE
8
0
10
-1450.718698
20
981.145069
11
-1454.665659
21
989.472444
0
LINE
8
0
10
-1454.665659
20
989.472444
11
-1458.878007
21
997.663914
0
LINE
8
0
10
-1458.878007
20
997.663914
11
-1463.352001
21
1005.713000
0
LINE
8
0
10
-1463.352001
20
1005.713000
11
-1468.083901
21
1013.613223
0
LINE
8
0
10
-1468.083901
20
1013.613223
11
-1473.069967
21
1021.358103
0
LINE
8
0
10
-1473.069967
20
1021.358103
11
-1478.306460
21
1028.941161
0
LINE
8
0
10
-1478.306460
20
1028.941161
11
-1483.789639
21
1036.355918
0
LINE
8
0
10
-1483.789639
20
1036.355918
11
-1489.515765
21
1043.595894
0
LINE
8
0
10
-1489.515765
20
1043.595894
11
-1495.481097
21
1050.654610
0
LINE
8
0
10
-1495.481097
20
1050.654610
11
-1501.681896
21
1057.525586
0
LINE
8
0
10
-1501.681896
20
1057.525586
11
-1508.114422
21
1064.202344
0
LINE
8
0
10
-1508.114422
20
1064.202344
11
-1514.774935
21
1070.678403
0
LINE
8
0
10
-1514.774935
20
1070.678403
11
-1521.659694
21
1076.947285
0
LINE
8
0
10
-1521.659694
20
1076.947285
11
-1528.764961
21
1083.002509
0
LINE
8
0
10
-1528.764961
20
1083.002509
11
-1536.086994
21
1088.837598
0
LINE
8
0
10
-1536.086994
20
1088.837598
11
-1543.622055
21
1094.446070
0
LINE
8
0
10
-1543.622055
20
1094.446070
11
-1551.366403
21
1099.821448
0
LINE
8
0
10
-1551.366403
20
1099.821448
11
-1559.316298
21
1104.957251
0
LINE
8
0
10
-1559.316298
20
1104.957251
11
-1567.468000
21
1109.847000
0
LINE
8
0
10
-1567.460000
20
1109.850000
11
-1575.769972
21
1114.465670
0
LINE
8
0
10
-1575.769972
20
1114.465670
11
-1584.192163
21
1118.783555
0
LINE
8
0
10
-1584.192163
20
1118.783555
11
-1592.719091
21
1122.803654
0
LINE
8
0
10
-1592.719091
20
1122.803654
11
-1601.343276
21
1126.525969
0
LINE
8
0
10
-1601.343276
20
1126.525969
11
-1610.057236
21
1129.950498
0
LINE
8
0
10
-1610.057236
20
1129.950498
11
-1618.853490
21
1133.077242
0
LINE
8
0
10
-1618.853490
20
1133.077242
11
-1627.724557
21
1135.906201
0
LINE
8
0
10
-1627.724557
20
1135.906201
11
-1636.662956
21
1138.437375
0
LINE
8
0
10
-1636.662956
20
1138.437375
11
-1645.661206
21
1140.670764
0
LINE
8
0
10
-1645.661206
20
1140.670764
11
-1654.711825
21
1142.606367
0
LINE
8
0
10
-1654.711825
20
1142.606367
11
-1663.807332
21
1144.244186
0
LINE
8
0
10
-1663.807332
20
1144.244186
11
-1672.940246
21
1145.584219
0
LINE
8
0
10
-1672.940246
20
1145.584219
11
-1682.103086
21
1146.626467
0
LINE
8
0
10
-1682.103086
20
1146.626467
11
-1691.288371
21
1147.370930
0
LINE
8
0
10
-1691.288371
20
1147.370930
11
-1700.488619
21
1147.817607
0
LINE
8
0
10
-1700.488619
20
1147.817607
11
-1709.696350
21
1147.966500
0
LINE
8
0
10
-1709.696350
20
1147.966500
11
-1718.904082
21
1147.817607
0
LINE
8
0
10
-1718.904082
20
1147.817607
11
-1728.104334
21
1147.370930
0
LINE
8
0
10
-1728.104334
20
1147.370930
11
-1737.289624
21
1146.626467
0
LINE
8
0
10
-1737.289624
20
1146.626467
11
-1746.452473
21
1145.584219
0
LINE
8
0
10
-1746.452473
20
1145.584219
11
-1755.585397
21
1144.244186
0
LINE
8
0
10
-1755.585397
20
1144.244186
11
-1764.680917
21
1142.606367
0
LINE
8
0
10
-1764.680917
20
1142.606367
11
-1773.731552
21
1140.670764
0
LINE
8
0
10
-1773.731552
20
1140.670764
11
-1782.729819
21
1138.437375
0
LINE
8
0
10
-1782.729819
20
1138.437375
11
-1791.668238
21
1135.906201
0
LINE
8
0
10
-1791.668238
20
1135.906201
11
-1800.539327
21
1133.077242
0
LINE
8
0
10
-1800.539327
20
1133.077242
11
-1809.335606
21
1129.950498
0
LINE
8
0
10
-1809.335606
20
1129.950498
11
-1818.049593
21
1126.525969
0
LINE
8
0
10
-1818.049593
20
1126.525969
11
-1826.673807
21
1122.803654
0
LINE
8
0
10
-1826.673807
20
1122.803654
11
-1835.200767
21
1118.783555
0
LINE
8
0
10
-1835.200767
20
1118.783555
11
-1843.622992
21
1114.465670
0
LINE
8
0
10
-1843.622992
20
1114.465670
11
-1851.933000
21
1109.850000
0
LINE
8
0
10
-1851.940000
20
1109.850000
11
-1860.091713
21
1104.960251
0
LINE
8
0
10
-1860.091713
20
1104.960251
11
-1868.041619
21
1099.824448
0
LINE
8
0
10
-1868.041619
20
1099.824448
11
-1875.785980
21
1094.449070
0
LINE
8
0
10
-1875.785980
20
1094.449070
11
-1883.321055
21
1088.840598
0
LINE
8
0
10
-1883.321055
20
1088.840598
11
-1890.643104
21
1083.005509
0
LINE
8
0
10
-1890.643104
20
1083.005509
11
-1897.748386
21
1076.950285
0
LINE
8
0
10
-1897.748386
20
1076.950285
11
-1904.633162
21
1070.681403
0
LINE
8
0
10
-1904.633162
20
1070.681403
11
-1911.293691
21
1064.205344
0
LINE
8
0
10
-1911.293691
20
1064.205344
11
-1917.726233
21
1057.528586
0
LINE
8
0
10
-1917.726233
20
1057.528586
11
-1923.927048
21
1050.657610
0
LINE
8
0
10
-1923.927048
20
1050.657610
11
-1929.892396
21
1043.598894
0
LINE
8
0
10
-1929.892396
20
1043.598894
11
-1935.618537
21
1036.358918
0
LINE
8
0
10
-1935.618537
20
1036.358918
11
-1941.101731
21
1028.944161
0
LINE
8
0
10
-1941.101731
20
1028.944161
11
-1946.338236
21
1021.361103
0
LINE
8
0
10
-1946.338236
20
1021.361103
11
-1951.324315
21
1013.616223
0
LINE
8
0
10
-1951.324315
20
1013.616223
11
-1956.056225
21
1005.716000
0
LINE
8
0
10
-1956.056225
20
1005.716000
11
-1960.530227
21
997.666914
0
LINE
8
0
10
-1960.530227
20
997.666914
11
-1964.742581
21
989.475444
0
LINE
8
0
10
-1964.742581
20
989.475444
11
-1968.689547
21
981.148069
0
LINE
8
0
10
-1968.689547
20
981.148069
11
-1972.367385
21
972.691270
0
LINE
8
0
10
-1972.367385
20
972.691270
11
-1975.772354
21
964.111524
0
LINE
8
0
10
-1975.772354
20
964.111524
11
-1978.900714
21
955.415312
0
LINE
8
0
10
-1978.900714
20
955.415312
11
-1981.748725
21
946.609113
0
LINE
8
0
10
-1981.748725
20
946.609113
11
-1984.312647
21
937.699406
0
LINE
8
0
10
-1984.312647
20
937.699406
11
-1986.588740
21
928.692671
0
LINE
8
0
10
-1986.588740
20
928.692671
11
-1988.573263
21
919.595387
0
LINE
8
0
10
-1988.573263
20
919.595387
11
-1990.262477
21
910.414034
0
LINE
8
0
10
-1990.262477
20
910.414034
11
-1991.652642
21
901.155090
0
LINE
8
0
10
-1991.652642
20
901.155090
11
-1992.740016
21
891.825035
0
LINE
8
0
10
-1992.740016
20
891.825035
11
-1993.520861
21
882.430349
0
LINE
8
0
10
-1993.520861
20
882.430349
11
-1993.991436
21
872.977511
0
LINE
8
0
10
-1993.991436
20
872.977511
11
-1994.148000
21
863.473000
0
LINE
8
0
10
-1994.150000
20
863.470000
11
-1993.993391
21
853.965489
0
LINE
8
0
10
-1993.993391
20
853.965489
11
-1993.522777
21
844.512651
0
LINE
8
0
10
-1993.522777
20
844.512651
11
-1992.741898
21
835.117965
0
LINE
8
0
10
-1992.741898
20
835.117965
11
-1991.654494
21
825.787910
0
LINE
8
0
10
-1991.654494
20
825.787910
11
-1990.264304
21
816.528966
0
LINE
8
0
10
-1990.264304
20
816.528966
11
-1988.575068
21
807.347613
0
LINE
8
0
10
-1988.575068
20
807.347613
11
-1986.590527
21
798.250329
0
LINE
8
0
10
-1986.590527
20
798.250329
11
-1984.314421
21
789.243594
0
LINE
8
0
10
-1984.314421
20
789.243594
11
-1981.750489
21
780.333887
0
LINE
8
0
10
-1981.750489
20
780.333887
11
-1978.902471
21
771.527688
0
LINE
8
0
10
-1978.902471
20
771.527688
11
-1975.774107
21
762.831476
0
LINE
8
0
10
-1975.774107
20
762.831476
11
-1972.369138
21
754.251730
0
LINE
8
0
10
-1972.369138
20
754.251730
11
-1968.691302
21
745.794931
0
LINE
8
0
10
-1968.691302
20
745.794931
11
-1964.744341
21
737.467556
0
LINE
8
0
10
-1964.744341
20
737.467556
11
-1960.531993
21
729.276086
0
LINE
8
0
10
-1960.531993
20
729.276086
11
-1956.057999
21
721.227000
0
LINE
8
0
10
-1956.057999
20
721.227000
11
-1951.326099
21
713.326777
0
LINE
8
0
10
-1951.326099
20
713.326777
11
-1946.340033
21
705.581897
0
LINE
8
0
10
-1946.340033
20
705.581897
11
-1941.103540
21
697.998839
0
LINE
8
0
10
-1941.103540
20
697.998839
11
-1935.620361
21
690.584082
0
LINE
8
0
10
-1935.620361
20
690.584082
11
-1929.894235
21
683.344106
0
LINE
8
0
10
-1929.894235
20
683.344106
11
-1923.928903
21
676.285390
0
LINE
8
0
10
-1923.928903
20
676.285390
11
-1917.728104
21
669.414414
0
LINE
8
0
10
-1917.728104
20
669.414414
11
-1911.295578
21
662.737656
0
LINE
8
0
10
-1911.295578
20
662.737656
11
-1904.635065
21
656.261597
0
LINE
8
0
10
-1904.635065
20
656.261597
11
-1897.750306
21
649.992715
0
LINE
8
0
10
-1897.750306
20
649.992715
11
-1890.645039
21
643.937491
0
LINE
8
0
10
-1890.645039
20
643.937491
11
-1883.323006
21
638.102402
0
LINE
8
0
10
-1883.323006
20
638.102402
11
-1875.787945
21
632.493930
0
LINE
8
0
10
-1875.787945
20
632.493930
11
-1868.043597
21
627.118552
0
LINE
8
0
10
-1868.043597
20
627.118552
11
-1860.093702
21
621.982749
0
LINE
8
0
10
-1860.093702
20
621.982749
11
-1851.942000
21
617.093000
0
LINE
8
0
10
-1851.940000
20
617.093000
11
-1843.630028
21
612.477330
0
LINE
8
0
10
-1843.630028
20
612.477330
11
-1835.207837
21
608.159445
0
LINE
8
0
10
-1835.207837
20
608.159445
11
-1826.680909
21
604.139346
0
LINE
8
0
10
-1826.680909
20
604.139346
11
-1818.056724
21
600.417031
0
LINE
8
0
10
-1818.056724
20
600.417031
11
-1809.342764
21
596.992502
0
LINE
8
0
10
-1809.342764
20
596.992502
11
-1800.546510
21
593.865758
0
LINE
8
0
10
-1800.546510
20
593.865758
11
-1791.675443
21
591.036799
0
LINE
8
0
10
-1791.675443
20
591.036799
11
-1782.737044
21
588.505625
0
LINE
8
0
10
-1782.737044
20
588.505625
11
-1773.738794
21
586.272236
0
LINE
8
0
10
-1773.738794
20
586.272236
11
-1764.688175
21
584.336633
0
LINE
8
0
10
-1764.688175
20
584.336633
11
-1755.592668
21
582.698814
0
LINE
8
0
10
-1755.592668
20
582.698814
11
-1746.459754
21
581.358781
0
LINE
8
0
10
-1746.459754
20
581.358781
11
-1737.296914
21
580.316533
0
LINE
8
0
10
-1737.296914
20
580.316533
11
-1728.111629
21
579.572070
0
LINE
8
0
10
-1728.111629
20
579.572070
11
-1718.911381
21
579.125393
0
LINE
8
0
10
-1718.911381
20
579.125393
11
-1709.703650
21
578.976500
0
LINE
8
0
10
-1709.703650
20
578.976500
11
-1700.495918
21
579.125393
0
LINE
8
0
10
-1700.495918
20
579.125393
11
-1691.295666
21
579.572070
0
LINE
8
0
10
-1691.295666
20
579.572070
11
-1682.110376
21
580.316533
0
LINE
8
0
10
-1682.110376
20
580.316533
11
-1672.947527
21
581.358781
0
LINE
8
0
10
-1672.947527
20
581.358781
11
-1663.814603
21
582.698814
0
LINE
8
0
10
-1663.814603
20
582.698814
11
-1654.719083
21
584.336633
0
LINE
8
0
10
-1654.719083
20
584.336633
11
-1645.668448
21
586.272236
0
LINE
8
0
10
-1645.668448
20
586.272236
11
-1636.670181
21
588.505625
0
LINE
8
0
10
-1636.670181
20
588.505625
11
-1627.731762
21
591.036799
0
LINE
8
0
10
-1627.731762
20
591.036799
11
-1618.860673
21
593.865758
0
LINE
8
0
10
-1618.860673
20
593.865758
11
-1610.064394
21
596.992502
0
LINE
8
0
10
-1610.064394
20
596.992502
11
-1601.350407
21
600.417031
0
LINE
8
0
10
-1601.350407
20
600.417031
11
-1592.726193
21
604.139346
0
LINE
8
0
10
-1592.726193
20
604.139346
11
-1584.199233
21
608.159445
0
LINE
8
0
10
-1584.199233
20
608.159445
11
-1575.777008
21
612.477330
0
LINE
8
0
10
-1575.777008
20
612.477330
11
-1567.467000
21
617.093000
0
LINE
8
0
10
-1567.460000
20
617.093000
11
-1559.308287
21
621.982749
0
LINE
8
0
10
-1559.308287
20
621.982749
11
-1551.358381
21
627.118552
0
LINE
8
0
10
-1551.358381
20
627.118552
11
-1543.614020
21
632.493930
0
LINE
8
0
10
-1543.614020
20
632.493930
11
-1536.078945
21
638.102402
0
LINE
8
0
10
-1536.078945
20
638.102402
11
-1528.756896
21
643.937491
0
LINE
8
0
10
-1528.756896
20
643.937491
11
-1521.651614
21
649.992715
0
LINE
8
0
10
-1521.651614
20
649.992715
11
-1514.766838
21
656.261597
0
LINE
8
0
10
-1514.766838
20
656.261597
11
-1508.106309
21
662.737656
0
LINE
8
0
10
-1508.106309
20
662.737656
11
-1501.673767
21
669.414414
0
LINE
8
0
10
-1501.673767
20
669.414414
11
-1495.472952
21
676.285390
0
LINE
8
0
10
-1495.472952
20
676.285390
11
-1489.507604
21
683.344106
0
LINE
8
0
10
-1489.507604
20
683.344106
11
-1483.781463
21
690.584082
0
LINE
8
0
10
-1483.781463
20
690.584082
11
-1478.298269
21
697.998839
0
LINE
8
0
10
-1478.298269
20
697.998839
11
-1473.061764
21
705.581897
0
LINE
8
0
10
-1473.061764
20
705.581897
11
-1468.075685
21
713.326777
0
LINE
8
0
10
-1468.075685
20
713.326777
11
-1463.343775
21
721.227000
0
LINE
8
0
10
-1463.343775
20
721.227000
11
-1458.869773
21
729.276086
0
LINE
8
0
10
-1458.869773
20
729.276086
11
-1454.657419
21
737.467556
0
LINE
8
0
10
-1454.657419
20
737.467556
11
-1450.710453
21
745.794931
0
LINE
8
0
10
-1450.710453
20
745.794931
11
-1447.032615
21
754.251730
0
LINE
8
0
10
-1447.032615
20
754.251730
11
-1443.627646
21
762.831476
0
LINE
8
0
10
-1443.627646
20
762.831476
11
-1440.499286
21
771.527688
0
LINE
8
0
10
-1440.499286
20
771.527688
11
-1437.651275
21
780.333887
0
LINE
8
0
10
-1437.651275
20
780.333887
11
-1435.087353
21
789.243594
0
LINE
8
0
10
-1435.087353
20
789.243594
11
-1432.811260
21
798.250329
0
LINE
8
0
10
-1432.811260
20
798.250329
11
-1430.826737
21
807.347613
0
LINE
8
0
10
-1430.826737
20
807.347613
11
-1429.137523
21
816.528966
0
LINE
8
0
10
-1429.137523
20
816.528966
11
-1427.747358
21
825.787910
0
LINE
8
0
10
-1427.747358
20
825.787910
11
-1426.659984
21
835.117965
0
LINE
8
0
10
-1426.659984
20
835.117965
11
-1425.879139
21
844.512651
0
LINE
8
0
10
-1425.879139
20
844.512651
11
-1425.408564
21
853.965489
0
LINE
8
0
10
-1425.408564
20
853.965489
11
-1425.252000
21
863.470000
0
LINE
8
0
10
-915.988000
20
851.421000
11
-857.833000
21
851.421000
0
LINE
8
0
10
-857.833000
20
851.421000
11
-857.833000
21
827.954000
0
LINE
8
0
10
-857.833000
20
827.954000
11
-915.988000
21
827.954000
0
LINE
8
0
10
-898.807000
20
1326.570000
11
-899.254585
21
1331.865033
0
LINE
8
0
10
-899.254585
20
1331.865033
11
-899.863899
21
1337.123826
0
LINE
8
0
10
-899.863899
20
1337.123826
11
-900.633005
21
1342.343275
0
LINE
8
0
10
-900.633005
20
1342.343275
11
-901.559963
21
1347.520274
0
LINE
8
0
10
-901.559963
20
1347.520274
11
-902.642838
21
1352.651719
0
LINE
8
0
10
-902.642838
20
1352.651719
11
-903.879692
21
1357.734507
0
LINE
8
0
10
-903.879692
20
1357.734507
11
-905.268586
21
1362.765532
0
LINE
8
0
10
-905.268586
20
1362.765532
11
-906.807583
21
1367.741691
0
LINE
8
0
10
-906.807583
20
1367.741691
11
-908.494746
21
1372.659878
0
LINE
8
0
10
-908.494746
20
1372.659878
11
-910.328136
21
1377.516990
0
LINE
8
0
10
-910.328136
20
1377.516990
11
-912.305817
21
1382.309921
0
LINE
8
0
10
-912.305817
20
1382.309921
11
-914.425851
21
1387.035568
0
LINE
8
0
10
-914.425851
20
1387.035568
11
-916.686300
21
1391.690827
0
LINE
8
0
10
-916.686300
20
1391.690827
11
-919.085227
21
1396.272592
0
LINE
8
0
10
-919.085227
20
1396.272592
11
-921.620694
21
1400.777759
0
LINE
8
0
10
-921.620694
20
1400.777759
11
-924.290763
21
1405.203225
0
LINE
8
0
10
-924.290763
20
1405.203225
11
-927.093496
21
1409.545884
0
LINE
8
0
10
-927.093496
20
1409.545884
11
-930.026957
21
1413.802632
0
LINE
8
0
10
-930.026957
20
1413.802632
11
-933.089207
21
1417.970365
0
LINE
8
0
10
-933.089207
20
1417.970365
11
-936.278310
21
1422.045979
0
LINE
8
0
10
-936.278310
20
1422.045979
11
-939.592326
21
1426.026368
0
LINE
8
0
10
-939.592326
20
1426.026368
11
-943.029320
21
1429.908428
0
LINE
8
0
10
-943.029320
20
1429.908428
11
-946.587352
21
1433.689056
0
LINE
8
0
10
-946.587352
20
1433.689056
11
-950.264486
21
1437.365147
0
LINE
8
0
10
-950.264486
20
1437.365147
11
-954.058784
21
1440.933596
0
LINE
8
0
10
-954.058784
20
1440.933596
11
-957.968308
21
1444.391298
0
LINE
8
0
10
-957.968308
20
1444.391298
11
-961.991121
21
1447.735151
0
LINE
8
0
10
-961.991121
20
1447.735151
11
-966.125285
21
1450.962048
0
LINE
8
0
10
-966.125285
20
1450.962048
11
-970.368862
21
1454.068886
0
LINE
8
0
10
-970.368862
20
1454.068886
11
-974.719916
21
1457.052560
0
LINE
8
0
10
-974.719916
20
1457.052560
11
-979.176508
21
1459.909966
0
LINE
8
0
10
-979.176508
20
1459.909966
11
-983.736700
21
1462.638000
0
LINE
8
0
10
-983.736000
20
1462.630000
11
-988.378684
21
1465.215189
0
LINE
8
0
10
-988.378684
20
1465.215189
11
-993.081606
21
1467.645973
0
LINE
8
0
10
-993.081606
20
1467.645973
11
-997.841107
21
1469.922225
0
LINE
8
0
10
-997.841107
20
1469.922225
11
-1002.653531
21
1472.043820
0
LINE
8
0
10
-1002.653531
20
1472.043820
11
-1007.515221
21
1474.010631
0
LINE
8
0
10
-1007.515221
20
1474.010631
11
-1012.422518
21
1475.822534
0
LINE
8
0
10
-1012.422518
20
1475.822534
11
-1017.371768
21
1477.479402
0
LINE
8
0
10
-1017.371768
20
1477.479402
11
-1022.359311
21
1478.981108
0
LINE
8
0
10
-1022.359311
20
1478.981108
11
-1027.381491
21
1480.327529
0
LINE
8
0
10
-1027.381491
20
1480.327529
11
-1032.434651
21
1481.518536
0
LINE
8
0
10
-1032.434651
20
1481.518536
11
-1037.515134
21
1482.554005
0
LINE
8
0
10
-1037.515134
20
1482.554005
11
-1042.619282
21
1483.433810
0
LINE
8
0
10
-1042.619282
20
1483.433810
11
-1047.743439
21
1484.157824
0
LINE
8
0
10
-1047.743439
20
1484.157824
11
-1052.883947
21
1484.725923
0
LINE
8
0
10
-1052.883947
20
1484.725923
11
-1058.037149
21
1485.137979
0
LINE
8
0
10
-1058.037149
20
1485.137979
11
-1063.199387
21
1485.393868
0
LINE
8
0
10
-1063.199387
20
1485.393868
11
-1068.367006
21
1485.493462
0
LINE
8
0
10
-1068.367006
20
1485.493462
11
-1073.536347
21
1485.436638
0
LINE
8
0
10
-1073.536347
20
1485.436638
11
-1078.703754
21
1485.223267
0
LINE
8
0
10
-1078.703754
20
1485.223267
11
-1083.865569
21
1484.853226
0
LINE
8
0
10
-1083.865569
20
1484.853226
11
-1089.018136
21
1484.326387
0
LINE
8
0
10
-1089.018136
20
1484.326387
11
-1094.157796
21
1483.642625
0
LINE
8
0
10
-1094.157796
20
1483.642625
11
-1099.280893
21
1482.801814
0
LINE
8
0
10
-1099.280893
20
1482.801814
11
-1104.383770
21
1481.803828
0
LINE
8
0
10
-1104.383770
20
1481.803828
11
-1109.462770
21
1480.648541
0
LINE
8
0
10
-1109.462770
20
1480.648541
11
-1114.514235
21
1479.335828
0
LINE
8
0
10
-1114.514235
20
1479.335828
11
-1119.534508
21
1477.865562
0
LINE
8
0
10
-1119.534508
20
1477.865562
11
-1124.519933
21
1476.237618
0
LINE
8
0
10
-1124.519933
20
1476.237618
11
-1129.466852
21
1474.451870
0
LINE
8
0
10
-1129.466852
20
1474.451870
11
-1134.371607
21
1472.508191
0
LINE
8
0
10
-1134.371607
20
1472.508191
11
-1139.230542
21
1470.406456
0
LINE
8
0
10
-1139.230542
20
1470.406456
11
-1144.040000
21
1468.146540
0
LINE
8
0
10
-1144.040000
20
1468.150000
11
-1118.425500
21
1423.784700
0
LINE
8
0
10
-1118.425500
20
1423.784700
11
-1138.748300
21
1412.052700
0
LINE
8
0
10
-1138.748300
20
1412.052700
11
-1164.362700
21
1456.415100
0
LINE
8
0
10
-1144.040000
20
1161.510000
11
-1139.230578
21
1159.250089
0
LINE
8
0
10
-1139.230578
20
1159.250089
11
-1134.371676
21
1157.148358
0
LINE
8
0
10
-1134.371676
20
1157.148358
11
-1129.466951
21
1155.204683
0
LINE
8
0
10
-1129.466951
20
1155.204683
11
-1124.520060
21
1153.418938
0
LINE
8
0
10
-1124.520060
20
1153.418938
11
-1119.534660
21
1151.790995
0
LINE
8
0
10
-1119.534660
20
1151.790995
11
-1114.514409
21
1150.320731
0
LINE
8
0
10
-1114.514409
20
1150.320731
11
-1109.462964
21
1149.008018
0
LINE
8
0
10
-1109.462964
20
1149.008018
11
-1104.383981
21
1147.852732
0
LINE
8
0
10
-1104.383981
20
1147.852732
11
-1099.281119
21
1146.854746
0
LINE
8
0
10
-1099.281119
20
1146.854746
11
-1094.158034
21
1146.013934
0
LINE
8
0
10
-1094.158034
20
1146.013934
11
-1089.018383
21
1145.330171
0
LINE
8
0
10
-1089.018383
20
1145.330171
11
-1083.865824
21
1144.803331
0
LINE
8
0
10
-1083.865824
20
1144.803331
11
-1078.704014
21
1144.433287
0
LINE
8
0
10
-1078.704014
20
1144.433287
11
-1073.536610
21
1144.219915
0
LINE
8
0
10
-1073.536610
20
1144.219915
11
-1068.367270
21
1144.163089
0
LINE
8
0
10
-1068.367270
20
1144.163089
11
-1063.199650
21
1144.262681
0
LINE
8
0
10
-1063.199650
20
1144.262681
11
-1058.037408
21
1144.518568
0
LINE
8
0
10
-1058.037408
20
1144.518568
11
-1052.884200
21
1144.930622
0
LINE
8
0
10
-1052.884200
20
1144.930622
11
-1047.743685
21
1145.498718
0
LINE
8
0
10
-1047.743685
20
1145.498718
11
-1042.619520
21
1146.222731
0
LINE
8
0
10
-1042.619520
20
1146.222731
11
-1037.515360
21
1147.102534
0
LINE
8
0
10
-1037.515360
20
1147.102534
11
-1032.434865
21
1148.138002
0
LINE
8
0
10
-1032.434865
20
1148.138002
11
-1027.381690
21
1149.329008
0
LINE
8
0
10
-1027.381690
20
1149.329008
11
-1022.359494
21
1150.675427
0
LINE
8
0
10
-1022.359494
20
1150.675427
11
-1017.371933
21
1152.177134
0
LINE
8
0
10
-1017.371933
20
1152.177134
11
-1012.422664
21
1153.834002
0
LINE
8
0
10
-1012.422664
20
1153.834002
11
-1007.515345
21
1155.645905
0
LINE
8
0
10
-1007.515345
20
1155.645905
11
-1002.653634
21
1157.612718
0
LINE
8
0
10
-1002.653634
20
1157.612718
11
-997.841186
21
1159.734315
0
LINE
8
0
10
-997.841186
20
1159.734315
11
-993.081660
21
1162.010570
0
LINE
8
0
10
-993.081660
20
1162.010570
11
-988.378712
21
1164.441357
0
LINE
8
0
10
-988.378712
20
1164.441357
11
-983.736000
21
1167.026550
0
LINE
8
0
10
-983.736000
20
1167.030000
11
-979.175808
21
1169.758070
0
LINE
8
0
10
-979.175808
20
1169.758070
11
-974.719216
21
1172.615510
0
LINE
8
0
10
-974.719216
20
1172.615510
11
-970.368162
21
1175.599216
0
LINE
8
0
10
-970.368162
20
1175.599216
11
-966.124585
21
1178.706083
0
LINE
8
0
10
-966.124585
20
1178.706083
11
-961.990421
21
1181.933007
0
LINE
8
0
10
-961.990421
20
1181.933007
11
-957.967608
21
1185.276884
0
LINE
8
0
10
-957.967608
20
1185.276884
11
-954.058084
21
1188.734609
0
LINE
8
0
10
-954.058084
20
1188.734609
11
-950.263786
21
1192.303078
0
LINE
8
0
10
-950.263786
20
1192.303078
11
-946.586652
21
1195.979186
0
LINE
8
0
10
-946.586652
20
1195.979186
11
-943.028620
21
1199.759829
0
LINE
8
0
10
-943.028620
20
1199.759829
11
-939.591626
21
1203.641903
0
LINE
8
0
10
-939.591626
20
1203.641903
11
-936.277610
21
1207.622303
0
LINE
8
0
10
-936.277610
20
1207.622303
11
-933.088507
21
1211.697924
0
LINE
8
0
10
-933.088507
20
1211.697924
11
-930.026257
21
1215.865663
0
LINE
8
0
10
-930.026257
20
1215.865663
11
-927.092796
21
1220.122415
0
LINE
8
0
10
-927.092796
20
1220.122415
11
-924.290062
21
1224.465075
0
LINE
8
0
10
-924.290062
20
1224.465075
11
-921.619994
21
1228.890539
0
LINE
8
0
10
-921.619994
20
1228.890539
11
-919.084527
21
1233.395703
0
LINE
8
0
10
-919.084527
20
1233.395703
11
-916.685600
21
1237.977463
0
LINE
8
0
10
-916.685600
20
1237.977463
11
-914.425151
21
1242.632713
0
LINE
8
0
10
-914.425151
20
1242.632713
11
-912.305117
21
1247.358350
0
LINE
8
0
10
-912.305117
20
1247.358350
11
-910.327436
21
1252.151268
0
LINE
8
0
10
-910.327436
20
1252.151268
11
-908.494046
21
1257.008365
0
LINE
8
0
10
-908.494046
20
1257.008365
11
-906.806883
21
1261.926534
0
LINE
8
0
10
-906.806883
20
1261.926534
11
-905.267886
21
1266.902673
0
LINE
8
0
10
-905.267886
20
1266.902673
11
-903.878992
21
1271.933676
0
LINE
8
0
10
-903.878992
20
1271.933676
11
-902.642138
21
1277.016439
0
LINE
8
0
10
-902.642138
20
1277.016439
11
-901.559263
21
1282.147857
0
LINE
8
0
10
-901.559263
20
1282.147857
11
-900.632305
21
1287.324827
0
LINE
8
0
10
-900.632305
20
1287.324827
11
-899.863199
21
1292.544244
0
LINE
8
0
10
-899.863199
20
1292.544244
11
-899.253885
21
1297.803003
0
LINE
8
0
10
-899.253885
20
1297.803003
11
-898.806300
21
1303.098000
0
LINE
8
0
10
-898.803000
20
1303.100000
11
-950.035000
21
1303.100000
0
LINE
8
0
10
-950.035000
20
1303.100000
11
-950.035000
21
1326.570000
0
LINE
8
0
10
-950.035000
20
1326.570000
11
-898.803000
21
1326.570000
0
LINE
8
0
10
-1164.360000
20
1456.420000
11
-1168.721864
21
1453.384877
0
LINE
8
0
10
-1168.721864
20
1453.384877
11
-1172.971477
21
1450.227812
0
LINE
8
0
10
-1172.971477
20
1450.227812
11
-1177.107121
21
1446.952034
0
LINE
8
0
10
-1177.107121
20
1446.952034
11
-1181.127075
21
1443.560775
0
LINE
8
0
10
-1181.127075
20
1443.560775
11
-1185.029620
21
1440.057265
0
LINE
8
0
10
-1185.029620
20
1440.057265
11
-1188.813036
21
1436.444733
0
LINE
8
0
10
-1188.813036
20
1436.444733
11
-1192.475604
21
1432.726411
0
LINE
8
0
10
-1192.475604
20
1432.726411
11
-1196.015605
21
1428.905528
0
LINE
8
0
10
-1196.015605
20
1428.905528
11
-1199.431318
21
1424.985315
0
LINE
8
0
10
-1199.431318
20
1424.985315
11
-1202.721023
21
1420.969002
0
LINE
8
0
10
-1202.721023
20
1420.969002
11
-1205.883002
21
1416.859820
0
LINE
8
0
10
-1205.883002
20
1416.859820
11
-1208.915535
21
1412.660998
0
LINE
8
0
10
-1208.915535
20
1412.660998
11
-1211.816902
21
1408.375767
0
LINE
8
0
10
-1211.816902
20
1408.375767
11
-1214.585384
21
1404.007358
0
LINE
8
0
10
-1214.585384
20
1404.007358
11
-1217.219261
21
1399.559001
0
LINE
8
0
10
-1217.219261
20
1399.559001
11
-1219.716812
21
1395.033925
0
LINE
8
0
10
-1219.716812
20
1395.033925
11
-1222.076320
21
1390.435362
0
LINE
8
0
10
-1222.076320
20
1390.435362
11
-1224.296064
21
1385.766541
0
LINE
8
0
10
-1224.296064
20
1385.766541
11
-1226.374324
21
1381.030693
0
LINE
8
0
10
-1226.374324
20
1381.030693
11
-1228.309382
21
1376.231049
0
LINE
8
0
10
-1228.309382
20
1376.231049
11
-1230.099517
21
1371.370838
0
LINE
8
0
10
-1230.099517
20
1371.370838
11
-1231.743009
21
1366.453291
0
LINE
8
0
10
-1231.743009
20
1366.453291
11
-1233.238140
21
1361.481638
0
LINE
8
0
10
-1233.238140
20
1361.481638
11
-1234.583189
21
1356.459109
0
LINE
8
0
10
-1234.583189
20
1356.459109
11
-1235.776437
21
1351.388936
0
LINE
8
0
10
-1235.776437
20
1351.388936
11
-1236.816165
21
1346.274347
0
LINE
8
0
10
-1236.816165
20
1346.274347
11
-1237.700652
21
1341.118574
0
LINE
8
0
10
-1237.700652
20
1341.118574
11
-1238.428180
21
1335.924846
0
LINE
8
0
10
-1238.428180
20
1335.924846
11
-1238.997028
21
1330.696395
0
LINE
8
0
10
-1238.997028
20
1330.696395
11
-1239.405477
21
1325.436450
0
LINE
8
0
10
-1239.405477
20
1325.436450
11
-1239.651808
21
1320.148241
0
LINE
8
0
10
-1239.651808
20
1320.148241
11
-1239.734300
21
1314.835000
0
LINE
8
0
10
-1239.740000
20
1314.830000
11
-1239.657508
21
1309.516712
0
LINE
8
0
10
-1239.657508
20
1309.516712
11
-1239.411177
21
1304.228459
0
LINE
8
0
10
-1239.411177
20
1304.228459
11
-1239.002728
21
1298.968470
0
LINE
8
0
10
-1239.002728
20
1298.968470
11
-1238.433880
21
1293.739977
0
LINE
8
0
10
-1238.433880
20
1293.739977
11
-1237.706352
21
1288.546210
0
LINE
8
0
10
-1237.706352
20
1288.546210
11
-1236.821865
21
1283.390399
0
LINE
8
0
10
-1236.821865
20
1283.390399
11
-1235.782137
21
1278.275774
0
LINE
8
0
10
-1235.782137
20
1278.275774
11
-1234.588889
21
1273.205567
0
LINE
8
0
10
-1234.588889
20
1273.205567
11
-1233.243840
21
1268.183008
0
LINE
8
0
10
-1233.243840
20
1268.183008
11
-1231.748709
21
1263.211327
0
LINE
8
0
10
-1231.748709
20
1263.211327
11
-1230.105217
21
1258.293754
0
LINE
8
0
10
-1230.105217
20
1258.293754
11
-1228.315082
21
1253.433521
0
LINE
8
0
10
-1228.315082
20
1253.433521
11
-1226.380024
21
1248.633857
0
LINE
8
0
10
-1226.380024
20
1248.633857
11
-1224.301764
21
1243.897993
0
LINE
8
0
10
-1224.301764
20
1243.897993
11
-1222.082020
21
1239.229160
0
LINE
8
0
10
-1222.082020
20
1239.229160
11
-1219.722512
21
1234.630587
0
LINE
8
0
10
-1219.722512
20
1234.630587
11
-1217.224961
21
1230.105507
0
LINE
8
0
10
-1217.224961
20
1230.105507
11
-1214.591084
21
1225.657148
0
LINE
8
0
10
-1214.591084
20
1225.657148
11
-1211.822602
21
1221.288742
0
LINE
8
0
10
-1211.822602
20
1221.288742
11
-1208.921235
21
1217.003519
0
LINE
8
0
10
-1208.921235
20
1217.003519
11
-1205.888702
21
1212.804709
0
LINE
8
0
10
-1205.888702
20
1212.804709
11
-1202.726723
21
1208.695543
0
LINE
8
0
10
-1202.726723
20
1208.695543
11
-1199.437018
21
1204.679251
0
LINE
8
0
10
-1199.437018
20
1204.679251
11
-1196.021305
21
1200.759064
0
LINE
8
0
10
-1196.021305
20
1200.759064
11
-1192.481304
21
1196.938213
0
LINE
8
0
10
-1192.481304
20
1196.938213
11
-1188.818736
21
1193.219927
0
LINE
8
0
10
-1188.818736
20
1193.219927
11
-1185.035320
21
1189.607437
0
LINE
8
0
10
-1185.035320
20
1189.607437
11
-1181.132775
21
1186.103974
0
LINE
8
0
10
-1181.132775
20
1186.103974
11
-1177.112821
21
1182.712769
0
LINE
8
0
10
-1177.112821
20
1182.712769
11
-1172.977177
21
1179.437051
0
LINE
8
0
10
-1172.977177
20
1179.437051
11
-1168.727564
21
1176.280051
0
LINE
8
0
10
-1168.727564
20
1176.280051
11
-1164.365700
21
1173.245000
0
LINE
8
0
10
-1164.360000
20
1173.250000
11
-1138.745600
21
1217.615000
0
LINE
8
0
10
-1138.745600
20
1217.615000
11
-1118.422800
21
1205.880200
0
LINE
8
0
10
-1118.422800
20
1205.880200
11
-1144.037300
21
1161.516900
0
LINE
8
0
10
-1296.470000
20
1367.520000
11
-1343.458180
21
1367.270000
0
LINE
8
0
10
-1343.458180
20
1367.270000
11
-1390.403473
21
1366.520002
0
LINE
8
0
10
-1390.403473
20
1366.520002
11
-1437.305880
21
1365.270004
0
LINE
8
0
10
-1437.305880
20
1365.270004
11
-1484.165406
21
1363.520006
0
LINE
8
0
10
-1484.165406
20
1363.520006
11
-1530.982053
21
1361.270010
0
LINE
8
0
10
-1530.982053
20
1361.270010
11
-1577.755824
21
1358.520014
0
LINE
8
0
10
-1577.755824
20
1358.520014
11
-1624.486722
21
1355.270019
0
LINE
8
0
10
-1624.486722
20
1355.270019
11
-1671.174750
21
1351.520025
0
LINE
8
0
10
-1671.174750
20
1351.520025
11
-1717.819911
21
1347.270032
0
LINE
8
0
10
-1717.819911
20
1347.270032
11
-1764.422207
21
1342.520039
0
LINE
8
0
10
-1764.422207
20
1342.520039
11
-1810.981642
21
1337.270047
0
LINE
8
0
10
-1810.981642
20
1337.270047
11
-1857.498219
21
1331.520056
0
LINE
8
0
10
-1857.498219
20
1331.520056
11
-1903.971940
21
1325.270066
0
LINE
8
0
10
-1903.971940
20
1325.270066
11
-1950.402809
21
1318.520077
0
LINE
8
0
10
-1950.402809
20
1318.520077
11
-1996.790828
21
1311.270088
0
LINE
8
0
10
-1996.790828
20
1311.270088
11
-2043.136000
21
1303.520100
0
LINE
8
0
10
-1296.470000
20
1367.520000
11
-1296.470000
21
1346.190000
0
LINE
8
0
10
-1296.470000
20
1282.190000
11
-1343.458180
21
1281.939996
0
LINE
8
0
10
-1343.458180
20
1281.939996
11
-1390.403473
21
1281.189983
0
LINE
8
0
10
-1390.403473
20
1281.189983
11
-1437.305880
21
1279.939962
0
LINE
8
0
10
-1437.305880
20
1279.939962
11
-1484.165406
21
1278.189933
0
LINE
8
0
10
-1484.165406
20
1278.189933
11
-1530.982053
21
1275.939896
0
LINE
8
0
10
-1530.982053
20
1275.939896
11
-1577.755824
21
1273.189851
0
LINE
8
0
10
-1577.755824
20
1273.189851
11
-1624.486722
21
1269.939798
0
LINE
8
0
10
-1624.486722
20
1269.939798
11
-1671.174750
21
1266.189737
0
LINE
8
0
10
-1671.174750
20
1266.189737
11
-1717.819911
21
1261.939670
0
LINE
8
0
10
-1717.819911
20
1261.939670
11
-1764.422207
21
1257.189595
0
LINE
8
0
10
-1764.422207
20
1257.189595
11
-1810.981642
21
1251.939513
0
LINE
8
0
10
-1810.981642
20
1251.939513
11
-1857.498219
21
1246.189423
0
LINE
8
0
10
-1857.498219
20
1246.189423
11
-1903.971940
21
1239.939327
0
LINE
8
0
10
-1903.971940
20
1239.939327
11
-1950.402809
21
1233.189225
0
LINE
8
0
10
-1950.402809
20
1233.189225
11
-1996.790828
21
1225.939116
0
LINE
8
0
10
-1996.790828
20
1225.939116
11
-2043.136000
21
1218.189000
0
LINE
8
0
10
-2043.140000
20
1303.520000
11
-2043.140000
21
1218.190000
0
LINE
8
0
10
-1296.470000
20
1303.520000
11
-1296.470000
21
1282.190000
0
LINE
8
0
10
-1278.870000
20
1303.520000
11
-1296.470000
21
1303.520000
0
LINE
8
0
10
-1278.870000
20
1346.190000
11
-1278.870000
21
1303.520000
0
LINE
8
0
10
-1296.470000
20
1346.190000
11
-1278.870000
21
1346.190000
0
LINE
8
0
10
-1296.470000
20
1466.300000
11
-1343.458180
21
1466.050000
0
LINE
8
0
10
-1343.458180
20
1466.050000
11
-1390.403473
21
1465.300002
0
LINE
8
0
10
-1390.403473
20
1465.300002
11
-1437.305880
21
1464.050004
0
LINE
8
0
10
-1437.305880
20
1464.050004
11
-1484.165406
21
1462.300006
0
LINE
8
0
10
-1484.165406
20
1462.300006
11
-1530.982053
21
1460.050010
0
LINE
8
0
10
-1530.982053
20
1460.050010
11
-1577.755824
21
1457.300014
0
LINE
8
0
10
-1577.755824
20
1457.300014
11
-1624.486722
21
1454.050019
0
LINE
8
0
10
-1624.486722
20
1454.050019
11
-1671.174750
21
1450.300025
0
LINE
8
0
10
-1671.174750
20
1450.300025
11
-1717.819911
21
1446.050032
0
LINE
8
0
10
-1717.819911
20
1446.050032
11
-1764.422207
21
1441.300039
0
LINE
8
0
10
-1764.422207
20
1441.300039
11
-1810.981642
21
1436.050047
0
LINE
8
0
10
-1810.981642
20
1436.050047
11
-1857.498219
21
1430.300056
0
LINE
8
0
10
-1857.498219
20
1430.300056
11
-1903.971940
21
1424.050066
0
LINE
8
0
10
-1903.971940
20
1424.050066
11
-1950.402809
21
1417.300077
0
LINE
8
0
10
-1950.402809
20
1417.300077
11
-1996.790828
21
1410.050088
0
LINE
8
0
10
-1996.790828
20
1410.050088
11
-2043.136000
21
1402.300100
0
LINE
8
0
10
-1296.470000
20
1466.300000
11
-1296.470000
21
1444.970000
0
LINE
8
0
10
-1296.470000
20
1380.970000
11
-1343.458180
21
1380.719996
0
LINE
8
0
10
-1343.458180
20
1380.719996
11
-1390.403473
21
1379.969983
0
LINE
8
0
10
-1390.403473
20
1379.969983
11
-1437.305880
21
1378.719962
0
LINE
8
0
10
-1437.305880
20
1378.719962
11
-1484.165406
21
1376.969933
0
LINE
8
0
10
-1484.165406
20
1376.969933
11
-1530.982053
21
1374.719896
0
LINE
8
0
10
-1530.982053
20
1374.719896
11
-1577.755824
21
1371.969851
0
LINE
8
0
10
-1577.755824
20
1371.969851
11
-1624.486722
21
1368.719798
0
LINE
8
0
10
-1624.486722
20
1368.719798
11
-1671.174750
21
1364.969738
0
LINE
8
0
10
-1671.174750
20
1364.969738
11
-1717.819911
21
1360.719670
0
LINE
8
0
10
-1717.819911
20
1360.719670
11
-1764.422207
21
1355.969595
0
LINE
8
0
10
-1764.422207
20
1355.969595
11
-1810.981642
21
1350.719513
0
LINE
8
0
10
-1810.981642
20
1350.719513
11
-1857.498219
21
1344.969423
0
LINE
8
0
10
-1857.498219
20
1344.969423
11
-1903.971940
21
1338.719327
0
LINE
8
0
10
-1903.971940
20
1338.719327
11
-1950.402809
21
1331.969225
0
LINE
8
0
10
-1950.402809
20
1331.969225
11
-1996.790828
21
1324.719116
0
LINE
8
0
10
-1996.790828
20
1324.719116
11
-2043.136000
21
1316.969000
0
LINE
8
0
10
-2043.140000
20
1402.300000
11
-2043.140000
21
1316.960000
0
LINE
8
0
10
-1296.470000
20
1402.300000
11
-1296.470000
21
1380.970000
0
LINE
8
0
10
-1278.870000
20
1402.300000
11
-1296.470000
21
1402.300000
0
LINE
8
0
10
-1278.870000
20
1444.970000
11
-1278.870000
21
1402.300000
0
LINE
8
0
10
-1296.470000
20
1444.970000
11
-1278.870000
21
1444.970000
 0 
ENDSEC
 0 
EOF