0
SECTION
2
HEADER
9
$INSUNITS
70
4
9
$ACADVER
1
AC1014
9
$HANDSEED
5
FFFF
0
ENDSEC
0
SECTION
2
TABLES
0
TABLE
2
VPORT
5
8
100
AcDbSymbolTable
0
ENDTAB
0
TABLE
2
LTYPE
5
5
100
AcDbSymbolTable
0
LTYPE
5
14
100
AcDbSymbolTableRecord
100
AcDbLinetypeTableRecord
2
BYBLOCK
70
0
0
LTYPE
5
15
100
AcDbSymbolTableRecord
100
AcDbLinetypeTableRecord
2
BYLAYER
70
0
0
ENDTAB
0
TABLE
2
LAYER
5
2
100
AcDbSymbolTable
70
2
0
LAYER
5
50
100
AcDbSymbolTableRecord
100
AcDbLayerTableRecord
2
0
70
0
6
CONTINUOUS
0
ENDTAB
0
TABLE
2
STYLE
5
3
100
AcDbSymbolTable
70
1
0
STYLE
5
11
100
AcDbSymbolTableRecord
100
AcDbTextStyleTableRecord
2
STANDARD
70
0
0
ENDTAB
0
TABLE
2
VIEW
5
6
100
AcDbSymbolTable
70
0
0
ENDTAB
0
TABLE
2
UCS
5
7
100
AcDbSymbolTable
70
0
0
ENDTAB
0
TABLE
2
APPID
5
9
100
AcDbSymbolTable
70
2
0
APPID
5
12
100
AcDbSymbolTableRecord
100
AcDbRegAppTableRecord
2
ACAD
70
0
0
ENDTAB
0
TABLE
2
DIMSTYLE
5
A
100
AcDbSymbolTable
70
1
0
ENDTAB
0
TABLE
2
BLOCK_RECORD
5
1
100
AcDbSymbolTable
70
1
0
BLOCK_RECORD
5
1F
100
AcDbSymbolTableRecord
100
AcDbBlockTableRecord
2
*MODEL_SPACE
0
BLOCK_RECORD
5
1B
100
AcDbSymbolTableRecord
100
AcDbBlockTableRecord
2
*PAPER_SPACE
0
ENDTAB
0
ENDSEC
0
SECTION
2
BLOCKS
0
BLOCK
5
20
100
AcDbEntity
100
AcDbBlockBegin
2
*MODEL_SPACE
0
ENDBLK
5
21
100
AcDbEntity
100
AcDbBlockEnd
0
BLOCK
5
1C
100
AcDbEntity
100
AcDbBlockBegin
2
*PAPER_SPACE
0
ENDBLK
5
1D
100
AcDbEntity
100
AcDbBlockEnd
0
ENDSEC
0
SECTION
2
ENTITIES
0
LWPOLYLINE
5
100
100
AcDbEntity
8
0
100
AcDbPolyline
90
4
70
1
43
0.0
10
-31.600000000000001
20
236.99666666666675
10
-31.600000000000001
20
201.99666666666675
10
-20
20
201.99666666666675
10
-20
20
236.99666666666675
0
LWPOLYLINE
5
101
100
AcDbEntity
8
0
100
AcDbPolyline
90
4
70
1
43
0.0
10
-336
20
78.663333333333412
10
-324.39999999999998
20
78.663333333333412
10
-324.39999999999998
20
113.66333333333341
10
-336
20
113.66333333333341
0
LWPOLYLINE
5
102
100
AcDbEntity
8
0
100
AcDbPolyline
90
4
70
1
43
0.0
10
-336
20
140.3300000000001
10
-324.39999999999998
20
140.3300000000001
10
-324.39999999999998
20
175.3300000000001
10
-336
20
175.3300000000001
0
LWPOLYLINE
5
103
100
AcDbEntity
8
0
100
AcDbPolyline
90
4
70
1
43
0.0
10
-324.39999999999998
20
236.99666666666675
10
-336
20
236.99666666666675
10
-336
20
201.99666666666675
10
-324.39999999999998
20
201.99666666666675
0
LWPOLYLINE
5
104
100
AcDbEntity
8
0
100
AcDbPolyline
90
4
70
1
43
0.0
10
-336
20
16.996666666666762
10
-324.39999999999998
20
16.996666666666744
10
-324.39999999999998
20
51.996666666666741
10
-336
20
51.996666666666741
0
LWPOLYLINE
5
105
100
AcDbEntity
8
0
100
AcDbPolyline
90
4
70
1
43
0.0
10
-66.599999999999994
20
28.596666666666735
10
-101.59999999999999
20
28.596666666666735
10
-101.59999999999999
20
16.996666666666734
10
-66.599999999999994
20
16.996666666666734
0
LWPOLYLINE
5
106
100
AcDbEntity
8
0
100
AcDbPolyline
90
4
70
1
43
0.0
10
-164.20000000000002
20
16.996666666666734
10
-129.19999999999999
20
16.996666666666734
10
-129.19999999999999
20
28.596666666666735
10
-164.20000000000002
20
28.596666666666735
0
LWPOLYLINE
5
107
100
AcDbEntity
8
0
100
AcDbPolyline
90
4
70
1
43
0.0
10
-289.40000000000003
20
16.996666666666734
10
-254.40000000000003
20
16.996666666666734
10
-254.40000000000003
20
28.596666666666735
10
-289.40000000000003
20
28.596666666666735
0
LWPOLYLINE
5
108
100
AcDbEntity
8
0
100
AcDbPolyline
90
4
70
1
43
0.0
10
-226.80000000000001
20
16.996666666666734
10
-191.80000000000001
20
16.996666666666734
10
-191.80000000000001
20
28.596666666666735
10
-226.80000000000001
20
28.596666666666735
0
LWPOLYLINE
5
109
100
AcDbEntity
8
0
100
AcDbPolyline
90
4
70
1
43
0.0
10
-20
20
51.996666666666741
10
-31.600000000000001
20
51.996666666666741
10
-31.600000000000001
20
16.996666666666744
10
-20
20
16.996666666666762
0
LWPOLYLINE
5
110
100
AcDbEntity
8
0
100
AcDbPolyline
90
4
70
1
43
0.0
10
-31.600000000000001
20
113.66333333333341
10
-31.600000000000001
20
78.663333333333412
10
-20
20
78.663333333333412
10
-20
20
113.66333333333341
0
LWPOLYLINE
5
111
100
AcDbEntity
8
0
100
AcDbPolyline
90
4
70
1
43
0.0
10
-31.600000000000001
20
175.3300000000001
10
-31.600000000000001
20
140.3300000000001
10
-20
20
140.3300000000001
10
-20
20
175.3300000000001
0
LWPOLYLINE
5
112
100
AcDbEntity
8
0
100
AcDbPolyline
90
8
70
1
43
0.0
10
-346
20
-0.0033333333333129822
42
-0.4142135623730922
10
-356
20
9.9966666666667336
10
-355.99999999999994
20
243.99666666666675
42
-0.41421356237309193
10
-346
20
253.99666666666675
10
-10
20
253.99666666666675
42
-0.41421356237309326
10
1.4791141972893971e-30
20
243.99666666666675
10
-2.2204460492503131e-15
20
9.9966666666667372
42
-0.41421356237309503
10
-10
20
-0.0033333333332663528
0
ENDSEC
0
SECTION
2
OBJECTS
0
DICTIONARY
5
C
100
AcDbDictionary
3
ACAD_GROUP
350
D
3
ACAD_MLINESTYLE
350
17
0
DICTIONARY
5
D
100
AcDbDictionary
0
DICTIONARY
5
1A
330
C
100
AcDbDictionary
0
DICTIONARY
5
17
100
AcDbDictionary
0
ENDSEC
0
EOF
