  0
SECTION
  2
HEADER
  9
$ACADVER
  1
AC1027
  9
$ACADMAINTVER
 70
   125
  9
$DWGCODEPAGE
  3
ANSI_1252
  9
$REQUIREDVERSIONS
160
                 0
  9
$INSBASE
 10
0.0
 20
0.0
 30
0.0
  9
$EXTMIN
 10
1.000000000000000E+20
 20
1.000000000000000E+20
 30
1.000000000000000E+20
  9
$EXTMAX
 10
-1.000000000000000E+20
 20
-1.000000000000000E+20
 30
-1.000000000000000E+20
  9
$LIMMIN
 10
0.0
 20
0.0
  9
$LIMMAX
 10
12.0
 20
9.0
  9
$ORTHOMODE
 70
     0
  9
$REGENMODE
 70
     1
  9
$FILLMODE
 70
     1
  9
$QTEXTMODE
 70
     0
  9
$MIRRTEXT
 70
     0
  9
$LTSCALE
 40
1.0
  9
$ATTMODE
 70
     1
  9
$TEXTSIZE
 40
0.2
  9
$TRACEWID
 40
0.05
  9
$TEXTSTYLE
  7
Standard
  9
$CLAYER
  8
0
  9
$CELTYPE
  6
ByLayer
  9
$CECOLOR
 62
   256
  9
$CELTSCALE
 40
1.0
  9
$DISPSILH
 70
     0
  9
$DIMSCALE
 40
1.0
  9
$DIMASZ
 40
0.18
  9
$DIMEXO
 40
0.0625
  9
$DIMDLI
 40
0.38
  9
$DIMRND
 40
0.0
  9
$DIMDLE
 40
0.0
  9
$DIMEXE
 40
0.18
  9
$DIMTP
 40
0.0
  9
$DIMTM
 40
0.0
  9
$DIMTXT
 40
0.18
  9
$DIMCEN
 40
0.09
  9
$DIMTSZ
 40
0.0
  9
$DIMTOL
 70
     0
  9
$DIMLIM
 70
     0
  9
$DIMTIH
 70
     1
  9
$DIMTOH
 70
     1
  9
$DIMSE1
 70
     0
  9
$DIMSE2
 70
     0
  9
$DIMTAD
 70
     0
  9
$DIMZIN
 70
     0
  9
$DIMBLK
  1

  9
$DIMASO
 70
     1
  9
$DIMSHO
 70
     1
  9
$DIMPOST
  1

  9
$DIMAPOST
  1

  9
$DIMALT
 70
     0
  9
$DIMALTD
 70
     2
  9
$DIMALTF
 40
25.4
  9
$DIMLFAC
 40
1.0
  9
$DIMTOFL
 70
     0
  9
$DIMTVP
 40
0.0
  9
$DIMTIX
 70
     0
  9
$DIMSOXD
 70
     0
  9
$DIMSAH
 70
     0
  9
$DIMBLK1
  1

  9
$DIMBLK2
  1

  9
$DIMSTYLE
  2
Standard
  9
$DIMCLRD
 70
     0
  9
$DIMCLRE
 70
     0
  9
$DIMCLRT
 70
     0
  9
$DIMTFAC
 40
1.0
  9
$DIMGAP
 40
0.09
  9
$DIMJUST
 70
     0
  9
$DIMSD1
 70
     0
  9
$DIMSD2
 70
     0
  9
$DIMTOLJ
 70
     1
  9
$DIMTZIN
 70
     0
  9
$DIMALTZ
 70
     0
  9
$DIMALTTZ
 70
     0
  9
$DIMUPT
 70
     0
  9
$DIMDEC
 70
     4
  9
$DIMTDEC
 70
     4
  9
$DIMALTU
 70
     2
  9
$DIMALTTD
 70
     2
  9
$DIMTXSTY
  7
Standard
  9
$DIMAUNIT
 70
     0
  9
$DIMADEC
 70
     0
  9
$DIMALTRND
 40
0.0
  9
$DIMAZIN
 70
     0
  9
$DIMDSEP
 70
    46
  9
$DIMATFIT
 70
     3
  9
$DIMFRAC
 70
     0
  9
$DIMLDRBLK
  1

  9
$DIMLUNIT
 70
     2
  9
$DIMLWD
 70
    -2
  9
$DIMLWE
 70
    -2
  9
$DIMTMOVE
 70
     0
  9
$DIMFXL
 40
1.0
  9
$DIMFXLON
 70
     0
  9
$DIMJOGANG
 40
0.7853981633974483
  9
$DIMTFILL
 70
     0
  9
$DIMTFILLCLR
 70
     0
  9
$DIMARCSYM
 70
     0
  9
$DIMLTYPE
  6

  9
$DIMLTEX1
  6

  9
$DIMLTEX2
  6

  9
$DIMTXTDIRECTION
 70
     0
  9
$LUNITS
 70
     2
  9
$LUPREC
 70
     4
  9
$SKETCHINC
 40
0.1
  9
$FILLETRAD
 40
0.0
  9
$AUNITS
 70
     0
  9
$AUPREC
 70
     0
  9
$MENU
  1
.
  9
$ELEVATION
 40
0.0
  9
$PELEVATION
 40
0.0
  9
$THICKNESS
 40
0.0
  9
$LIMCHECK
 70
     0
  9
$CHAMFERA
 40
0.0
  9
$CHAMFERB
 40
0.0
  9
$CHAMFERC
 40
0.0
  9
$CHAMFERD
 40
0.0
  9
$SKPOLY
 70
     0
  9
$TDCREATE
 40
2459625.573969908
  9
$TDUCREATE
 40
2459625.573969908
  9
$TDUPDATE
 40
2459625.573969908
  9
$TDUUPDATE
 40
2459625.573969908
  9
$TDINDWG
 40
0.0000000000
  9
$TDUSRTIMER
 40
0.0000000000
  9
$USRTIMER
 70
     1
  9
$ANGBASE
 50
0.0
  9
$ANGDIR
 70
     0
  9
$PDMODE
 70
     0
  9
$PDSIZE
 40
0.0
  9
$PLINEWID
 40
0.0
  9
$SPLFRAME
 70
     0
  9
$SPLINETYPE
 70
     6
  9
$SPLINESEGS
 70
     8
  9
$HANDSEED
  5
13D
  9
$SURFTAB1
 70
     6
  9
$SURFTAB2
 70
     6
  9
$SURFTYPE
 70
     6
  9
$SURFU
 70
     6
  9
$SURFV
 70
     6
  9
$UCSBASE
  2

  9
$UCSNAME
  2

  9
$UCSORG
 10
0.0
 20
0.0
 30
0.0
  9
$UCSXDIR
 10
1.0
 20
0.0
 30
0.0
  9
$UCSYDIR
 10
0.0
 20
1.0
 30
0.0
  9
$UCSORTHOREF
  2

  9
$UCSORTHOVIEW
 70
     0
  9
$UCSORGTOP
 10
0.0
 20
0.0
 30
0.0
  9
$UCSORGBOTTOM
 10
0.0
 20
0.0
 30
0.0
  9
$UCSORGLEFT
 10
0.0
 20
0.0
 30
0.0
  9
$UCSORGRIGHT
 10
0.0
 20
0.0
 30
0.0
  9
$UCSORGFRONT
 10
0.0
 20
0.0
 30
0.0
  9
$UCSORGBACK
 10
0.0
 20
0.0
 30
0.0
  9
$PUCSBASE
  2

  9
$PUCSNAME
  2

  9
$PUCSORG
 10
0.0
 20
0.0
 30
0.0
  9
$PUCSXDIR
 10
1.0
 20
0.0
 30
0.0
  9
$PUCSYDIR
 10
0.0
 20
1.0
 30
0.0
  9
$PUCSORTHOREF
  2

  9
$PUCSORTHOVIEW
 70
     0
  9
$PUCSORGTOP
 10
0.0
 20
0.0
 30
0.0
  9
$PUCSORGBOTTOM
 10
0.0
 20
0.0
 30
0.0
  9
$PUCSORGLEFT
 10
0.0
 20
0.0
 30
0.0
  9
$PUCSORGRIGHT
 10
0.0
 20
0.0
 30
0.0
  9
$PUCSORGFRONT
 10
0.0
 20
0.0
 30
0.0
  9
$PUCSORGBACK
 10
0.0
 20
0.0
 30
0.0
  9
$USERI1
 70
     0
  9
$USERI2
 70
     0
  9
$USERI3
 70
     0
  9
$USERI4
 70
     0
  9
$USERI5
 70
     0
  9
$USERR1
 40
0.0
  9
$USERR2
 40
0.0
  9
$USERR3
 40
0.0
  9
$USERR4
 40
0.0
  9
$USERR5
 40
0.0
  9
$WORLDVIEW
 70
     1
  9
$SHADEDGE
 70
     3
  9
$SHADEDIF
 70
    70
  9
$TILEMODE
 70
     1
  9
$MAXACTVP
 70
    64
  9
$PINSBASE
 10
0.0
 20
0.0
 30
0.0
  9
$PLIMCHECK
 70
     0
  9
$PEXTMIN
 10
1.000000000000000E+20
 20
1.000000000000000E+20
 30
1.000000000000000E+20
  9
$PEXTMAX
 10
-1.000000000000000E+20
 20
-1.000000000000000E+20
 30
-1.000000000000000E+20
  9
$PLIMMIN
 10
0.0
 20
0.0
  9
$PLIMMAX
 10
12.0
 20
9.0
  9
$UNITMODE
 70
     0
  9
$VISRETAIN
 70
     1
  9
$PLINEGEN
 70
     0
  9
$PSLTSCALE
 70
     1
  9
$TREEDEPTH
 70
  3020
  9
$CMLSTYLE
  2
Standard
  9
$CMLJUST
 70
     0
  9
$CMLSCALE
 40
1.0
  9
$PROXYGRAPHICS
 70
     1
  9
$MEASUREMENT
 70
     0
  9
$CELWEIGHT
370
    -1
  9
$ENDCAPS
280
     0
  9
$JOINSTYLE
280
     0
  9
$LWDISPLAY
290
     0
  9
$INSUNITS
 70
     5
  9
$HYPERLINKBASE
  1

  9
$STYLESHEET
  1

  9
$XEDIT
290
     1
  9
$CEPSNTYPE
380
     0
  9
$PSTYLEMODE
290
     1
  9
$FINGERPRINTGUID
  2
{A15BDD93-2B2F-2748-A1B8-9F9C968602D0}
  9
$VERSIONGUID
  2
{2F1DE3BE-85F6-7647-A3B7-2FA95FC9CB74}
  9
$EXTNAMES
290
     1
  9
$PSVPSCALE
 40
0.0
  9
$OLESTARTUP
290
     0
  9
$SORTENTS
280
   127
  9
$INDEXCTL
280
     0
  9
$HIDETEXT
280
     1
  9
$XCLIPFRAME
280
     2
  9
$HALOGAP
280
     0
  9
$OBSCOLOR
 70
   257
  9
$OBSLTYPE
280
     0
  9
$INTERSECTIONDISPLAY
280
     0
  9
$INTERSECTIONCOLOR
 70
   257
  9
$DIMASSOC
280
     2
  9
$PROJECTNAME
  1

  9
$CAMERADISPLAY
290
     0
  9
$LENSLENGTH
 40
50.0
  9
$CAMERAHEIGHT
 40
0.0
  9
$STEPSPERSEC
 40
2.0
  9
$STEPSIZE
 40
6.0
  9
$3DDWFPREC
 40
2.0
  9
$PSOLWIDTH
 40
0.25
  9
$PSOLHEIGHT
 40
4.0
  9
$LOFTANG1
 40
1.570796326794896
  9
$LOFTANG2
 40
1.570796326794896
  9
$LOFTMAG1
 40
0.0
  9
$LOFTMAG2
 40
0.0
  9
$LOFTPARAM
 70
     7
  9
$LOFTNORMALS
280
     1
  9
$LATITUDE
 40
37.795
  9
$LONGITUDE
 40
-122.394
  9
$NORTHDIRECTION
 40
0.0
  9
$TIMEZONE
 70
 -8000
  9
$LIGHTGLYPHDISPLAY
280
     1
  9
$TILEMODELIGHTSYNCH
280
     1
  9
$CMATERIAL
347
11
  9
$SOLIDHIST
280
     0
  9
$SHOWHIST
280
     1
  9
$DWFFRAME
280
     2
  9
$DGNFRAME
280
     0
  9
$REALWORLDSCALE
290
     1
  9
$INTERFERECOLOR
 62
     1
  9
$INTERFEREOBJVS
345
33
  9
$INTERFEREVPVS
346
30
  9
$CSHADOW
280
     0
  9
$SHADOWPLANELOCATION
 40
0.0
  0
ENDSEC
  0
SECTION
  2
CLASSES
  0
CLASS
  1
ACDBDICTIONARYWDFLT
  2
AcDbDictionaryWithDefault
  3
ObjectDBX Classes
 90
        0
 91
        1
280
     0
281
     0
  0
CLASS
  1
MATERIAL
  2
AcDbMaterial
  3
ObjectDBX Classes
 90
     1153
 91
        3
280
     0
281
     0
  0
CLASS
  1
VISUALSTYLE
  2
AcDbVisualStyle
  3
ObjectDBX Classes
 90
     4095
 91
       24
280
     0
281
     0
  0
CLASS
  1
SCALE
  2
AcDbScale
  3
ObjectDBX Classes
 90
     1153
 91
       17
280
     0
281
     0
  0
CLASS
  1
TABLESTYLE
  2
AcDbTableStyle
  3
ObjectDBX Classes
 90
     4095
 91
        1
280
     0
281
     0
  0
CLASS
  1
MLEADERSTYLE
  2
AcDbMLeaderStyle
  3
ACDB_MLEADERSTYLE_CLASS
 90
     4095
 91
        1
280
     0
281
     0
  0
CLASS
  1
ACDBSECTIONVIEWSTYLE
  2
AcDbSectionViewStyle
  3
ObjectDBX Classes
 90
     1025
 91
        1
280
     0
281
     0
  0
CLASS
  1
ACDBDETAILVIEWSTYLE
  2
AcDbDetailViewStyle
  3
ObjectDBX Classes
 90
     1025
 91
        1
280
     0
281
     0
  0
CLASS
  1
DICTIONARYVAR
  2
AcDbDictionaryVar
  3
ObjectDBX Classes
 90
        0
 91
        5
280
     0
281
     0
  0
CLASS
  1
CELLSTYLEMAP
  2
AcDbCellStyleMap
  3
ObjectDBX Classes
 90
     1152
 91
        1
280
     0
281
     0
  0
ENDSEC
  0
SECTION
  2
TABLES
  0
TABLE
  2
VPORT
  5
8
330
0
100
AcDbSymbolTable
 70
     1
1001
ACAD
1000
DbSaveVer
1071
      247
  0
VPORT
  5
57
330
8
100
AcDbSymbolTableRecord
100
AcDbViewportTableRecord
  2
*Active
 70
     0
 10
0.0
 20
0.0
 11
1.0
 21
1.0
 12
500.0
 22
500.0
 13
0.0
 23
0.0
 14
1.0
 24
1.0
 15
0.0
 25
0.0
 16
0.0
 26
0.0
 36
1.0
 17
0.0
 27
0.0
 37
0.0
 40
12.0
 41
1.0
 42
50.0
 43
0.0
 44
0.0
 50
0.0
 51
0.0
 71
     0
 72
   100
 73
     1
 74
     1
 75
     0
 76
     0
 77
     0
 78
     0
281
     0
 65
     1
110
0.0
120
0.0
130
0.0
111
1.0
121
0.0
131
0.0
112
0.0
122
1.0
132
0.0
 79
     0
146
0.0
 60
     3
 61
     5
292
     1
282
     1
141
0.0
142
0.0
 63
   250
421
  3355443
  0
ENDTAB
  0
TABLE
  2
LTYPE
  5
5
330
0
100
AcDbSymbolTable
 70
     1
  0
LTYPE
  5
5B
330
5
100
AcDbSymbolTableRecord
100
AcDbLinetypeTableRecord
  2
ByBlock
 70
     0
  3

 72
    65
 73
     0
 40
0.0
  0
LTYPE
  5
5C
330
5
100
AcDbSymbolTableRecord
100
AcDbLinetypeTableRecord
  2
ByLayer
 70
     0
  3

 72
    65
 73
     0
 40
0.0
  0
LTYPE
  5
5D
330
5
100
AcDbSymbolTableRecord
100
AcDbLinetypeTableRecord
  2
Continuous
 70
     0
  3
Solid line
 72
    65
 73
     0
 40
0.0
  0
ENDTAB
  0
TABLE
  2
LAYER
  5
2
330
0
100
AcDbSymbolTable
 70
     3
  0
LAYER
  5
54
330
2
100
AcDbSymbolTableRecord
100
AcDbLayerTableRecord
  2
0
 70
     0
 62
     7
  6
Continuous
370
    -3
390
F
347
21
348
0
  0
LAYER
  5
7A
330
2
100
AcDbSymbolTableRecord
100
AcDbLayerTableRecord
  2
CCC_work v8_Sketch1
 70
     0
 62
     7
  6
Continuous
370
    -3
390
F
347
21
348
0
1001
NFusion_SketchTransform
1000
1.000000;0.000000;0.000000;0.000000;0.000000;1.000000;0.000000;0.000000;0.000000;0.000000;1.000000;0.000000;0.000000;0.000000;0.000000;1.000000
  0
LAYER
  5
12E
330
2
100
AcDbSymbolTableRecord
100
AcDbLayerTableRecord
  2
CCC_work v8_Sketch2
 70
     0
 62
     7
  6
Continuous
370
    -3
390
F
347
21
348
0
1001
NFusion_SketchTransform
1000
1.000000;0.000000;0.000000;0.000000;0.000000;1.000000;0.000000;0.000000;0.000000;0.000000;1.000000;0.000000;0.000000;0.000000;0.000000;1.000000
  0
ENDTAB
  0
TABLE
  2
STYLE
  5
3
330
0
100
AcDbSymbolTable
 70
     2
  0
STYLE
  5
55
330
3
100
AcDbSymbolTableRecord
100
AcDbTextStyleTableRecord
  2
Standard
 70
     0
 40
0.0
 41
1.0
 50
0.0
 71
     0
 42
0.2
  3
txt
  4

  0
STYLE
  5
5A
330
3
100
AcDbSymbolTableRecord
100
AcDbTextStyleTableRecord
  2
Annotative
 70
     0
 40
0.0
 41
1.0
 50
0.0
 71
     0
 42
0.2
  3
txt
  4

1001
AcadAnnotative
1000
AnnotativeData
1002
{
1070
     1
1070
     1
1002
}
  0
ENDTAB
  0
TABLE
  2
VIEW
  5
6
330
0
100
AcDbSymbolTable
 70
     0
  0
ENDTAB
  0
TABLE
  2
UCS
  5
7
330
0
100
AcDbSymbolTable
 70
     0
  0
ENDTAB
  0
TABLE
  2
APPID
  5
9
330
0
100
AcDbSymbolTable
 70
     4
  0
APPID
  5
56
330
9
100
AcDbSymbolTableRecord
100
AcDbRegAppTableRecord
  2
ACAD
 70
     0
  0
APPID
  5
5E
330
9
100
AcDbSymbolTableRecord
100
AcDbRegAppTableRecord
  2
AcadAnnotative
 70
     0
  0
APPID
  5
78
330
9
100
AcDbSymbolTableRecord
100
AcDbRegAppTableRecord
  2
EDIT_IN_FUSION_ACAD_ADDIN
 70
     0
  0
APPID
  5
79
330
9
100
AcDbSymbolTableRecord
100
AcDbRegAppTableRecord
  2
NFusion_SketchTransform
 70
     0
  0
ENDTAB
  0
TABLE
  2
DIMSTYLE
  5
A
330
0
100
AcDbSymbolTable
 70
     2
100
AcDbDimStyleTable
 71
     0
  0
DIMSTYLE
105
58
330
A
100
AcDbSymbolTableRecord
100
AcDbDimStyleTableRecord
  2
Standard
 70
     0
340
55
  0
DIMSTYLE
105
59
330
A
100
AcDbSymbolTableRecord
100
AcDbDimStyleTableRecord
  2
Annotative
 70
     0
340
55
1001
AcadAnnotative
1000
AnnotativeData
1002
{
1070
     1
1070
     1
1002
}
  0
ENDTAB
  0
TABLE
  2
BLOCK_RECORD
  5
1
330
0
100
AcDbSymbolTable
 70
     1
  0
BLOCK_RECORD
  5
70
330
1
100
AcDbSymbolTableRecord
100
AcDbBlockTableRecord
  2
*Model_Space
340
73
 70
     0
280
     1
281
     0
  0
BLOCK_RECORD
  5
6C
330
1
100
AcDbSymbolTableRecord
100
AcDbBlockTableRecord
  2
*Paper_Space
340
6F
 70
     0
280
     1
281
     0
  0
BLOCK_RECORD
  5
74
330
1
100
AcDbSymbolTableRecord
100
AcDbBlockTableRecord
  2
*Paper_Space0
340
77
 70
     0
280
     1
281
     0
  0
ENDTAB
  0
ENDSEC
  0
SECTION
  2
BLOCKS
  0
BLOCK
  5
71
330
70
100
AcDbEntity
  8
0
100
AcDbBlockBegin
  2
*Model_Space
 70
     0
 10
0.0
 20
0.0
 30
0.0
  3
*Model_Space
  1

  0
ENDBLK
  5
72
330
70
100
AcDbEntity
  8
0
100
AcDbBlockEnd
  0
BLOCK
  5
6D
330
6C
100
AcDbEntity
 67
     1
  8
0
100
AcDbBlockBegin
  2
*Paper_Space
 70
     0
 10
0.0
 20
0.0
 30
0.0
  3
*Paper_Space
  1

  0
ENDBLK
  5
6E
330
6C
100
AcDbEntity
 67
     1
  8
0
100
AcDbBlockEnd
  0
BLOCK
  5
75
330
74
100
AcDbEntity
 67
     1
  8
0
100
AcDbBlockBegin
  2
*Paper_Space0
 70
     0
 10
0.0
 20
0.0
 30
0.0
  3
*Paper_Space0
  1

  0
ENDBLK
  5
76
330
74
100
AcDbEntity
 67
     1
  8
0
100
AcDbBlockEnd
  0
ENDSEC
  0
SECTION
  2
ENTITIES
  0
POINT
  5
7B
330
70
100
AcDbEntity
  8
CCC_work v8_Sketch1
100
AcDbPoint
 10
0.0
 20
0.0
 30
0.0
  0
POINT
  5
7C
330
70
100
AcDbEntity
  8
CCC_work v8_Sketch1
100
AcDbPoint
 10
4.796496804604042
 20
-19.19166279345794
 30
0.0
  0
POINT
  5
7D
330
70
100
AcDbEntity
  8
CCC_work v8_Sketch1
100
AcDbPoint
 10
4.796496868417639
 20
-19.19085149937976
 30
0.0
  0
POINT
  5
7E
330
70
100
AcDbEntity
  8
CCC_work v8_Sketch1
100
AcDbPoint
 10
13.52607988514012
 20
-17.09662880127209
 30
0.0
  0
POINT
  5
7F
330
70
100
AcDbEntity
  8
CCC_work v8_Sketch1
100
AcDbPoint
 10
6.311326769781328
 20
-1.888700974178187
 30
0.0
  0
POINT
  5
80
330
70
100
AcDbEntity
  8
CCC_work v8_Sketch1
100
AcDbPoint
 10
6.239055664603374
 20
-21.30464051292336
 30
0.0
  0
POINT
  5
81
330
70
100
AcDbEntity
  8
CCC_work v8_Sketch1
100
AcDbPoint
 10
6.239055664603363
 20
-17.07706248583613
 30
0.0
  0
POINT
  5
82
330
70
100
AcDbEntity
  8
CCC_work v8_Sketch1
100
AcDbPoint
 10
9.865955293080055
 20
-23.39863198974823
 30
0.0
  0
POINT
  5
83
330
70
100
AcDbEntity
  8
CCC_work v8_Sketch1
100
AcDbPoint
 10
-0.0819777532094146
 20
-19.13732776674786
 30
0.0
  0
POINT
  5
84
330
70
100
AcDbEntity
  8
CCC_work v8_Sketch1
100
AcDbPoint
 10
6.239055664603483
 20
-17.07706248583604
 30
0.0
  0
POINT
  5
85
330
70
100
AcDbEntity
  8
CCC_work v8_Sketch1
100
AcDbPoint
 10
13.52607988514023
 20
-21.28507419748735
 30
0.0
  0
POINT
  5
86
330
70
100
AcDbEntity
  8
CCC_work v8_Sketch1
100
AcDbPoint
 10
7.317513879824174
 20
-14.75702395478896
 30
0.0
  0
POINT
  5
87
330
70
100
AcDbEntity
  8
CCC_work v8_Sketch1
100
AcDbPoint
 10
7.317513879824182
 20
-14.75702395478896
 30
0.0
  0
POINT
  5
88
330
70
100
AcDbEntity
  8
CCC_work v8_Sketch1
100
AcDbPoint
 10
7.317513879824197
 20
-23.6246790439705
 30
0.0
  0
POINT
  5
89
330
70
100
AcDbEntity
  8
CCC_work v8_Sketch1
100
AcDbPoint
 10
4.796496868417639
 20
-19.19085149937978
 30
0.0
  0
POINT
  5
8A
330
70
100
AcDbEntity
  8
CCC_work v8_Sketch1
100
AcDbPoint
 10
7.317513879824204
 20
-23.62467904397051
 30
0.0
  0
POINT
  5
8B
330
70
100
AcDbEntity
  8
CCC_work v8_Sketch1
100
AcDbPoint
 10
3.635024870899614
 20
0.7463102336371107
 30
0.0
  0
POINT
  5
8C
330
70
100
AcDbEntity
  8
CCC_work v8_Sketch1
100
AcDbPoint
 10
6.239055664603495
 20
-21.30464051292355
 30
0.0
  0
POINT
  5
8D
330
70
100
AcDbEntity
  8
CCC_work v8_Sketch1
100
AcDbPoint
 10
12.41712710576751
 20
-23.59143574922924
 30
0.0
  0
POINT
  5
8E
330
70
100
AcDbEntity
  8
CCC_work v8_Sketch1
100
AcDbPoint
 10
4.796496868417639
 20
-19.19085149937981
 30
0.0
  0
POINT
  5
8F
330
70
100
AcDbEntity
  8
CCC_work v8_Sketch1
100
AcDbPoint
 10
9.865955293080233
 20
-14.98307100901124
 30
0.0
  0
POINT
  5
90
330
70
100
AcDbEntity
  8
CCC_work v8_Sketch1
100
AcDbPoint
 10
12.41712710576748
 20
-14.79026724953038
 30
0.0
  0
POINT
  5
91
330
70
100
AcDbEntity
  8
CCC_work v8_Sketch1
100
AcDbPoint
 10
9.865955293080258
 20
-23.39863198974823
 30
0.0
  0
POINT
  5
92
330
70
100
AcDbEntity
  8
CCC_work v8_Sketch1
100
AcDbPoint
 10
4.796496804604042
 20
-19.19004020530171
 30
0.0
  0
POINT
  5
93
330
70
100
AcDbEntity
  8
CCC_work v8_Sketch1
100
AcDbPoint
 10
9.865955293080034
 20
-14.98307100901131
 30
0.0
  0
POINT
  5
94
330
70
100
AcDbEntity
  8
CCC_work v8_Sketch1
100
AcDbPoint
 10
3.886757153162045
 20
-19.1905174091959
 30
0.0
  0
POINT
  5
95
330
70
100
AcDbEntity
  8
CCC_work v8_Sketch1
100
AcDbPoint
 10
10.42703121936652
 20
-2.059561827337515
 30
0.0
  0
POINT
  5
96
330
70
100
AcDbEntity
  8
CCC_work v8_Sketch1
100
AcDbPoint
 10
12.41782967514238
 20
-14.79067295183354
 30
0.0
  0
POINT
  5
97
330
70
100
AcDbEntity
  8
CCC_work v8_Sketch1
100
AcDbPoint
 10
3.886757153162046
 20
-19.19118558956356
 30
0.0
  0
POINT
  5
98
330
70
100
AcDbEntity
  8
CCC_work v8_Sketch1
100
AcDbPoint
 10
13.52607988514022
 20
-17.09662880127219
 30
0.0
  0
POINT
  5
99
330
70
100
AcDbEntity
  8
CCC_work v8_Sketch1
100
AcDbPoint
 10
7.317513879824239
 20
-14.75702395478909
 30
0.0
  0
POINT
  5
9A
330
70
100
AcDbEntity
  8
CCC_work v8_Sketch1
100
AcDbPoint
 10
1.311326769781325
 20
-1.894710497612086
 30
0.0
  0
POINT
  5
9B
330
70
100
AcDbEntity
  8
CCC_work v8_Sketch1
100
AcDbPoint
 10
3.977380776874237
 20
-4.283689034614224
 30
0.0
  0
POINT
  5
9C
330
70
100
AcDbEntity
  8
CCC_work v8_Sketch1
100
AcDbPoint
 10
13.52607988514013
 20
-21.28507419748753
 30
0.0
  0
POINT
  5
9D
330
70
100
AcDbEntity
  8
CCC_work v8_Sketch1
100
AcDbPoint
 10
7.317513879824294
 20
-23.62467904397056
 30
0.0
  0
POINT
  5
9E
330
70
100
AcDbEntity
  8
CCC_work v8_Sketch1
100
AcDbPoint
 10
12.4178296751424
 20
-23.59103004692607
 30
0.0
  0
POINT
  5
9F
330
70
100
AcDbEntity
  8
CCC_work v8_Sketch1
100
AcDbPoint
 10
14.99573365329483
 20
-19.19085149937987
 30
0.0
  0
LINE
  5
A0
330
70
100
AcDbEntity
  8
CCC_work v8_Sketch1
100
AcDbLine
 10
7.333144121849969
 20
-7.200365522072784
 30
0.0
 11
10.26884780045134
 21
-7.253697940996534
 31
0.0
  0
LINE
  5
A1
330
70
100
AcDbEntity
  8
CCC_work v8_Sketch1
100
AcDbLine
 10
5.965998072495647
 20
0.6049241712100315
 30
0.0
 11
13.42308848375885
 21
-3.684463521260738
 31
0.0
  0
LINE
  5
A2
330
70
100
AcDbEntity
  8
CCC_work v8_Sketch1
100
AcDbLine
 10
6.811326769781332
 20
-4.770152852872326
 30
0.0
 11
4.233310663135076
 21
-4.770152852872326
 31
0.0
  0
LINE
  5
A3
330
70
100
AcDbEntity
  8
CCC_work v8_Sketch1
100
AcDbLine
 10
10.66689768554817
 20
-7.260929244134955
 30
0.0
 11
13.33215426612086
 21
-7.309348497593781
 31
0.0
  0
LINE
  5
A4
330
70
100
AcDbEntity
  8
CCC_work v8_Sketch1
100
AcDbLine
 10
4.428021075097151
 20
-1.950578851816541
 30
0.0
 11
5.759168973689885
 21
-4.356068182804782
 31
0.0
  0
LINE
  5
A5
330
70
100
AcDbEntity
  8
CCC_work v8_Sketch1
100
AcDbLine
 10
7.521908172613054
 20
3.190224842920755
 30
0.0
 11
6.068497604910569
 21
0.7752374238725919
 31
0.0
  0
LINE
  5
A6
330
70
100
AcDbEntity
  8
CCC_work v8_Sketch1
100
AcDbLine
 10
-3.386509642268897
 20
-21.13738089171494
 30
0.0
 11
-3.187509642298242
 21
-21.13737747429081
 31
0.0
  0
LINE
  5
A7
330
70
100
AcDbEntity
  8
CCC_work v8_Sketch1
100
AcDbLine
 10
5.951463714653285
 20
-4.703559959098708
 30
0.0
 11
7.333144121849969
 21
-7.200365522072784
 31
0.0
  0
LINE
  5
A8
330
70
100
AcDbEntity
  8
CCC_work v8_Sketch1
100
AcDbLine
 10
-3.187509642298242
 20
-21.13737747429081
 30
0.0
 11
-3.187490658194938
 21
-22.24284067173337
 31
0.0
  0
LINE
  5
A9
330
70
100
AcDbEntity
  8
CCC_work v8_Sketch1
100
AcDbLine
 10
5.759168973689885
 20
-4.356068182804782
 30
0.0
 11
6.627982831103469
 21
-3.860929332414177
 31
0.0
  0
LINE
  5
AA
330
70
100
AcDbEntity
  8
CCC_work v8_Sketch1
100
AcDbLine
 10
3.489020677088017
 20
1.229847147127669
 30
0.0
 11
3.395223209929321
 21
0.2892326197734696
 31
0.0
  0
LINE
  5
AB
330
70
100
AcDbEntity
  8
CCC_work v8_Sketch1
100
AcDbLine
 10
0.8113267697813268
 20
1.229847147127674
 30
0.0
 11
3.489020677088017
 21
1.229847147127669
 31
0.0
  0
LINE
  5
AC
330
70
100
AcDbEntity
  8
CCC_work v8_Sketch1
100
AcDbLine
 10
16.42604136363553
 20
-2.168544802858507
 30
0.0
 11
14.98136100891446
 21
0.4421066383857171
 31
0.0
  0
LINE
  5
AD
330
70
100
AcDbEntity
  8
CCC_work v8_Sketch1
100
AcDbLine
 10
-0.1874924697553666
 20
-22.13732595518743
 30
0.0
 11
-4.260050623068387
 21
-18.06476780187438
 31
0.0
  0
LINE
  5
AE
330
70
100
AcDbEntity
  8
CCC_work v8_Sketch1
100
AcDbLine
 10
13.52091831688206
 20
3.081241867399937
 30
0.0
 11
10.5511142526123
 21
3.135193782105008
 31
0.0
  0
LINE
  5
AF
330
70
100
AcDbEntity
  8
CCC_work v8_Sketch1
100
AcDbLine
 10
3.395223209929321
 20
0.2892326197734696
 30
0.0
 11
3.789480952516832
 21
0.2347823451203648
 31
0.0
  0
LINE
  5
B0
330
70
100
AcDbEntity
  8
CCC_work v8_Sketch1
100
AcDbLine
 10
3.833087631449074
 20
-4.770152852872326
 30
0.0
 11
4.128056427737784
 21
-3.77570750699809
 31
0.0
  0
LINE
  5
B1
330
70
100
AcDbEntity
  8
CCC_work v8_Sketch1
100
AcDbLine
 10
6.730326435902838
 20
-0.0639965413003763
 30
0.0
 11
5.863498540078258
 21
0.4346109185507115
 31
0.0
  0
LINE
  5
B2
330
70
100
AcDbEntity
  8
CCC_work v8_Sketch1
100
AcDbLine
 10
10.65228295255095
 20
-4.888972720630267
 30
0.0
 11
10.25428453237149
 21
-4.890094119267623
 31
0.0
  0
LINE
  5
B3
330
70
100
AcDbEntity
  8
CCC_work v8_Sketch1
100
AcDbLine
 10
14.78865320441842
 20
0.7903448530902191
 30
0.0
 11
13.52091831688206
 21
3.081241867399937
 31
0.0
  0
LINE
  5
B4
330
70
100
AcDbEntity
  8
CCC_work v8_Sketch1
100
AcDbLine
 10
13.06454924036426
 20
-3.248657864736329
 30
0.0
 11
12.86462125024535
 21
-3.592798531858078
 31
0.0
  0
LINE
  5
B5
330
70
100
AcDbEntity
  8
CCC_work v8_Sketch1
100
AcDbLine
 10
3.833087631449074
 20
-4.770152852872326
 30
0.0
 11
0.8113267697813251
 21
-4.770152852872326
 31
0.0
  0
LINE
  5
B6
330
70
100
AcDbEntity
  8
CCC_work v8_Sketch1
100
AcDbLine
 10
10.56406710847056
 20
1.032958252040439
 30
0.0
 11
10.26952531415916
 21
1.031754413818624
 31
0.0
  0
LINE
  5
B7
330
70
100
AcDbEntity
  8
CCC_work v8_Sketch1
100
AcDbLine
 10
-0.1874924697553666
 20
-22.13732595518743
 30
0.0
 11
-2.988492469342378
 21
-22.13737405671934
 31
0.0
  0
LINE
  5
B8
330
70
100
AcDbEntity
  8
CCC_work v8_Sketch1
100
AcDbLine
 10
-6.187492468870509
 20
-22.13742899309954
 30
0.0
 11
-3.386492469283532
 21
-22.13738089156753
 31
0.0
  0
LINE
  5
B9
330
70
100
AcDbEntity
  8
CCC_work v8_Sketch1
100
AcDbLine
 10
-2.988509642327715
 20
-21.13737405686681
 30
0.0
 11
-3.187509642298228
 21
-21.13737747429082
 31
0.0
  0
LINE
  5
BA
330
70
100
AcDbEntity
  8
CCC_work v8_Sketch1
100
AcDbLine
 10
3.833087631449074
 20
-4.770152852872326
 30
0.0
 11
3.732291885037802
 21
-3.817831451987529
 31
0.0
  0
LINE
  5
BB
330
70
100
AcDbEntity
  8
CCC_work v8_Sketch1
100
AcDbLine
 10
6.847615919150581
 20
-4.192840927021667
 30
0.0
 11
5.951463714653285
 21
-4.703559959098708
 31
0.0
  0
LINE
  5
BC
330
70
100
AcDbEntity
  8
CCC_work v8_Sketch1
100
AcDbLine
 10
10.66689768554817
 20
-7.260929244134955
 30
0.0
 11
10.65228295255095
 21
-4.888972720630267
 31
0.0
  0
LINE
  5
BD
330
70
100
AcDbEntity
  8
CCC_work v8_Sketch1
100
AcDbLine
 10
13.91983934700566
 20
0.2952060026981227
 30
0.0
 11
14.11273837314654
 21
-0.0529232343876199
 31
0.0
  0
LINE
  5
BE
330
70
100
AcDbEntity
  8
CCC_work v8_Sketch1
100
AcDbLine
 10
6.068497604910569
 20
0.7752374238725918
 30
0.0
 11
6.946165478985124
 21
0.2703947078105138
 31
0.0
  0
LINE
  5
BF
330
70
100
AcDbEntity
  8
CCC_work v8_Sketch1
100
AcDbLine
 10
14.11273837314654
 20
-0.0529232343876199
 30
0.0
 11
14.98136100891446
 21
0.4421066383857168
 31
0.0
  0
LINE
  5
C0
330
70
100
AcDbEntity
  8
CCC_work v8_Sketch1
100
AcDbLine
 10
6.811326769781326
 20
1.22984714712768
 30
0.0
 11
6.811326769781326
 21
-1.689700974178187
 31
0.0
  0
LINE
  5
C1
330
70
100
AcDbEntity
  8
CCC_work v8_Sketch1
100
AcDbLine
 10
10.25428453237149
 20
-4.890094119267623
 30
0.0
 11
10.26884780045134
 21
-7.253697940996534
 31
0.0
  0
LINE
  5
C2
330
70
100
AcDbEntity
  8
CCC_work v8_Sketch1
100
AcDbLine
 10
14.78865320441842
 20
0.7903448530902191
 30
0.0
 11
13.91983934700566
 21
0.2952060026981227
 31
0.0
  0
LINE
  5
C3
330
70
100
AcDbEntity
  8
CCC_work v8_Sketch1
100
AcDbLine
 10
6.81132676978133
 20
-2.087700974178186
 30
0.0
 11
6.811326769781332
 21
-4.770152852872326
 31
0.0
  0
LINE
  5
C4
330
70
100
AcDbEntity
  8
CCC_work v8_Sketch1
100
AcDbLine
 10
3.888708165549167
 20
1.229847147127669
 30
0.0
 11
3.395223209929321
 21
0.2892326197734696
 31
0.0
  0
LINE
  5
C5
330
70
100
AcDbEntity
  8
CCC_work v8_Sketch1
100
AcDbLine
 10
6.627982831103469
 20
-3.860929332414177
 30
0.0
 11
6.847615919150581
 21
-4.192840927021667
 31
0.0
  0
LINE
  5
C6
330
70
100
AcDbEntity
  8
CCC_work v8_Sketch1
100
AcDbLine
 10
14.88500710666646
 20
0.6162257457379413
 30
0.0
 11
7.417944878038206
 21
-3.63926877261555
 31
0.0
  0
LINE
  5
C7
330
70
100
AcDbEntity
  8
CCC_work v8_Sketch1
100
AcDbLine
 10
-0.1874924697553666
 20
-22.13732595518743
 30
0.0
 11
3.857458305868679
 21
-22.13732595518743
 31
0.0
  0
LINE
  5
C8
330
70
100
AcDbEntity
  8
CCC_work v8_Sketch1
100
AcDbLine
 10
-0.1874443682234138
 20
-19.33632595560039
 30
0.0
 11
-1.187444368075984
 21
-19.33630878261507
 31
0.0
  0
LINE
  5
C9
330
70
100
AcDbEntity
  8
CCC_work v8_Sketch1
100
AcDbLine
 10
-0.1874924697553661
 20
-22.13732595518742
 30
0.0
 11
-0.1874443682234138
 21
-19.33632595560039
 31
0.0
  0
LINE
  5
CA
330
70
100
AcDbEntity
  8
CCC_work v8_Sketch1
100
AcDbLine
 10
-0.1873894318431959
 20
-16.13732595607227
 30
0.0
 11
-0.1874375333751681
 21
-18.93832595565924
 31
0.0
  0
LINE
  5
CB
330
70
100
AcDbEntity
  8
CCC_work v8_Sketch1
100
AcDbLine
 10
6.946165478985124
 20
0.2703947078105138
 30
0.0
 11
6.730326435902838
 21
-0.0639965413003763
 31
0.0
  0
LINE
  5
CC
330
70
100
AcDbEntity
  8
CCC_work v8_Sketch1
100
AcDbLine
 10
-1.187444368075984
 20
-19.33630878261507
 30
0.0
 11
-1.187440950651951
 21
-19.13730878264456
 31
0.0
  0
LINE
  5
CD
330
70
100
AcDbEntity
  8
CCC_work v8_Sketch1
100
AcDbLine
 10
4.233310663135076
 20
-4.770152852872326
 30
0.0
 11
3.732291885037802
 21
-3.817831451987529
 31
0.0
  0
LINE
  5
CE
330
70
100
AcDbEntity
  8
CCC_work v8_Sketch1
100
AcDbLine
 10
10.25653206703704
 20
3.140545405514555
 30
0.0
 11
7.521908172613054
 21
3.190224842920755
 31
0.0
  0
LINE
  5
CF
330
70
100
AcDbEntity
  8
CCC_work v8_Sketch1
100
AcDbLine
 10
15.07873196764129
 20
-4.40723448434127
 30
0.0
 11
16.42604136363553
 21
-2.168544802858507
 31
0.0
  0
LINE
  5
D0
330
70
100
AcDbEntity
  8
CCC_work v8_Sketch1
100
AcDbLine
 10
15.07873196764129
 20
-4.40723448434127
 30
0.0
 11
13.06454924036426
 21
-3.248657864736329
 31
0.0
  0
LINE
  5
D1
330
70
100
AcDbEntity
  8
CCC_work v8_Sketch1
100
AcDbLine
 10
10.40382315982475
 20
3.137869593809427
 30
0.0
 11
10.45641300968877
 21
-5.397410356293902
 31
0.0
  0
LINE
  5
D2
330
70
100
AcDbEntity
  8
CCC_work v8_Sketch1
100
AcDbLine
 10
-3.386492469283532
 20
-22.13738089156753
 30
0.0
 11
-3.386509642268897
 21
-21.13738089171494
 31
0.0
  0
LINE
  5
D3
330
70
100
AcDbEntity
  8
CCC_work v8_Sketch1
100
AcDbLine
 10
0.8113267697813251
 20
-4.770152852872326
 30
0.0
 11
0.8113267697813256
 21
-2.093710497612085
 31
0.0
  0
LINE
  5
D4
330
70
100
AcDbEntity
  8
CCC_work v8_Sketch1
100
AcDbLine
 10
3.489020677088017
 20
1.229847147127669
 30
0.0
 11
3.789480952516832
 21
0.2347823451203648
 31
0.0
  0
LINE
  5
D5
330
70
100
AcDbEntity
  8
CCC_work v8_Sketch1
100
AcDbLine
 10
12.86462125024535
 20
-3.592798531858078
 30
0.0
 11
14.87346590086776
 21
-4.748304640172372
 31
0.0
  0
LINE
  5
D6
330
70
100
AcDbEntity
  8
CCC_work v8_Sketch1
100
AcDbLine
 10
0.8113267697813261
 20
-1.695710497612084
 30
0.0
 11
0.8113267697813268
 21
1.229847147127673
 31
0.0
  0
LINE
  5
D7
330
70
100
AcDbEntity
  8
CCC_work v8_Sketch1
100
AcDbLine
 10
-2.988492469342377
 20
-22.13737405671934
 30
0.0
 11
-2.988509642327715
 21
-21.13737405686681
 31
0.0
  0
LINE
  5
D8
330
70
100
AcDbEntity
  8
CCC_work v8_Sketch1
100
AcDbLine
 10
10.5511142526123
 20
3.135193782105008
 30
0.0
 11
10.56406710847056
 21
1.032958252040439
 31
0.0
  0
LINE
  5
D9
330
70
100
AcDbEntity
  8
CCC_work v8_Sketch1
100
AcDbLine
 10
3.732291885037802
 20
-3.817831451987529
 30
0.0
 11
4.128056427737784
 21
-3.77570750699809
 31
0.0
  0
LINE
  5
DA
330
70
100
AcDbEntity
  8
CCC_work v8_Sketch1
100
AcDbLine
 10
3.789480952516832
 20
0.2347823451203648
 30
0.0
 11
3.888708165549167
 21
1.229847147127669
 31
0.0
  0
LINE
  5
DB
330
70
100
AcDbEntity
  8
CCC_work v8_Sketch1
100
AcDbLine
 10
4.128056427737784
 20
-3.77570750699809
 30
0.0
 11
4.233310663135076
 21
-4.770152852872326
 31
0.0
  0
LINE
  5
DC
330
70
100
AcDbEntity
  8
CCC_work v8_Sketch1
100
AcDbLine
 10
10.26952531415916
 20
1.031754413818624
 30
0.0
 11
10.25653206703704
 21
3.140545405514555
 31
0.0
  0
LINE
  5
DD
330
70
100
AcDbEntity
  8
CCC_work v8_Sketch1
100
AcDbLine
 10
3.888708165549167
 20
1.229847147127669
 30
0.0
 11
6.811326769781326
 21
1.22984714712768
 31
0.0
  0
LINE
  5
DE
330
70
100
AcDbEntity
  8
CCC_work v8_Sketch1
100
AcDbLine
 10
5.863498540078258
 20
0.4346109185507115
 30
0.0
 11
4.428021075097151
 21
-1.950578851816541
 31
0.0
  0
LINE
  5
DF
330
70
100
AcDbEntity
  8
CCC_work v8_Sketch1
100
AcDbLine
 10
13.33215426612086
 20
-7.309348497593781
 30
0.0
 11
14.87346590086776
 21
-4.748304640172372
 31
0.0
  0
LINE
  5
E0
330
70
100
AcDbEntity
  8
CCC_work v8_Sketch1
100
AcDbLine
 10
6.337430132761213
 20
-16.90407848653417
 30
0.0
 11
6.239055664603273
 21
-17.07706248583599
 31
0.0
  0
LINE
  5
E1
330
70
100
AcDbEntity
  8
CCC_work v8_Sketch1
100
AcDbLine
 10
14.48950139046458
 20
-21.61887054719588
 30
0.0
 11
13.62667417912827
 21
-21.1133715824317
 31
0.0
  0
LINE
  5
E2
330
70
100
AcDbEntity
  8
CCC_work v8_Sketch1
100
AcDbLine
 10
12.87241020218369
 20
-24.37905479626079
 30
0.0
 11
14.2883128024874
 21
-21.962275777309
 31
0.0
  0
LINE
  5
E3
330
70
100
AcDbEntity
  8
CCC_work v8_Sketch1
100
AcDbLine
 10
14.2883128024874
 20
-21.962275777309
 30
0.0
 11
13.42548559115129
 21
-21.45677681254496
 31
0.0
  0
LINE
  5
E4
330
70
100
AcDbEntity
  8
CCC_work v8_Sketch1
100
AcDbLine
 10
9.673478170113675
 20
-24.39990795427289
 30
0.0
 11
9.666959521157211
 21
-23.39992920089071
 31
0.0
  0
LINE
  5
E5
330
70
100
AcDbEntity
  8
CCC_work v8_Sketch1
100
AcDbLine
 10
-5.187444367485866
 20
-19.33644616649796
 30
0.0
 11
-5.187440950061754
 21
-19.13744616652729
 31
0.0
  0
LINE
  5
E6
330
70
100
AcDbEntity
  8
CCC_work v8_Sketch1
100
AcDbLine
 10
13.42548559115129
 20
-21.45677681254496
 30
0.0
 11
13.52607988514033
 21
-21.28507419748744
 31
0.0
  0
LINE
  5
E7
330
70
100
AcDbEntity
  8
CCC_work v8_Sketch1
100
AcDbLine
 10
13.62667417912827
 20
-21.1133715824317
 30
0.0
 11
13.52607988514034
 21
-21.28507419748733
 31
0.0
  0
LINE
  5
E8
330
70
100
AcDbEntity
  8
CCC_work v8_Sketch1
100
AcDbLine
 10
4.796496868417639
 20
-19.19085149937978
 30
0.0
 11
14.99573365329483
 21
-19.19085149937987
 31
0.0
  0
LINE
  5
E9
330
70
100
AcDbEntity
  8
CCC_work v8_Sketch1
100
AcDbLine
 10
6.239055664603273
 20
-17.07706248583599
 30
0.0
 11
5.627449475669326
 21
-16.72924746362978
 31
0.0
  0
LINE
  5
EA
330
70
100
AcDbEntity
  8
CCC_work v8_Sketch1
100
AcDbLine
 10
13.5260798851402
 20
-17.09662880127197
 30
0.0
 11
14.13315558259145
 21
-16.74096531203194
 31
0.0
  0
LINE
  5
EB
330
70
100
AcDbEntity
  8
CCC_work v8_Sketch1
100
AcDbLine
 10
9.666959521157632
 20
-14.98177379786855
 30
0.0
 11
9.86595529308045
 21
-14.9830710090109
 31
0.0
  0
LINE
  5
EC
330
70
100
AcDbEntity
  8
CCC_work v8_Sketch1
100
AcDbLine
 10
3.886757153162522
 20
-19.19051740919532
 30
0.0
 11
5.271414868293471
 21
-16.75570242404206
 31
0.0
  0
LINE
  5
ED
330
70
100
AcDbEntity
  8
CCC_work v8_Sketch1
100
AcDbLine
 10
9.666959521157211
 20
-23.39992920089071
 30
0.0
 11
9.865955293080155
 21
-23.39863198974831
 31
0.0
  0
LINE
  5
EE
330
70
100
AcDbEntity
  8
CCC_work v8_Sketch1
100
AcDbLine
 10
-6.187389430958331
 20
-16.13742899398443
 30
0.0
 11
-2.114831277645352
 21
-20.20998714729744
 31
0.0
  0
LINE
  5
EF
330
70
100
AcDbEntity
  8
CCC_work v8_Sketch1
100
AcDbLine
 10
-6.187437532490237
 20
-18.93842899357146
 30
0.0
 11
-5.187437532637792
 21
-18.93844616655672
 31
0.0
  0
LINE
  5
F0
330
70
100
AcDbEntity
  8
CCC_work v8_Sketch1
100
AcDbLine
 10
10.0714697139604
 20
-24.39731353198857
 30
0.0
 11
10.06495106500389
 21
-23.39733477860659
 31
0.0
  0
LINE
  5
F1
330
70
100
AcDbEntity
  8
CCC_work v8_Sketch1
100
AcDbLine
 10
10.06495106500389
 20
-23.39733477860659
 30
0.0
 11
9.865955293080045
 21
-23.39863198974831
 31
0.0
  0
LINE
  5
F2
330
70
100
AcDbEntity
  8
CCC_work v8_Sketch1
100
AcDbLine
 10
15.90540399076897
 20
-19.20209152824283
 30
0.0
 11
14.48950139046458
 21
-21.61887054719588
 31
0.0
  0
LINE
  5
F3
330
70
100
AcDbEntity
  8
CCC_work v8_Sketch1
100
AcDbLine
 10
-6.187492468870509
 20
-22.13742899309954
 30
0.0
 11
-1.777204331195282
 21
-17.72714085542433
 31
0.0
  0
LINE
  5
F4
330
70
100
AcDbEntity
  8
CCC_work v8_Sketch1
100
AcDbLine
 10
-2.988389431430114
 20
-16.13737405760427
 30
0.0
 11
-2.988372258444716
 21
-17.13737405745684
 31
0.0
  0
LINE
  5
F5
330
70
100
AcDbEntity
  8
CCC_work v8_Sketch1
100
AcDbLine
 10
12.87241020218364
 20
-24.3790547962608
 30
0.0
 11
10.39208726439192
 21
-20.08378971569189
 31
0.0
  0
LINE
  5
F6
330
70
100
AcDbEntity
  8
CCC_work v8_Sketch1
100
AcDbLine
 10
5.468163804609288
 20
-16.40973442543774
 30
0.0
 11
6.337430132761213
 21
-16.90407848653417
 31
0.0
  0
LINE
  5
F7
330
70
100
AcDbEntity
  8
CCC_work v8_Sketch1
100
AcDbLine
 10
6.337430132760988
 20
-21.47762451222517
 30
0.0
 11
6.239055664602943
 21
-21.30464051292318
 31
0.0
  0
LINE
  5
F8
330
70
100
AcDbEntity
  8
CCC_work v8_Sketch1
100
AcDbLine
 10
6.140681196445253
 20
-21.13165651362148
 30
0.0
 11
6.23905566460351
 21
-21.30464051292369
 31
0.0
  0
LINE
  5
F9
330
70
100
AcDbEntity
  8
CCC_work v8_Sketch1
100
AcDbLine
 10
6.872537681890094
 20
-13.96353630875935
 30
0.0
 11
9.673478170114069
 21
-13.98179504448635
 31
0.0
  0
LINE
  5
FA
330
70
100
AcDbEntity
  8
CCC_work v8_Sketch1
100
AcDbLine
 10
-5.187437532637792
 20
-18.93844616655672
 30
0.0
 11
-5.187440950061822
 21
-19.13744616652724
 31
0.0
  0
LINE
  5
FB
330
70
100
AcDbEntity
  8
CCC_work v8_Sketch1
100
AcDbLine
 10
6.852821519740015
 20
-13.97491944028492
 30
0.0
 11
5.468163804609288
 21
-16.40973442543774
 31
0.0
  0
LINE
  5
FC
330
70
100
AcDbEntity
  8
CCC_work v8_Sketch1
100
AcDbLine
 10
-6.187492468870409
 20
-22.13742899309965
 30
0.0
 11
-6.187444367338425
 21
-19.33642899351262
 31
0.0
  0
LINE
  5
FD
330
70
100
AcDbEntity
  8
CCC_work v8_Sketch1
100
AcDbLine
 10
12.87241020218377
 20
-14.00264820249853
 30
0.0
 11
14.28831280248782
 21
-16.41942722145093
 31
0.0
  0
LINE
  5
FE
330
70
100
AcDbEntity
  8
CCC_work v8_Sketch1
100
AcDbLine
 10
-2.988372258444716
 20
-17.13737405745684
 30
0.0
 11
-3.187372258415333
 21
-17.13737747488099
 31
0.0
  0
LINE
  5
FF
330
70
100
AcDbEntity
  8
CCC_work v8_Sketch1
100
AcDbLine
 10
9.865955293080155
 20
-23.39863198974831
 30
0.0
 11
9.870541742498652
 21
-24.10220599757965
 31
0.0
  0
LINE
  5
100
330
70
100
AcDbEntity
  8
CCC_work v8_Sketch1
100
AcDbLine
 10
-5.187440950061754
 20
-19.13744616652729
 30
0.0
 11
-6.292904147504306
 21
-19.13742718242398
 31
0.0
  0
LINE
  5
101
330
70
100
AcDbEntity
  8
CCC_work v8_Sketch1
100
AcDbLine
 10
5.271414868293471
 20
-16.75570242404206
 30
0.0
 11
6.140681196445225
 21
-17.25004648513833
 31
0.0
  0
LINE
  5
102
330
70
100
AcDbEntity
  8
CCC_work v8_Sketch1
100
AcDbLine
 10
13.62667417912813
 20
-17.26833141632768
 30
0.0
 11
13.5260798851402
 21
-17.09662880127197
 31
0.0
  0
LINE
  5
103
330
70
100
AcDbEntity
  8
CCC_work v8_Sketch1
100
AcDbLine
 10
9.86595529308045
 20
-14.9830710090109
 30
0.0
 11
9.870541742498884
 21
-14.27949700117991
 31
0.0
  0
LINE
  5
104
330
70
100
AcDbEntity
  8
CCC_work v8_Sketch1
100
AcDbLine
 10
5.271414868293673
 20
-21.62600057471768
 30
0.0
 11
6.140681196445253
 21
-21.13165651362148
 31
0.0
  0
LINE
  5
105
330
70
100
AcDbEntity
  8
CCC_work v8_Sketch1
100
AcDbLine
 10
14.48950139046445
 20
-16.76283245156355
 30
0.0
 11
13.62667417912813
 21
-17.26833141632768
 31
0.0
  0
LINE
  5
106
330
70
100
AcDbEntity
  8
CCC_work v8_Sketch1
100
AcDbLine
 10
7.317513879824192
 20
-14.75702395478851
 30
0.0
 11
10.44549020482432
 21
-20.17483787456125
 31
0.0
  0
LINE
  5
107
330
70
100
AcDbEntity
  8
CCC_work v8_Sketch1
100
AcDbLine
 10
-3.386372258386002
 20
-17.13738089230505
 30
0.0
 11
-3.187372258415514
 21
-17.137377474881
 31
0.0
  0
LINE
  5
108
330
70
100
AcDbEntity
  8
CCC_work v8_Sketch1
100
AcDbLine
 10
12.87241020218361
 20
-14.00264820249791
 30
0.0
 11
10.07146971396045
 21
-13.98438946677081
 31
0.0
  0
LINE
  5
109
330
70
100
AcDbEntity
  8
CCC_work v8_Sketch1
100
AcDbLine
 10
-6.187389430958331
 20
-16.13742899398443
 30
0.0
 11
-6.187437532490237
 21
-18.93842899357146
 31
0.0
  0
LINE
  5
10A
330
70
100
AcDbEntity
  8
CCC_work v8_Sketch1
100
AcDbLine
 10
-1.187437533227729
 20
-18.93830878267384
 30
0.0
 11
-1.187440950651852
 21
-19.13730878264446
 31
0.0
  0
LINE
  5
10B
330
70
100
AcDbEntity
  8
CCC_work v8_Sketch1
100
AcDbLine
 10
-6.187444367338425
 20
-19.33642899351262
 30
0.0
 11
-5.187444367485866
 21
-19.33644616649796
 31
0.0
  0
LINE
  5
10C
330
70
100
AcDbEntity
  8
CCC_work v8_Sketch1
100
AcDbLine
 10
5.468163804609039
 20
-21.97196857332182
 30
0.0
 11
6.337430132760988
 21
-21.47762451222517
 31
0.0
  0
LINE
  5
10D
330
70
100
AcDbEntity
  8
CCC_work v8_Sketch1
100
AcDbLine
 10
14.28831280248782
 20
-16.41942722145093
 30
0.0
 11
13.42548559115158
 21
-16.9249261862151
 31
0.0
  0
LINE
  5
10E
330
70
100
AcDbEntity
  8
CCC_work v8_Sketch1
100
AcDbLine
 10
13.42548559115158
 20
-16.9249261862151
 30
0.0
 11
13.52607988514022
 21
-17.09662880127199
 31
0.0
  0
LINE
  5
10F
330
70
100
AcDbEntity
  8
CCC_work v8_Sketch1
100
AcDbLine
 10
12.87241020218361
 20
-14.00264820249791
 30
0.0
 11
10.39208726439195
 21
-18.29791328306674
 31
0.0
  0
LINE
  5
110
330
70
100
AcDbEntity
  8
CCC_work v8_Sketch1
100
AcDbLine
 10
-0.1873894318431947
 20
-16.13732595607227
 30
0.0
 11
-2.988389431430114
 21
-16.13737405760427
 31
0.0
  0
LINE
  5
111
330
70
100
AcDbEntity
  8
CCC_work v8_Sketch1
100
AcDbLine
 10
-6.187492468870509
 20
-22.13742899309954
 30
0.0
 11
2.569015788066502
 21
-22.13742899309954
 31
0.0
  0
LINE
  5
112
330
70
100
AcDbEntity
  8
CCC_work v8_Sketch1
100
AcDbLine
 10
-6.187389430958356
 20
-16.13742899398439
 30
0.0
 11
-3.386389431371348
 21
-16.13738089245243
 31
0.0
  0
LINE
  5
113
330
70
100
AcDbEntity
  8
CCC_work v8_Sketch1
100
AcDbLine
 10
12.87241020218364
 20
-24.3790547962608
 30
0.0
 11
10.0714697139604
 21
-24.39731353198857
 31
0.0
  0
LINE
  5
114
330
70
100
AcDbEntity
  8
CCC_work v8_Sketch1
100
AcDbLine
 10
-3.386389431371348
 20
-16.13738089245243
 30
0.0
 11
-3.386372258386002
 21
-17.13738089230505
 31
0.0
  0
LINE
  5
115
330
70
100
AcDbEntity
  8
CCC_work v8_Sketch1
100
AcDbLine
 10
6.872537681890186
 20
-24.41816668999995
 30
0.0
 11
9.673478170113675
 21
-24.39990795427289
 31
0.0
  0
LINE
  5
116
330
70
100
AcDbEntity
  8
CCC_work v8_Sketch1
100
AcDbLine
 10
7.317513879824294
 20
-23.62467904397056
 30
0.0
 11
13.61097686613121
 21
-23.62467904397055
 31
0.0
  0
LINE
  5
117
330
70
100
AcDbEntity
  8
CCC_work v8_Sketch1
100
AcDbLine
 10
6.852821519740124
 20
-24.40678355847522
 30
0.0
 11
5.468163804609039
 21
-21.97196857332182
 31
0.0
  0
LINE
  5
118
330
70
100
AcDbEntity
  8
CCC_work v8_Sketch1
100
AcDbLine
 10
6.140681196445225
 20
-17.25004648513833
 30
0.0
 11
6.239055664603376
 21
-17.07706248583623
 31
0.0
  0
LINE
  5
119
330
70
100
AcDbEntity
  8
CCC_work v8_Sketch1
100
AcDbLine
 10
13.52607988514034
 20
-21.28507419748733
 30
0.0
 11
14.13315558259146
 21
-21.64073768672739
 31
0.0
  0
LINE
  5
11A
330
70
100
AcDbEntity
  8
CCC_work v8_Sketch1
100
AcDbLine
 10
3.886757153162419
 20
-19.19118558956387
 30
0.0
 11
5.271414868293673
 21
-21.62600057471768
 31
0.0
  0
LINE
  5
11B
330
70
100
AcDbEntity
  8
CCC_work v8_Sketch1
100
AcDbLine
 10
9.673478170114069
 20
-13.98179504448635
 30
0.0
 11
9.666959521157632
 21
-14.98177379786855
 31
0.0
  0
LINE
  5
11C
330
70
100
AcDbEntity
  8
CCC_work v8_Sketch1
100
AcDbLine
 10
10.06495106500394
 20
-14.98436822015305
 30
0.0
 11
9.865955293080023
 21
-14.98307100901073
 31
0.0
  0
LINE
  5
11D
330
70
100
AcDbEntity
  8
CCC_work v8_Sketch1
100
AcDbLine
 10
-0.1874375333751681
 20
-18.93832595565924
 30
0.0
 11
-1.187437533227729
 21
-18.93830878267384
 31
0.0
  0
LINE
  5
11E
330
70
100
AcDbEntity
  8
CCC_work v8_Sketch1
100
AcDbLine
 10
6.239055664602943
 20
-21.30464051292318
 30
0.0
 11
5.62744947566934
 21
-21.65245553512931
 31
0.0
  0
LINE
  5
11F
330
70
100
AcDbEntity
  8
CCC_work v8_Sketch1
100
AcDbLine
 10
7.317513879824294
 20
-23.62467904397056
 30
0.0
 11
10.44549020482429
 21
-18.20686512419798
 31
0.0
  0
LINE
  5
120
330
70
100
AcDbEntity
  8
CCC_work v8_Sketch1
100
AcDbLine
 10
10.07146971396045
 20
-13.98438946677081
 30
0.0
 11
10.06495106500394
 21
-14.98436822015305
 31
0.0
  0
LINE
  5
121
330
70
100
AcDbEntity
  8
CCC_work v8_Sketch1
100
AcDbLine
 10
15.90540399076897
 20
-19.17961147051681
 30
0.0
 11
14.48950139046445
 21
-16.76283245156355
 31
0.0
  0
LINE
  5
122
330
70
100
AcDbEntity
  8
CCC_work v8_Sketch1
100
AcDbLine
 10
6.811326769781326
 20
-1.689700974178187
 30
0.0
 11
5.811326769781329
 21
-1.689700974178186
 31
0.0
  0
LINE
  5
123
330
70
100
AcDbEntity
  8
CCC_work v8_Sketch1
100
AcDbLine
 10
5.811326769781329
 20
-1.689700974178186
 30
0.0
 11
5.811326769781327
 21
-2.087700974178186
 31
0.0
  0
LINE
  5
124
330
70
100
AcDbEntity
  8
CCC_work v8_Sketch1
100
AcDbLine
 10
1.811326769781326
 20
-1.695710497612084
 30
0.0
 11
1.811326769781326
 21
-2.093710497612084
 31
0.0
  0
LINE
  5
125
330
70
100
AcDbEntity
  8
CCC_work v8_Sketch1
100
AcDbLine
 10
5.811326769781327
 20
-2.087700974178186
 30
0.0
 11
6.81132676978133
 21
-2.087700974178186
 31
0.0
  0
LINE
  5
126
330
70
100
AcDbEntity
  8
CCC_work v8_Sketch1
100
AcDbLine
 10
5.811326769781329
 20
-1.689700974178186
 30
0.0
 11
6.81132676978133
 21
-2.087700974178186
 31
0.0
  0
LINE
  5
127
330
70
100
AcDbEntity
  8
CCC_work v8_Sketch1
100
AcDbLine
 10
0.8113267697813261
 20
-1.695710497612084
 30
0.0
 11
1.811326769781326
 21
-1.695710497612084
 31
0.0
  0
LINE
  5
128
330
70
100
AcDbEntity
  8
CCC_work v8_Sketch1
100
AcDbLine
 10
1.811326769781326
 20
-1.695710497612084
 30
0.0
 11
0.8113267697813256
 21
-2.093710497612085
 31
0.0
  0
LINE
  5
129
330
70
100
AcDbEntity
  8
CCC_work v8_Sketch1
100
AcDbLine
 10
3.679869689984927
 20
0.0874362278219218
 30
0.0
 11
4.010490873385547
 21
-4.770152852872326
 31
0.0
  0
LINE
  5
12A
330
70
100
AcDbEntity
  8
CCC_work v8_Sketch1
100
AcDbLine
 10
6.811326769781326
 20
-1.689700974178187
 30
0.0
 11
5.811326769781327
 21
-2.087700974178186
 31
0.0
  0
LINE
  5
12B
330
70
100
AcDbEntity
  8
CCC_work v8_Sketch1
100
AcDbLine
 10
1.735882514571998
 20
-1.894200222072623
 30
0.0
 11
6.811326769781324
 21
-1.888100021834796
 31
0.0
  0
LINE
  5
12C
330
70
100
AcDbEntity
  8
CCC_work v8_Sketch1
100
AcDbLine
 10
1.811326769781326
 20
-2.093710497612084
 30
0.0
 11
0.8113267697813256
 21
-2.093710497612085
 31
0.0
  0
LINE
  5
12D
330
70
100
AcDbEntity
  8
CCC_work v8_Sketch1
100
AcDbLine
 10
0.8113267697813261
 20
-1.695710497612084
 30
0.0
 11
1.811326769781326
 21
-2.093710497612084
 31
0.0
  0
POINT
  5
12F
330
70
100
AcDbEntity
  8
CCC_work v8_Sketch2
100
AcDbPoint
 10
0.0
 20
0.0
 30
0.0
  0
ENDSEC
  0
SECTION
  2
OBJECTS
  0
DICTIONARY
  5
C
330
0
100
AcDbDictionary
281
     1
  3
ACAD_COLOR
350
63
  3
ACAD_DETAILVIEWSTYLE
350
6A
  3
ACAD_GROUP
350
D
  3
ACAD_LAYOUT
350
62
  3
ACAD_MATERIAL
350
10
  3
ACAD_MLEADERSTYLE
350
66
  3
ACAD_MLINESTYLE
350
5F
  3
ACAD_PLOTSETTINGS
350
61
  3
ACAD_PLOTSTYLENAME
350
E
  3
ACAD_SCALELIST
350
42
  3
ACAD_SECTIONVIEWSTYLE
350
68
  3
ACAD_TABLESTYLE
350
64
  3
ACAD_VISUALSTYLE
350
29
  3
ACDB_RECOMPOSE_DATA
350
138
  3
AcDbVariableDictionary
350
130
  0
DICTIONARY
  5
63
102
{ACAD_REACTORS
330
C
102
}
330
C
100
AcDbDictionary
281
     1
  0
DICTIONARY
  5
6A
102
{ACAD_REACTORS
330
C
102
}
330
C
100
AcDbDictionary
281
     1
  3
Imperial24
350
6B
  0
DICTIONARY
  5
D
102
{ACAD_REACTORS
330
C
102
}
330
C
100
AcDbDictionary
281
     1
  0
DICTIONARY
  5
62
102
{ACAD_REACTORS
330
C
102
}
330
C
100
AcDbDictionary
281
     1
  3
Layout1
350
6F
  3
Layout2
350
77
  3
Model
350
73
  0
DICTIONARY
  5
10
102
{ACAD_REACTORS
330
C
102
}
330
C
100
AcDbDictionary
281
     1
  3
ByBlock
350
19
  3
ByLayer
350
11
  3
Global
350
21
  0
DICTIONARY
  5
66
102
{ACAD_REACTORS
330
C
102
}
330
C
100
AcDbDictionary
281
     1
  3
Standard
350
67
  0
DICTIONARY
  5
5F
102
{ACAD_REACTORS
330
C
102
}
330
C
100
AcDbDictionary
281
     1
  3
Standard
350
60
  0
DICTIONARY
  5
61
102
{ACAD_REACTORS
330
C
102
}
330
C
100
AcDbDictionary
281
     1
  0
ACDBDICTIONARYWDFLT
  5
E
102
{ACAD_REACTORS
330
C
102
}
330
C
100
AcDbDictionary
281
     1
  3
Normal
350
F
100
AcDbDictionaryWithDefault
340
F
  0
DICTIONARY
  5
42
102
{ACAD_REACTORS
330
C
102
}
330
C
100
AcDbDictionary
281
     1
  3
A0
350
43
  3
A1
350
44
  3
A2
350
45
  3
A3
350
46
  3
A4
350
47
  3
A5
350
48
  3
A6
350
49
  3
A7
350
4A
  3
A8
350
4B
  3
A9
350
4C
  3
B0
350
4D
  3
B1
350
4E
  3
B2
350
4F
  3
B3
350
50
  3
B4
350
51
  3
B5
350
52
  3
B6
350
53
  0
DICTIONARY
  5
68
102
{ACAD_REACTORS
330
C
102
}
330
C
100
AcDbDictionary
281
     1
  3
Imperial24
350
69
  0
DICTIONARY
  5
64
102
{ACAD_REACTORS
330
C
102
}
330
C
100
AcDbDictionary
281
     1
  3
Standard
350
65
  0
DICTIONARY
  5
29
102
{ACAD_REACTORS
330
C
102
}
330
C
100
AcDbDictionary
281
     1
  3
2dWireframe
350
2F
  3
Basic
350
2E
  3
Brighten
350
35
  3
ColorChange
350
39
  3
Conceptual
350
32
  3
Dim
350
34
  3
EdgeColorOff
350
41
  3
Facepattern
350
38
  3
Flat
350
2A
  3
FlatWithEdges
350
2B
  3
Gouraud
350
2C
  3
GouraudWithEdges
350
2D
  3
Hidden
350
31
  3
JitterOff
350
3F
  3
Linepattern
350
37
  3
OverhangOff
350
40
  3
Realistic
350
33
  3
Shaded
350
3E
  3
Shaded with edges
350
3D
  3
Shades of Gray
350
3A
  3
Sketchy
350
3B
  3
Thicken
350
36
  3
Wireframe
350
30
  3
X-Ray
350
3C
  0
XRECORD
  5
138
102
{ACAD_REACTORS
330
C
102
}
330
C
100
AcDbXrecord
280
     1
 90
        1
330
65
  0
DICTIONARY
  5
130
102
{ACAD_REACTORS
330
C
102
}
330
C
100
AcDbDictionary
281
     1
  3
CANNOSCALE
350
135
  3
CMLEADERSTYLE
350
132
  3
CTABLESTYLE
350
131
  3
CVIEWDETAILSTYLE
350
133
  3
CVIEWSECTIONSTYLE
350
134
  0
ACDBDETAILVIEWSTYLE
  5
6B
102
{ACAD_XDICTIONARY
360
13B
102
}
102
{ACAD_REACTORS
330
6A
102
}
330
6A
100
AcDbModelDocViewStyle
 70
     0
  3
Imperial24
290
     0
100
AcDbDetailViewStyle
 70
     0
 71
     0
 90
        3
 71
     1
340
55
 62
   256
 40
0.24
340
0
 62
   256
 40
0.24
300

 40
0.36
280
     3
 71
     2
340
5D
 90
       25
 62
   256
 71
     3
340
55
 62
   256
 40
0.24
 90
        1
 40
0.75
 90
        1
300
%<\AcVar ViewType \f "%tc1">% %<\AcVar ViewDetailId>%\PSCALE %<\AcVar ViewScale \f "%sn">%
 71
     4
340
5D
 90
       25
 62
   256
340
5D
 90
       25
 62
   256
280
     0
  0
LAYOUT
  5
6F
102
{ACAD_REACTORS
330
62
102
}
330
62
100
AcDbPlotSettings
  1

  2

  4

  6

 40
0.0
 41
0.0
 42
0.0
 43
0.0
 44
0.0
 45
0.0
 46
0.0
 47
0.0
 48
0.0
 49
0.0
140
0.0
141
0.0
142
1.0
143
1.0
 70
   688
 72
     0
 73
     0
 74
     5
  7

 75
    16
147
1.0
 76
     0
 77
     2
 78
   300
148
0.0
149
0.0
100
AcDbLayout
  1
Layout1
 70
     1
 71
     1
 10
0.0
 20
0.0
 11
12.0
 21
9.0
 12
0.0
 22
0.0
 32
0.0
 14
0.0
 24
0.0
 34
0.0
 15
0.0
 25
0.0
 35
0.0
146
0.0
 13
0.0
 23
0.0
 33
0.0
 16
1.0
 26
0.0
 36
0.0
 17
0.0
 27
1.0
 37
0.0
 76
     0
330
6C
  0
LAYOUT
  5
77
102
{ACAD_REACTORS
330
62
102
}
330
62
100
AcDbPlotSettings
  1

  2

  4

  6

 40
0.0
 41
0.0
 42
0.0
 43
0.0
 44
0.0
 45
0.0
 46
0.0
 47
0.0
 48
0.0
 49
0.0
140
0.0
141
0.0
142
1.0
143
1.0
 70
   688
 72
     0
 73
     0
 74
     5
  7

 75
    16
147
1.0
 76
     0
 77
     2
 78
   300
148
0.0
149
0.0
100
AcDbLayout
  1
Layout2
 70
     1
 71
     2
 10
0.0
 20
0.0
 11
12.0
 21
9.0
 12
0.0
 22
0.0
 32
0.0
 14
0.0
 24
0.0
 34
0.0
 15
0.0
 25
0.0
 35
0.0
146
0.0
 13
0.0
 23
0.0
 33
0.0
 16
1.0
 26
0.0
 36
0.0
 17
0.0
 27
1.0
 37
0.0
 76
     0
330
74
  0
LAYOUT
  5
73
102
{ACAD_REACTORS
330
62
102
}
330
62
100
AcDbPlotSettings
  1

  2

  4

  6

 40
0.0
 41
0.0
 42
0.0
 43
0.0
 44
0.0
 45
0.0
 46
0.0
 47
0.0
 48
0.0
 49
0.0
140
0.0
141
0.0
142
1.0
143
1.0
 70
  1712
 72
     0
 73
     0
 74
     0
  7

 75
     0
147
1.0
 76
     0
 77
     2
 78
   300
148
0.0
149
0.0
100
AcDbLayout
  1
Model
 70
     1
 71
     0
 10
0.0
 20
0.0
 11
12.0
 21
9.0
 12
0.0
 22
0.0
 32
0.0
 14
0.0
 24
0.0
 34
0.0
 15
0.0
 25
0.0
 35
0.0
146
0.0
 13
0.0
 23
0.0
 33
0.0
 16
1.0
 26
0.0
 36
0.0
 17
0.0
 27
1.0
 37
0.0
 76
     0
330
70
  0
MATERIAL
  5
19
102
{ACAD_XDICTIONARY
360
1A
102
}
102
{ACAD_REACTORS
330
10
102
}
330
10
100
AcDbMaterial
  1
ByBlock
 72
     0
 43
0.0208333333333333
 43
0.0
 43
0.0
 43
0.0
 43
0.0
 43
0.0208333333333333
 43
0.0
 43
0.0
 43
0.0
 43
0.0
 43
1.0
 43
0.0
 43
0.0
 43
0.0
 43
0.0
 43
1.0
 77
     0
 47
0.0208333333333333
 47
0.0
 47
0.0
 47
0.0
 47
0.0
 47
0.0208333333333333
 47
0.0
 47
0.0
 47
0.0
 47
0.0
 47
1.0
 47
0.0
 47
0.0
 47
0.0
 47
0.0
 47
1.0
171
     0
 49
0.0208333333333333
 49
0.0
 49
0.0
 49
0.0
 49
0.0
 49
0.0208333333333333
 49
0.0
 49
0.0
 49
0.0
 49
0.0
 49
1.0
 49
0.0
 49
0.0
 49
0.0
 49
0.0
 49
1.0
175
     0
142
0.0208333333333333
142
0.0
142
0.0
142
0.0
142
0.0
142
0.0208333333333333
142
0.0
142
0.0
142
0.0
142
0.0
142
1.0
142
0.0
142
0.0
142
0.0
142
0.0
142
1.0
179
     0
144
0.0208333333333333
144
0.0
144
0.0
144
0.0
144
0.0
144
0.0208333333333333
144
0.0
144
0.0
144
0.0
144
0.0
144
1.0
144
0.0
144
0.0
144
0.0
144
0.0
144
1.0
147
0.0208333333333333
147
0.0
147
0.0
147
0.0
147
0.0
147
0.0208333333333333
147
0.0
147
0.0
147
0.0
147
0.0
147
1.0
147
0.0
147
0.0
147
0.0
147
0.0
147
1.0
  0
MATERIAL
  5
11
102
{ACAD_XDICTIONARY
360
12
102
}
102
{ACAD_REACTORS
330
10
102
}
330
10
100
AcDbMaterial
  1
ByLayer
 72
     0
 43
0.0208333333333333
 43
0.0
 43
0.0
 43
0.0
 43
0.0
 43
0.0208333333333333
 43
0.0
 43
0.0
 43
0.0
 43
0.0
 43
1.0
 43
0.0
 43
0.0
 43
0.0
 43
0.0
 43
1.0
 77
     0
 47
0.0208333333333333
 47
0.0
 47
0.0
 47
0.0
 47
0.0
 47
0.0208333333333333
 47
0.0
 47
0.0
 47
0.0
 47
0.0
 47
1.0
 47
0.0
 47
0.0
 47
0.0
 47
0.0
 47
1.0
171
     0
 49
0.0208333333333333
 49
0.0
 49
0.0
 49
0.0
 49
0.0
 49
0.0208333333333333
 49
0.0
 49
0.0
 49
0.0
 49
0.0
 49
1.0
 49
0.0
 49
0.0
 49
0.0
 49
0.0
 49
1.0
175
     0
142
0.0208333333333333
142
0.0
142
0.0
142
0.0
142
0.0
142
0.0208333333333333
142
0.0
142
0.0
142
0.0
142
0.0
142
1.0
142
0.0
142
0.0
142
0.0
142
0.0
142
1.0
179
     0
144
0.0208333333333333
144
0.0
144
0.0
144
0.0
144
0.0
144
0.0208333333333333
144
0.0
144
0.0
144
0.0
144
0.0
144
1.0
144
0.0
144
0.0
144
0.0
144
0.0
144
1.0
147
0.0208333333333333
147
0.0
147
0.0
147
0.0
147
0.0
147
0.0208333333333333
147
0.0
147
0.0
147
0.0
147
0.0
147
1.0
147
0.0
147
0.0
147
0.0
147
0.0
147
1.0
  0
MATERIAL
  5
21
102
{ACAD_XDICTIONARY
360
22
102
}
102
{ACAD_REACTORS
330
10
102
}
330
10
100
AcDbMaterial
  1
Global
 72
     0
 43
0.0208333333333333
 43
0.0
 43
0.0
 43
0.0
 43
0.0
 43
0.0208333333333333
 43
0.0
 43
0.0
 43
0.0
 43
0.0
 43
1.0
 43
0.0
 43
0.0
 43
0.0
 43
0.0
 43
1.0
 77
     0
 47
0.0208333333333333
 47
0.0
 47
0.0
 47
0.0
 47
0.0
 47
0.0208333333333333
 47
0.0
 47
0.0
 47
0.0
 47
0.0
 47
1.0
 47
0.0
 47
0.0
 47
0.0
 47
0.0
 47
1.0
171
     0
 49
0.0208333333333333
 49
0.0
 49
0.0
 49
0.0
 49
0.0
 49
0.0208333333333333
 49
0.0
 49
0.0
 49
0.0
 49
0.0
 49
1.0
 49
0.0
 49
0.0
 49
0.0
 49
0.0
 49
1.0
175
     0
142
0.0208333333333333
142
0.0
142
0.0
142
0.0
142
0.0
142
0.0208333333333333
142
0.0
142
0.0
142
0.0
142
0.0
142
1.0
142
0.0
142
0.0
142
0.0
142
0.0
142
1.0
179
     0
144
0.0208333333333333
144
0.0
144
0.0
144
0.0
144
0.0
144
0.0208333333333333
144
0.0
144
0.0
144
0.0
144
0.0
144
1.0
144
0.0
144
0.0
144
0.0
144
0.0
144
1.0
147
0.0208333333333333
147
0.0
147
0.0
147
0.0
147
0.0
147
0.0208333333333333
147
0.0
147
0.0
147
0.0
147
0.0
147
1.0
147
0.0
147
0.0
147
0.0
147
0.0
147
1.0
  0
MLEADERSTYLE
  5
67
102
{ACAD_REACTORS
330
66
102
}
330
66
100
AcDbMLeaderStyle
179
     2
170
     2
171
     1
172
     0
 90
        2
 40
0.0
 41
0.0
173
     1
 91
-1056964608
340
5B
 92
       -2
290
     1
 42
0.09
291
     1
 43
0.36
  3
Standard
 44
0.18
300

342
55
174
     1
178
     6
175
     1
176
     0
 93
-1056964608
 45
0.18
292
     0
297
     0
 46
0.18
 94
-1056964608
 47
1.0
 49
1.0
140
1.0
293
     1
141
0.0
294
     1
177
     0
142
1.0
295
     0
296
     0
143
0.125
271
     0
272
     9
273
     9
298
     1
  0
MLINESTYLE
  5
60
102
{ACAD_REACTORS
330
5F
102
}
330
5F
100
AcDbMlineStyle
  2
STANDARD
 70
     0
  3

 62
   256
 51
90.0
 52
90.0
 71
     2
 49
0.5
 62
   256
  6
BYLAYER
 49
-0.5
 62
   256
  6
BYLAYER
  0
ACDBPLACEHOLDER
  5
F
102
{ACAD_REACTORS
330
E
102
}
330
E
  0
SCALE
  5
43
102
{ACAD_REACTORS
330
42
102
}
330
42
100
AcDbScale
 70
     0
300
1:1
140
1.0
141
1.0
290
     1
  0
SCALE
  5
44
102
{ACAD_REACTORS
330
42
102
}
330
42
100
AcDbScale
 70
     0
300
1/128" = 1'-0"
140
0.0078125
141
12.0
290
     0
  0
SCALE
  5
45
102
{ACAD_REACTORS
330
42
102
}
330
42
100
AcDbScale
 70
     0
300
1/64" = 1'-0"
140
0.015625
141
12.0
290
     0
  0
SCALE
  5
46
102
{ACAD_REACTORS
330
42
102
}
330
42
100
AcDbScale
 70
     0
300
1/32" = 1'-0"
140
0.03125
141
12.0
290
     0
  0
SCALE
  5
47
102
{ACAD_REACTORS
330
42
102
}
330
42
100
AcDbScale
 70
     0
300
1/16" = 1'-0"
140
0.0625
141
12.0
290
     0
  0
SCALE
  5
48
102
{ACAD_REACTORS
330
42
102
}
330
42
100
AcDbScale
 70
     0
300
3/32" = 1'-0"
140
0.09375
141
12.0
290
     0
  0
SCALE
  5
49
102
{ACAD_REACTORS
330
42
102
}
330
42
100
AcDbScale
 70
     0
300
1/8" = 1'-0"
140
0.125
141
12.0
290
     0
  0
SCALE
  5
4A
102
{ACAD_REACTORS
330
42
102
}
330
42
100
AcDbScale
 70
     0
300
3/16" = 1'-0"
140
0.1875
141
12.0
290
     0
  0
SCALE
  5
4B
102
{ACAD_REACTORS
330
42
102
}
330
42
100
AcDbScale
 70
     0
300
1/4" = 1'-0"
140
0.25
141
12.0
290
     0
  0
SCALE
  5
4C
102
{ACAD_REACTORS
330
42
102
}
330
42
100
AcDbScale
 70
     0
300
3/8" = 1'-0"
140
0.375
141
12.0
290
     0
  0
SCALE
  5
4D
102
{ACAD_REACTORS
330
42
102
}
330
42
100
AcDbScale
 70
     0
300
1/2" = 1'-0"
140
0.5
141
12.0
290
     0
  0
SCALE
  5
4E
102
{ACAD_REACTORS
330
42
102
}
330
42
100
AcDbScale
 70
     0
300
3/4" = 1'-0"
140
0.75
141
12.0
290
     0
  0
SCALE
  5
4F
102
{ACAD_REACTORS
330
42
102
}
330
42
100
AcDbScale
 70
     0
300
1" = 1'-0"
140
1.0
141
12.0
290
     0
  0
SCALE
  5
50
102
{ACAD_REACTORS
330
42
102
}
330
42
100
AcDbScale
 70
     0
300
1-1/2" = 1'-0"
140
1.5
141
12.0
290
     0
  0
SCALE
  5
51
102
{ACAD_REACTORS
330
42
102
}
330
42
100
AcDbScale
 70
     0
300
3" = 1'-0"
140
3.0
141
12.0
290
     0
  0
SCALE
  5
52
102
{ACAD_REACTORS
330
42
102
}
330
42
100
AcDbScale
 70
     0
300
6" = 1'-0"
140
6.0
141
12.0
290
     0
  0
SCALE
  5
53
102
{ACAD_REACTORS
330
42
102
}
330
42
100
AcDbScale
 70
     0
300
1'-0" = 1'-0"
140
12.0
141
12.0
290
     0
  0
ACDBSECTIONVIEWSTYLE
  5
69
102
{ACAD_XDICTIONARY
360
139
102
}
102
{ACAD_REACTORS
330
68
102
}
330
68
100
AcDbModelDocViewStyle
 70
     0
  3
Imperial24
290
     0
100
AcDbSectionViewStyle
 70
     0
 71
     0
 90
       78
 71
     1
340
55
 62
   256
 40
0.24
340
0
340
0
 62
   256
 40
0.24
300
I, O, Q, S, X, Z
 40
0.48
 90
        3
 40
0.18
 90
        1
 71
     2
340
5D
 90
       25
 62
   256
340
5D
 90
       50
 62
   256
 40
0.24
 40
0.0
 40
0.24
 71
     3
340
55
 62
   256
 40
0.24
 90
        1
 40
0.75
 90
        1
300
%<\AcVar ViewType \f "%tc1">% %<\AcVar ViewSectionStartId>%-%<\AcVar ViewSectionEndId>%\PSCALE %<\AcVar ViewScale \f "%sn">%
 71
     4
 62
   256
 62
   257
300
ANSI31
 40
1.0
 90
        0
290
     0
290
     0
 90
        6
 40
0.0
 40
1.570796326794896
 40
0.2617993877991494
 40
1.308996938995747
 40
-0.2617993877991494
 40
1.832595714594046
  0
TABLESTYLE
  5
65
102
{ACAD_XDICTIONARY
360
136
102
}
102
{ACAD_REACTORS
330
64
102
}
330
64
100
AcDbTableStyle
280
     0
  3
Standard
 70
     0
 71
     0
 40
0.06
 41
0.06
280
     0
281
     0
  7
Standard
140
0.18
170
     2
 62
     0
 63
     7
283
     0
 90
      512
 91
        0
  1

274
    -2
284
     1
 64
     0
275
    -2
285
     1
 65
     0
276
    -2
286
     1
 66
     0
277
    -2
287
     1
 67
     0
278
    -2
288
     1
 68
     0
279
    -2
289
     1
 69
     0
  7
Standard
140
0.25
170
     5
 62
     0
 63
     7
283
     0
 90
      512
 91
        0
  1

274
    -2
284
     1
 64
     0
275
    -2
285
     1
 65
     0
276
    -2
286
     1
 66
     0
277
    -2
287
     1
 67
     0
278
    -2
288
     1
 68
     0
279
    -2
289
     1
 69
     0
  7
Standard
140
0.18
170
     5
 62
     0
 63
     7
283
     0
 90
      512
 91
        0
  1

274
    -2
284
     1
 64
     0
275
    -2
285
     1
 65
     0
276
    -2
286
     1
 66
     0
277
    -2
287
     1
 67
     0
278
    -2
288
     1
 68
     0
279
    -2
289
     1
 69
     0
  0
VISUALSTYLE
  5
2F
102
{ACAD_REACTORS
330
29
102
}
330
29
100
AcDbVisualStyle
  2
2dWireframe
 70
     4
177
     3
291
     0
 70
    58
 90
        0
176
     1
 90
        2
176
     1
 90
        0
176
     1
 90
        0
176
     1
 40
0.6
176
     1
 40
30.0
176
     1
 62
     7
420
 16777215
176
     1
 90
        1
176
     1
 90
        4
176
     1
 62
     7
176
     1
 62
   257
176
     1
 90
        1
176
     1
 90
        1
176
     1
 40
1.0
176
     1
 90
        0
176
     1
 62
   257
176
     1
 40
1.0
176
     1
 90
        1
176
     1
 90
        6
176
     1
 90
        2
176
     1
 62
     7
176
     1
 90
        5
176
     1
 90
        0
176
     1
 90
        0
176
     1
290
     0
176
     1
 90
        1
176
     1
 40
0.0
176
     1
 90
        0
176
     1
290
     1
176
     1
290
     1
176
     1
290
     0
176
     1
290
     0
176
     1
290
     0
176
     1
290
     0
176
     1
290
     0
176
     1
290
     0
176
     1
290
     0
176
     1
 90
       50
176
     1
 40
0.0
176
     1
 40
1.0
176
     1
 90
        0
176
     1
 62
    18
420
        0
176
     1
 90
       50
176
     1
 90
        3
176
     1
 62
     5
420
      255
176
     1
290
     0
176
     1
 90
       50
176
     1
 90
       50
176
     1
 90
       50
176
     1
290
     0
176
     1
 90
       50
176
     1
 62
   256
176
     0
 40
1.0
176
     0
 90
        2
176
     1
  1
strokes_ogs.tif
176
     1
290
     0
176
     1
 40
1.0
176
     1
 40
1.0
176
     1
1001
ACAD
1000
AcDbSavedByObjectVersion
1070
     0
  0
VISUALSTYLE
  5
2E
102
{ACAD_REACTORS
330
29
102
}
330
29
100
AcDbVisualStyle
  2
Basic
 70
     7
177
     3
291
     1
 70
    58
 90
        1
176
     1
 90
        0
176
     1
 90
        1
176
     1
 90
        0
176
     1
 40
0.6
176
     1
 40
30.0
176
     1
 62
     7
420
 16777215
176
     1
 90
        0
176
     1
 90
        4
176
     1
 62
     7
176
     1
 62
   257
176
     1
 90
        1
176
     1
 90
        1
176
     1
 40
1.0
176
     1
 90
        8
176
     1
 62
     7
176
     1
 40
1.0
176
     1
 90
        1
176
     1
 90
        6
176
     1
 90
        2
176
     1
 62
     7
176
     1
 90
        5
176
     1
 90
        0
176
     1
 90
        0
176
     1
290
     0
176
     1
 90
        1
176
     1
 40
0.0
176
     1
 90
        0
176
     1
290
     0
176
     1
290
     1
176
     1
290
     1
176
     1
290
     0
176
     1
290
     0
176
     1
290
     0
176
     1
290
     0
176
     1
290
     0
176
     1
290
     0
176
     1
 90
       50
176
     1
 40
0.0
176
     1
 40
1.0
176
     1
 90
        0
176
     1
 62
    18
420
        0
176
     1
 90
       50
176
     1
 90
        3
176
     1
 62
     5
420
      255
176
     1
290
     0
176
     1
 90
       50
176
     1
 90
       50
176
     1
 90
       50
176
     1
290
     0
176
     1
 90
       50
176
     1
 62
   256
176
     0
 40
1.0
176
     0
 90
        2
176
     1
  1
strokes_ogs.tif
176
     1
290
     0
176
     1
 40
1.0
176
     1
 40
1.0
176
     1
1001
ACAD
1000
AcDbSavedByObjectVersion
1070
     0
  0
VISUALSTYLE
  5
35
102
{ACAD_REACTORS
330
29
102
}
330
29
100
AcDbVisualStyle
  2
Brighten
 70
    12
177
     3
291
     1
 70
    58
 90
        2
176
     1
 90
        2
176
     1
 90
        0
176
     1
 90
        0
176
     1
 40
0.6
176
     1
 40
30.0
176
     1
 62
     7
420
 16777215
176
     1
 90
        1
176
     1
 90
        4
176
     1
 62
     7
176
     1
 62
   257
176
     1
 90
        1
176
     1
 90
        1
176
     1
 40
1.0
176
     1
 90
        8
176
     1
 62
     7
176
     1
 40
1.0
176
     1
 90
        1
176
     1
 90
        6
176
     1
 90
        2
176
     1
 62
     7
176
     1
 90
        5
176
     1
 90
        0
176
     1
 90
        0
176
     1
290
     0
176
     1
 90
        1
176
     1
 40
50.0
176
     1
 90
        0
176
     1
290
     0
176
     1
290
     1
176
     1
290
     1
176
     1
290
     0
176
     1
290
     0
176
     1
290
     0
176
     1
290
     0
176
     1
290
     0
176
     1
290
     0
176
     1
 90
       50
176
     1
 40
0.0
176
     1
 40
1.0
176
     1
 90
        0
176
     1
 62
    18
420
        0
176
     1
 90
       50
176
     1
 90
        3
176
     1
 62
     5
420
      255
176
     1
290
     0
176
     1
 90
       50
176
     1
 90
       50
176
     1
 90
       50
176
     1
290
     0
176
     1
 90
       50
176
     1
 62
   256
176
     0
 40
1.0
176
     0
 90
        2
176
     1
  1
strokes_ogs.tif
176
     1
290
     0
176
     1
 40
1.0
176
     1
 40
1.0
176
     1
1001
ACAD
1000
AcDbSavedByObjectVersion
1070
     0
  0
VISUALSTYLE
  5
39
102
{ACAD_REACTORS
330
29
102
}
330
29
100
AcDbVisualStyle
  2
ColorChange
 70
    16
177
     3
291
     1
 70
    58
 90
        2
176
     1
 90
        2
176
     1
 90
        3
176
     1
 90
        0
176
     1
 40
0.6
176
     1
 40
30.0
176
     1
 62
     8
420
  8421504
176
     1
 90
        1
176
     1
 90
        4
176
     1
 62
     7
176
     1
 62
   257
176
     1
 90
        1
176
     1
 90
        1
176
     1
 40
1.0
176
     1
 90
        8
176
     1
 62
     8
420
  8421504
176
     1
 40
1.0
176
     1
 90
        1
176
     1
 90
        6
176
     1
 90
        2
176
     1
 62
     7
176
     1
 90
        5
176
     1
 90
        0
176
     1
 90
        0
176
     1
290
     0
176
     1
 90
        1
176
     1
 40
0.0
176
     1
 90
        0
176
     1
290
     0
176
     1
290
     1
176
     1
290
     1
176
     1
290
     0
176
     1
290
     0
176
     1
290
     0
176
     1
290
     0
176
     1
290
     0
176
     1
290
     0
176
     1
 90
       50
176
     1
 40
0.0
176
     1
 40
1.0
176
     1
 90
        0
176
     1
 62
    18
420
        0
176
     1
 90
       50
176
     1
 90
        3
176
     1
 62
     5
420
      255
176
     1
290
     0
176
     1
 90
       50
176
     1
 90
       50
176
     1
 90
       50
176
     1
290
     0
176
     1
 90
       50
176
     1
 62
   256
176
     0
 40
1.0
176
     0
 90
        2
176
     1
  1
strokes_ogs.tif
176
     1
290
     0
176
     1
 40
1.0
176
     1
 40
1.0
176
     1
1001
ACAD
1000
AcDbSavedByObjectVersion
1070
     0
  0
VISUALSTYLE
  5
32
102
{ACAD_REACTORS
330
29
102
}
330
29
100
AcDbVisualStyle
  2
Conceptual
 70
     9
177
     3
291
     0
 70
    58
 90
        3
176
     1
 90
        2
176
     1
 90
        0
176
     1
 90
        0
176
     1
 40
0.6
176
     1
 40
30.0
176
     1
 62
     7
420
 16777215
176
     1
 90
        2
176
     1
 90
        2
176
     1
 62
     7
176
     1
 62
   257
176
     1
 90
        1
176
     1
 90
        1
176
     1
 40
179.0
176
     1
 90
        8
176
     1
 62
     7
176
     1
 40
1.0
176
     1
 90
        1
176
     1
 90
        6
176
     1
 90
        2
176
     1
 62
     7
176
     1
 90
        3
176
     1
 90
        0
176
     1
 90
        0
176
     1
290
     0
176
     1
 90
        1
176
     1
 40
0.0
176
     1
 90
        0
176
     1
290
     0
176
     1
290
     1
176
     1
290
     1
176
     1
290
     0
176
     1
290
     0
176
     1
290
     0
176
     1
290
     0
176
     1
290
     0
176
     1
290
     0
176
     1
 90
       50
176
     1
 40
0.0
176
     1
 40
1.0
176
     1
 90
        0
176
     1
 62
    18
420
        0
176
     1
 90
       50
176
     1
 90
        3
176
     1
 62
     5
420
      255
176
     1
290
     0
176
     1
 90
       50
176
     1
 90
       50
176
     1
 90
       50
176
     1
290
     0
176
     1
 90
       50
176
     1
 62
   256
176
     0
 40
1.0
176
     0
 90
        2
176
     1
  1
strokes_ogs.tif
176
     1
290
     0
176
     1
 40
1.0
176
     1
 40
1.0
176
     1
1001
ACAD
1000
AcDbSavedByObjectVersion
1070
     0
  0
VISUALSTYLE
  5
34
102
{ACAD_REACTORS
330
29
102
}
330
29
100
AcDbVisualStyle
  2
Dim
 70
    11
177
     3
291
     1
 70
    58
 90
        2
176
     1
 90
        2
176
     1
 90
        0
176
     1
 90
        0
176
     1
 40
0.6
176
     1
 40
30.0
176
     1
 62
     7
420
 16777215
176
     1
 90
        1
176
     1
 90
        4
176
     1
 62
     7
176
     1
 62
   257
176
     1
 90
        1
176
     1
 90
        1
176
     1
 40
1.0
176
     1
 90
        8
176
     1
 62
     7
176
     1
 40
1.0
176
     1
 90
        1
176
     1
 90
        6
176
     1
 90
        2
176
     1
 62
     7
176
     1
 90
        5
176
     1
 90
        0
176
     1
 90
        0
176
     1
290
     0
176
     1
 90
        1
176
     1
 40
-50.0
176
     1
 90
        0
176
     1
290
     0
176
     1
290
     1
176
     1
290
     1
176
     1
290
     0
176
     1
290
     0
176
     1
290
     0
176
     1
290
     0
176
     1
290
     0
176
     1
290
     0
176
     1
 90
       50
176
     1
 40
0.0
176
     1
 40
1.0
176
     1
 90
        0
176
     1
 62
    18
420
        0
176
     1
 90
       50
176
     1
 90
        3
176
     1
 62
     5
420
      255
176
     1
290
     0
176
     1
 90
       50
176
     1
 90
       50
176
     1
 90
       50
176
     1
290
     0
176
     1
 90
       50
176
     1
 62
   256
176
     0
 40
1.0
176
     0
 90
        2
176
     1
  1
strokes_ogs.tif
176
     1
290
     0
176
     1
 40
1.0
176
     1
 40
1.0
176
     1
1001
ACAD
1000
AcDbSavedByObjectVersion
1070
     0
  0
VISUALSTYLE
  5
41
102
{ACAD_REACTORS
330
29
102
}
330
29
100
AcDbVisualStyle
  2
EdgeColorOff
 70
    22
177
     3
291
     1
 70
    58
 90
        2
176
     0
 90
        2
176
     0
 90
        0
176
     0
 90
        0
176
     0
 40
0.6
176
     0
 40
30.0
176
     0
 62
     7
420
 16777215
176
     0
 90
        1
176
     0
 90
        4
176
     0
 62
     7
176
     0
 62
   257
176
     0
 90
        1
176
     0
 90
        1
176
     0
 40
1.0
176
     0
 90
        8
176
     2
 62
     7
176
     0
 40
1.0
176
     0
 90
        1
176
     0
 90
        6
176
     0
 90
        2
176
     0
 62
     7
176
     0
 90
        5
176
     0
 90
        0
176
     0
 90
        0
176
     0
290
     0
176
     0
 90
        1
176
     0
 40
0.0
176
     0
 90
        0
176
     0
290
     0
176
     0
290
     1
176
     0
290
     1
176
     0
290
     0
176
     0
290
     0
176
     0
290
     0
176
     0
290
     0
176
     0
290
     0
176
     0
290
     0
176
     0
 90
       50
176
     0
 40
0.0
176
     0
 40
1.0
176
     0
 90
        0
176
     0
 62
    18
420
        0
176
     0
 90
       50
176
     0
 90
        3
176
     0
 62
     5
420
      255
176
     0
290
     0
176
     0
 90
       50
176
     0
 90
       50
176
     0
 90
       50
176
     0
290
     0
176
     0
 90
       50
176
     0
 62
   256
176
     0
 40
1.0
176
     0
 90
        2
176
     0
  1
strokes_ogs.tif
176
     0
290
     0
176
     0
 40
1.0
176
     0
 40
1.0
176
     0
1001
ACAD
1000
AcDbSavedByObjectVersion
1070
     0
  0
VISUALSTYLE
  5
38
102
{ACAD_REACTORS
330
29
102
}
330
29
100
AcDbVisualStyle
  2
Facepattern
 70
    15
177
     3
291
     1
 70
    58
 90
        2
176
     1
 90
        2
176
     1
 90
        0
176
     1
 90
        0
176
     1
 40
0.6
176
     1
 40
30.0
176
     1
 62
     7
420
 16777215
176
     1
 90
        1
176
     1
 90
        4
176
     1
 62
     7
176
     1
 62
   257
176
     1
 90
        1
176
     1
 90
        1
176
     1
 40
1.0
176
     1
 90
        8
176
     1
 62
     7
176
     1
 40
1.0
176
     1
 90
        1
176
     1
 90
        6
176
     1
 90
        2
176
     1
 62
     7
176
     1
 90
        5
176
     1
 90
        0
176
     1
 90
        0
176
     1
290
     0
176
     1
 90
        1
176
     1
 40
0.0
176
     1
 90
        0
176
     1
290
     0
176
     1
290
     1
176
     1
290
     1
176
     1
290
     0
176
     1
290
     0
176
     1
290
     0
176
     1
290
     0
176
     1
290
     0
176
     1
290
     0
176
     1
 90
       50
176
     1
 40
0.0
176
     1
 40
1.0
176
     1
 90
        0
176
     1
 62
    18
420
        0
176
     1
 90
       50
176
     1
 90
        3
176
     1
 62
     5
420
      255
176
     1
290
     0
176
     1
 90
       50
176
     1
 90
       50
176
     1
 90
       50
176
     1
290
     0
176
     1
 90
       50
176
     1
 62
   256
176
     0
 40
1.0
176
     0
 90
        2
176
     1
  1
strokes_ogs.tif
176
     1
290
     0
176
     1
 40
1.0
176
     1
 40
1.0
176
     1
1001
ACAD
1000
AcDbSavedByObjectVersion
1070
     0
  0
VISUALSTYLE
  5
2A
102
{ACAD_REACTORS
330
29
102
}
330
29
100
AcDbVisualStyle
  2
Flat
 70
     0
177
     3
291
     1
 70
    58
 90
        2
176
     1
 90
        1
176
     1
 90
        1
176
     1
 90
        2
176
     1
 40
0.6
176
     1
 40
30.0
176
     1
 62
     7
420
 16777215
176
     1
 90
        0
176
     1
 90
        0
176
     1
 62
     7
176
     1
 62
   257
176
     1
 90
        1
176
     1
 90
        1
176
     1
 40
1.0
176
     1
 90
        8
176
     1
 62
     7
176
     1
 40
1.0
176
     1
 90
        1
176
     1
 90
        6
176
     1
 90
        2
176
     1
 62
     7
176
     1
 90
        5
176
     1
 90
        0
176
     1
 90
        0
176
     1
290
     0
176
     1
 90
       13
176
     1
 40
0.0
176
     1
 90
        0
176
     1
290
     0
176
     1
290
     1
176
     1
290
     1
176
     1
290
     0
176
     1
290
     0
176
     1
290
     0
176
     1
290
     0
176
     1
290
     0
176
     1
290
     0
176
     1
 90
       50
176
     1
 40
0.0
176
     1
 40
1.0
176
     1
 90
        0
176
     1
 62
    18
420
        0
176
     1
 90
       50
176
     1
 90
        3
176
     1
 62
     5
420
      255
176
     1
290
     0
176
     1
 90
       50
176
     1
 90
       50
176
     1
 90
       50
176
     1
290
     0
176
     1
 90
       50
176
     1
 62
   256
176
     0
 40
1.0
176
     0
 90
        2
176
     1
  1
strokes_ogs.tif
176
     1
290
     0
176
     1
 40
1.0
176
     1
 40
1.0
176
     1
1001
ACAD
1000
AcDbSavedByObjectVersion
1070
     0
  0
VISUALSTYLE
  5
2B
102
{ACAD_REACTORS
330
29
102
}
330
29
100
AcDbVisualStyle
  2
FlatWithEdges
 70
     1
177
     3
291
     1
 70
    58
 90
        2
176
     1
 90
        1
176
     1
 90
        1
176
     1
 90
        2
176
     1
 40
0.6
176
     1
 40
30.0
176
     1
 62
     7
420
 16777215
176
     1
 90
        1
176
     1
 90
        0
176
     1
 62
     7
176
     1
 62
   257
176
     1
 90
        1
176
     1
 90
        1
176
     1
 40
1.0
176
     1
 90
        0
176
     1
 62
   257
176
     1
 40
1.0
176
     1
 90
        1
176
     1
 90
        6
176
     1
 90
        2
176
     1
 62
     7
176
     1
 90
        5
176
     1
 90
        0
176
     1
 90
        0
176
     1
290
     0
176
     1
 90
       13
176
     1
 40
0.0
176
     1
 90
        0
176
     1
290
     0
176
     1
290
     1
176
     1
290
     1
176
     1
290
     0
176
     1
290
     0
176
     1
290
     0
176
     1
290
     0
176
     1
290
     0
176
     1
290
     0
176
     1
 90
       50
176
     1
 40
0.0
176
     1
 40
1.0
176
     1
 90
        0
176
     1
 62
    18
420
        0
176
     1
 90
       50
176
     1
 90
        3
176
     1
 62
     5
420
      255
176
     1
290
     0
176
     1
 90
       50
176
     1
 90
       50
176
     1
 90
       50
176
     1
290
     0
176
     1
 90
       50
176
     1
 62
   256
176
     0
 40
1.0
176
     0
 90
        2
176
     1
  1
strokes_ogs.tif
176
     1
290
     0
176
     1
 40
1.0
176
     1
 40
1.0
176
     1
1001
ACAD
1000
AcDbSavedByObjectVersion
1070
     0
  0
VISUALSTYLE
  5
2C
102
{ACAD_REACTORS
330
29
102
}
330
29
100
AcDbVisualStyle
  2
Gouraud
 70
     2
177
     3
291
     1
 70
    58
 90
        2
176
     1
 90
        2
176
     1
 90
        1
176
     1
 90
        2
176
     1
 40
0.6
176
     1
 40
30.0
176
     1
 62
     7
420
 16777215
176
     1
 90
        0
176
     1
 90
        0
176
     1
 62
     7
176
     1
 62
   257
176
     1
 90
        1
176
     1
 90
        1
176
     1
 40
1.0
176
     1
 90
        0
176
     1
 62
     7
176
     1
 40
1.0
176
     1
 90
        1
176
     1
 90
        6
176
     1
 90
        2
176
     1
 62
     7
176
     1
 90
        5
176
     1
 90
        0
176
     1
 90
        0
176
     1
290
     0
176
     1
 90
       13
176
     1
 40
0.0
176
     1
 90
        0
176
     1
290
     0
176
     1
290
     1
176
     1
290
     1
176
     1
290
     0
176
     1
290
     0
176
     1
290
     0
176
     1
290
     0
176
     1
290
     0
176
     1
290
     0
176
     1
 90
       50
176
     1
 40
0.0
176
     1
 40
1.0
176
     1
 90
        0
176
     1
 62
    18
420
        0
176
     1
 90
       50
176
     1
 90
        3
176
     1
 62
     5
420
      255
176
     1
290
     0
176
     1
 90
       50
176
     1
 90
       50
176
     1
 90
       50
176
     1
290
     0
176
     1
 90
       50
176
     1
 62
   256
176
     0
 40
1.0
176
     0
 90
        2
176
     1
  1
strokes_ogs.tif
176
     1
290
     0
176
     1
 40
1.0
176
     1
 40
1.0
176
     1
1001
ACAD
1000
AcDbSavedByObjectVersion
1070
     0
  0
VISUALSTYLE
  5
2D
102
{ACAD_REACTORS
330
29
102
}
330
29
100
AcDbVisualStyle
  2
GouraudWithEdges
 70
     3
177
     3
291
     1
 70
    58
 90
        2
176
     1
 90
        2
176
     1
 90
        1
176
     1
 90
        2
176
     1
 40
0.6
176
     1
 40
30.0
176
     1
 62
     7
420
 16777215
176
     1
 90
        1
176
     1
 90
        0
176
     1
 62
     7
176
     1
 62
   257
176
     1
 90
        1
176
     1
 90
        1
176
     1
 40
1.0
176
     1
 90
        0
176
     1
 62
   257
176
     1
 40
1.0
176
     1
 90
        1
176
     1
 90
        6
176
     1
 90
        2
176
     1
 62
     7
176
     1
 90
        5
176
     1
 90
        0
176
     1
 90
        0
176
     1
290
     0
176
     1
 90
       13
176
     1
 40
0.0
176
     1
 90
        0
176
     1
290
     0
176
     1
290
     1
176
     1
290
     1
176
     1
290
     0
176
     1
290
     0
176
     1
290
     0
176
     1
290
     0
176
     1
290
     0
176
     1
290
     0
176
     1
 90
       50
176
     1
 40
0.0
176
     1
 40
1.0
176
     1
 90
        0
176
     1
 62
    18
420
        0
176
     1
 90
       50
176
     1
 90
        3
176
     1
 62
     5
420
      255
176
     1
290
     0
176
     1
 90
       50
176
     1
 90
       50
176
     1
 90
       50
176
     1
290
     0
176
     1
 90
       50
176
     1
 62
   256
176
     0
 40
1.0
176
     0
 90
        2
176
     1
  1
strokes_ogs.tif
176
     1
290
     0
176
     1
 40
1.0
176
     1
 40
1.0
176
     1
1001
ACAD
1000
AcDbSavedByObjectVersion
1070
     0
  0
VISUALSTYLE
  5
31
102
{ACAD_REACTORS
330
29
102
}
330
29
100
AcDbVisualStyle
  2
Hidden
 70
     6
177
     3
291
     0
 70
    58
 90
        1
176
     1
 90
        2
176
     1
 90
        2
176
     1
 90
        0
176
     1
 40
0.6
176
     1
 40
30.0
176
     1
 62
     7
420
 16777215
176
     1
 90
        2
176
     1
 90
        2
176
     1
 62
     7
176
     1
 62
   257
176
     1
 90
        2
176
     1
 90
        1
176
     1
 40
40.0
176
     1
 90
        0
176
     1
 62
   257
176
     1
 40
1.0
176
     1
 90
        1
176
     1
 90
        6
176
     1
 90
        2
176
     1
 62
     7
176
     1
 90
        3
176
     1
 90
        0
176
     1
 90
        0
176
     1
290
     0
176
     1
 90
        1
176
     1
 40
0.0
176
     1
 90
        0
176
     1
290
     0
176
     1
290
     1
176
     1
290
     1
176
     1
290
     0
176
     1
290
     0
176
     1
290
     0
176
     1
290
     0
176
     1
290
     0
176
     1
290
     0
176
     1
 90
       50
176
     1
 40
0.0
176
     1
 40
1.0
176
     1
 90
        0
176
     1
 62
    18
420
        0
176
     1
 90
       50
176
     1
 90
        3
176
     1
 62
     5
420
      255
176
     1
290
     0
176
     1
 90
       50
176
     1
 90
       50
176
     1
 90
       50
176
     1
290
     0
176
     1
 90
       50
176
     1
 62
   256
176
     0
 40
1.0
176
     0
 90
        2
176
     1
  1
strokes_ogs.tif
176
     1
290
     0
176
     1
 40
1.0
176
     1
 40
1.0
176
     1
1001
ACAD
1000
AcDbSavedByObjectVersion
1070
     0
  0
VISUALSTYLE
  5
3F
102
{ACAD_REACTORS
330
29
102
}
330
29
100
AcDbVisualStyle
  2
JitterOff
 70
    20
177
     3
291
     1
 70
    58
 90
        2
176
     0
 90
        2
176
     0
 90
        0
176
     0
 90
        0
176
     0
 40
0.6
176
     0
 40
30.0
176
     0
 62
     7
420
 16777215
176
     0
 90
        1
176
     0
 90
        4
176
     0
 62
     7
176
     0
 62
   257
176
     0
 90
        1
176
     0
 90
        1
176
     0
 40
1.0
176
     0
 90
       10
176
     2
 62
     7
176
     0
 40
1.0
176
     0
 90
        1
176
     0
 90
        6
176
     0
 90
        2
176
     0
 62
     7
176
     0
 90
        5
176
     0
 90
        0
176
     0
 90
        0
176
     0
290
     0
176
     0
 90
        1
176
     0
 40
0.0
176
     0
 90
        0
176
     0
290
     0
176
     0
290
     1
176
     0
290
     1
176
     0
290
     0
176
     0
290
     0
176
     0
290
     0
176
     0
290
     0
176
     0
290
     0
176
     0
290
     0
176
     0
 90
       50
176
     0
 40
0.0
176
     0
 40
1.0
176
     0
 90
        0
176
     0
 62
    18
420
        0
176
     0
 90
       50
176
     0
 90
        3
176
     0
 62
     5
420
      255
176
     0
290
     0
176
     0
 90
       50
176
     0
 90
       50
176
     0
 90
       50
176
     0
290
     0
176
     0
 90
       50
176
     0
 62
   256
176
     0
 40
1.0
176
     0
 90
        2
176
     0
  1
strokes_ogs.tif
176
     0
290
     0
176
     0
 40
1.0
176
     0
 40
1.0
176
     0
1001
ACAD
1000
AcDbSavedByObjectVersion
1070
     0
  0
VISUALSTYLE
  5
37
102
{ACAD_REACTORS
330
29
102
}
330
29
100
AcDbVisualStyle
  2
Linepattern
 70
    14
177
     3
291
     1
 70
    58
 90
        2
176
     1
 90
        2
176
     1
 90
        0
176
     1
 90
        0
176
     1
 40
0.6
176
     1
 40
30.0
176
     1
 62
     7
420
 16777215
176
     1
 90
        1
176
     1
 90
        4
176
     1
 62
     7
176
     1
 62
   257
176
     1
 90
        7
176
     1
 90
        7
176
     1
 40
1.0
176
     1
 90
        8
176
     1
 62
     7
176
     1
 40
1.0
176
     1
 90
        1
176
     1
 90
        6
176
     1
 90
        2
176
     1
 62
     7
176
     1
 90
        5
176
     1
 90
        0
176
     1
 90
        0
176
     1
290
     0
176
     1
 90
        1
176
     1
 40
0.0
176
     1
 90
        0
176
     1
290
     0
176
     1
290
     1
176
     1
290
     1
176
     1
290
     0
176
     1
290
     0
176
     1
290
     0
176
     1
290
     0
176
     1
290
     0
176
     1
290
     0
176
     1
 90
       50
176
     1
 40
0.0
176
     1
 40
1.0
176
     1
 90
        0
176
     1
 62
    18
420
        0
176
     1
 90
       50
176
     1
 90
        3
176
     1
 62
     5
420
      255
176
     1
290
     0
176
     1
 90
       50
176
     1
 90
       50
176
     1
 90
       50
176
     1
290
     0
176
     1
 90
       50
176
     1
 62
   256
176
     0
 40
1.0
176
     0
 90
        2
176
     1
  1
strokes_ogs.tif
176
     1
290
     0
176
     1
 40
1.0
176
     1
 40
1.0
176
     1
1001
ACAD
1000
AcDbSavedByObjectVersion
1070
     0
  0
VISUALSTYLE
  5
40
102
{ACAD_REACTORS
330
29
102
}
330
29
100
AcDbVisualStyle
  2
OverhangOff
 70
    21
177
     3
291
     1
 70
    58
 90
        2
176
     0
 90
        2
176
     0
 90
        0
176
     0
 90
        0
176
     0
 40
0.6
176
     0
 40
30.0
176
     0
 62
     7
420
 16777215
176
     0
 90
        1
176
     0
 90
        4
176
     0
 62
     7
176
     0
 62
   257
176
     0
 90
        1
176
     0
 90
        1
176
     0
 40
1.0
176
     0
 90
        9
176
     2
 62
     7
176
     0
 40
1.0
176
     0
 90
        1
176
     0
 90
        6
176
     0
 90
        2
176
     0
 62
     7
176
     0
 90
        5
176
     0
 90
        0
176
     0
 90
        0
176
     0
290
     0
176
     0
 90
        1
176
     0
 40
0.0
176
     0
 90
        0
176
     0
290
     0
176
     0
290
     1
176
     0
290
     1
176
     0
290
     0
176
     0
290
     0
176
     0
290
     0
176
     0
290
     0
176
     0
290
     0
176
     0
290
     0
176
     0
 90
       50
176
     0
 40
0.0
176
     0
 40
1.0
176
     0
 90
        0
176
     0
 62
    18
420
        0
176
     0
 90
       50
176
     0
 90
        3
176
     0
 62
     5
420
      255
176
     0
290
     0
176
     0
 90
       50
176
     0
 90
       50
176
     0
 90
       50
176
     0
290
     0
176
     0
 90
       50
176
     0
 62
   256
176
     0
 40
1.0
176
     0
 90
        2
176
     0
  1
strokes_ogs.tif
176
     0
290
     0
176
     0
 40
1.0
176
     0
 40
1.0
176
     0
1001
ACAD
1000
AcDbSavedByObjectVersion
1070
     0
  0
VISUALSTYLE
  5
33
102
{ACAD_REACTORS
330
29
102
}
330
29
100
AcDbVisualStyle
  2
Realistic
 70
     8
177
     3
291
     0
 70
    58
 90
        2
176
     1
 90
        3
176
     1
 90
        0
176
     1
 90
        2
176
     1
 40
0.6
176
     1
 40
30.0
176
     1
 62
     7
420
 16777215
176
     1
 90
        0
176
     1
 90
        0
176
     1
 62
     7
176
     1
 62
   257
176
     1
 90
        1
176
     1
 90
        1
176
     1
 40
1.0
176
     1
 90
        8
176
     1
 62
   257
176
     1
 40
1.0
176
     1
 90
        1
176
     1
 90
        6
176
     1
 90
        2
176
     1
 62
     7
176
     1
 90
        3
176
     1
 90
        0
176
     1
 90
        0
176
     1
290
     0
176
     1
 90
       13
176
     1
 40
0.0
176
     1
 90
        0
176
     1
290
     0
176
     1
290
     1
176
     1
290
     1
176
     1
290
     0
176
     1
290
     0
176
     1
290
     0
176
     1
290
     0
176
     1
290
     0
176
     1
290
     0
176
     1
 90
       50
176
     1
 40
0.0
176
     1
 40
1.0
176
     1
 90
        0
176
     1
 62
    18
420
        0
176
     1
 90
       50
176
     1
 90
        3
176
     1
 62
     5
420
      255
176
     1
290
     0
176
     1
 90
       50
176
     1
 90
       50
176
     1
 90
       50
176
     1
290
     0
176
     1
 90
       50
176
     1
 62
   256
176
     0
 40
1.0
176
     0
 90
        2
176
     1
  1
strokes_ogs.tif
176
     1
290
     0
176
     1
 40
1.0
176
     1
 40
1.0
176
     1
1001
ACAD
1000
AcDbSavedByObjectVersion
1070
     0
  0
VISUALSTYLE
  5
3E
102
{ACAD_REACTORS
330
29
102
}
330
29
100
AcDbVisualStyle
  2
Shaded
 70
    27
177
     3
291
     0
 70
    58
 90
        2
176
     1
 90
        2
176
     1
 90
        1
176
     1
 90
        2
176
     1
 40
0.6
176
     1
 40
30.0
176
     1
 62
     7
420
 16777215
176
     1
 90
        0
176
     1
 90
        4
176
     1
 62
     7
176
     1
 62
   257
176
     1
 90
        1
176
     1
 90
        1
176
     1
 40
1.0
176
     1
 90
        8
176
     1
 62
   257
176
     1
 40
1.0
176
     1
 90
        1
176
     1
 90
        6
176
     1
 90
        2
176
     1
 62
     8
420
  7895160
176
     1
 90
        3
176
     1
 90
        0
176
     1
 90
        0
176
     1
290
     0
176
     1
 90
        5
176
     1
 40
0.0
176
     1
 90
        0
176
     1
290
     0
176
     1
290
     1
176
     1
290
     1
176
     1
290
     0
176
     1
290
     0
176
     1
290
     0
176
     1
290
     0
176
     1
290
     0
176
     1
290
     0
176
     1
 90
       50
176
     1
 40
0.0
176
     1
 40
1.0
176
     1
 90
        0
176
     1
 62
    18
420
        0
176
     1
 90
       50
176
     1
 90
        3
176
     1
 62
     5
420
      255
176
     1
290
     0
176
     1
 90
       50
176
     1
 90
       50
176
     1
 90
       50
176
     1
290
     0
176
     1
 90
       50
176
     1
 62
   256
176
     0
 40
1.0
176
     0
 90
        2
176
     1
  1
strokes_ogs.tif
176
     1
290
     0
176
     1
 40
1.0
176
     1
 40
1.0
176
     1
1001
ACAD
1000
AcDbSavedByObjectVersion
1070
     0
  0
VISUALSTYLE
  5
3D
102
{ACAD_REACTORS
330
29
102
}
330
29
100
AcDbVisualStyle
  2
Shaded with edges
 70
    26
177
     3
291
     0
 70
    58
 90
        2
176
     1
 90
        2
176
     1
 90
        1
176
     1
 90
        2
176
     1
 40
0.6
176
     1
 40
30.0
176
     1
 62
     7
420
 16777215
176
     1
 90
        1
176
     1
 90
        2
176
     1
 62
     7
176
     1
 62
   257
176
     1
 90
        2
176
     1
 90
        1
176
     1
 40
1.0
176
     1
 90
        8
176
     1
 62
   257
176
     1
 40
1.0
176
     1
 90
        1
176
     1
 90
        6
176
     1
 90
        2
176
     1
 62
     7
176
     1
 90
        3
176
     1
 90
        0
176
     1
 90
        0
176
     1
290
     0
176
     1
 90
        5
176
     1
 40
0.0
176
     1
 90
        0
176
     1
290
     0
176
     1
290
     1
176
     1
290
     1
176
     1
290
     0
176
     1
290
     0
176
     1
290
     0
176
     1
290
     0
176
     1
290
     0
176
     1
290
     0
176
     1
 90
       50
176
     1
 40
0.0
176
     1
 40
1.0
176
     1
 90
        0
176
     1
 62
    18
420
        0
176
     1
 90
       50
176
     1
 90
        3
176
     1
 62
     5
420
      255
176
     1
290
     0
176
     1
 90
       50
176
     1
 90
       50
176
     1
 90
       50
176
     1
290
     0
176
     1
 90
       50
176
     1
 62
   256
176
     0
 40
1.0
176
     0
 90
        2
176
     1
  1
strokes_ogs.tif
176
     1
290
     0
176
     1
 40
1.0
176
     1
 40
1.0
176
     1
1001
ACAD
1000
AcDbSavedByObjectVersion
1070
     0
  0
VISUALSTYLE
  5
3A
102
{ACAD_REACTORS
330
29
102
}
330
29
100
AcDbVisualStyle
  2
Shades of Gray
 70
    23
177
     3
291
     0
 70
    58
 90
        2
176
     1
 90
        2
176
     1
 90
        3
176
     1
 90
        0
176
     1
 40
0.6
176
     1
 40
30.0
176
     1
 62
     7
420
 16777215
176
     1
 90
        2
176
     1
 90
        2
176
     1
 62
     7
176
     1
 62
     7
176
     1
 90
        1
176
     1
 90
        1
176
     1
 40
40.0
176
     1
 90
        8
176
     1
 62
     7
176
     1
 40
1.0
176
     1
 90
        1
176
     1
 90
        6
176
     1
 90
        2
176
     1
 62
     7
176
     1
 90
        3
176
     1
 90
        0
176
     1
 90
        0
176
     1
290
     0
176
     1
 90
        1
176
     1
 40
0.0
176
     1
 90
        0
176
     1
290
     0
176
     1
290
     1
176
     1
290
     1
176
     1
290
     0
176
     1
290
     0
176
     1
290
     0
176
     1
290
     0
176
     1
290
     0
176
     1
290
     0
176
     1
 90
       50
176
     1
 40
0.0
176
     1
 40
1.0
176
     1
 90
        0
176
     1
 62
    18
420
        0
176
     1
 90
       50
176
     1
 90
        3
176
     1
 62
     5
420
      255
176
     1
290
     0
176
     1
 90
       50
176
     1
 90
       50
176
     1
 90
       50
176
     1
290
     0
176
     1
 90
       50
176
     1
 62
   256
176
     0
 40
1.0
176
     0
 90
        2
176
     1
  1
strokes_ogs.tif
176
     1
290
     0
176
     1
 40
1.0
176
     1
 40
1.0
176
     1
1001
ACAD
1000
AcDbSavedByObjectVersion
1070
     0
  0
VISUALSTYLE
  5
3B
102
{ACAD_REACTORS
330
29
102
}
330
29
100
AcDbVisualStyle
  2
Sketchy
 70
    24
177
     3
291
     0
 70
    58
 90
        1
176
     1
 90
        2
176
     1
 90
        2
176
     1
 90
        0
176
     1
 40
0.6
176
     1
 40
30.0
176
     1
 62
     7
420
 16777215
176
     1
 90
        2
176
     1
 90
        2
176
     1
 62
     7
176
     1
 62
     7
176
     1
 90
        1
176
     1
 90
        1
176
     1
 40
40.0
176
     1
 90
       11
176
     1
 62
     7
176
     1
 40
1.0
176
     1
 90
        1
176
     1
 90
        6
176
     1
 90
        2
176
     1
 62
     7
176
     1
 90
        6
176
     1
 90
        0
176
     1
 90
        0
176
     1
290
     0
176
     1
 90
        1
176
     1
 40
0.0
176
     1
 90
        0
176
     1
290
     0
176
     1
290
     1
176
     1
290
     1
176
     1
290
     0
176
     1
290
     0
176
     1
290
     0
176
     1
290
     0
176
     1
290
     0
176
     1
290
     0
176
     1
 90
       50
176
     1
 40
0.0
176
     1
 40
1.0
176
     1
 90
        0
176
     1
 62
    18
420
        0
176
     1
 90
       50
176
     1
 90
        3
176
     1
 62
     5
420
      255
176
     1
290
     0
176
     1
 90
       50
176
     1
 90
       50
176
     1
 90
       50
176
     1
290
     0
176
     1
 90
       50
176
     1
 62
   256
176
     0
 40
1.0
176
     0
 90
        2
176
     1
  1
strokes_ogs.tif
176
     1
290
     0
176
     1
 40
1.0
176
     1
 40
1.0
176
     1
1001
ACAD
1000
AcDbSavedByObjectVersion
1070
     0
  0
VISUALSTYLE
  5
36
102
{ACAD_REACTORS
330
29
102
}
330
29
100
AcDbVisualStyle
  2
Thicken
 70
    13
177
     3
291
     1
 70
    58
 90
        2
176
     1
 90
        2
176
     1
 90
        0
176
     1
 90
        0
176
     1
 40
0.6
176
     1
 40
30.0
176
     1
 62
     7
420
 16777215
176
     1
 90
        1
176
     1
 90
        4
176
     1
 62
     7
176
     1
 62
   257
176
     1
 90
        1
176
     1
 90
        1
176
     1
 40
1.0
176
     1
 90
       12
176
     1
 62
     7
176
     1
 40
1.0
176
     1
 90
        1
176
     1
 90
        6
176
     1
 90
        2
176
     1
 62
     7
176
     1
 90
        5
176
     1
 90
        0
176
     1
 90
        0
176
     1
290
     0
176
     1
 90
        1
176
     1
 40
0.0
176
     1
 90
        0
176
     1
290
     0
176
     1
290
     1
176
     1
290
     1
176
     1
290
     0
176
     1
290
     0
176
     1
290
     0
176
     1
290
     0
176
     1
290
     0
176
     1
290
     0
176
     1
 90
       50
176
     1
 40
0.0
176
     1
 40
1.0
176
     1
 90
        0
176
     1
 62
    18
420
        0
176
     1
 90
       50
176
     1
 90
        3
176
     1
 62
     5
420
      255
176
     1
290
     0
176
     1
 90
       50
176
     1
 90
       50
176
     1
 90
       50
176
     1
290
     0
176
     1
 90
       50
176
     1
 62
   256
176
     0
 40
1.0
176
     0
 90
        2
176
     1
  1
strokes_ogs.tif
176
     1
290
     0
176
     1
 40
1.0
176
     1
 40
1.0
176
     1
1001
ACAD
1000
AcDbSavedByObjectVersion
1070
     0
  0
VISUALSTYLE
  5
30
102
{ACAD_REACTORS
330
29
102
}
330
29
100
AcDbVisualStyle
  2
Wireframe
 70
     5
177
     3
291
     0
 70
    58
 90
        0
176
     1
 90
        2
176
     1
 90
        0
176
     1
 90
        0
176
     1
 40
0.6
176
     1
 40
30.0
176
     1
 62
     7
420
 16777215
176
     1
 90
        1
176
     1
 90
        4
176
     1
 62
     7
176
     1
 62
   257
176
     1
 90
        1
176
     1
 90
        1
176
     1
 40
1.0
176
     1
 90
        0
176
     1
 62
   257
176
     1
 40
1.0
176
     1
 90
        1
176
     1
 90
        6
176
     1
 90
        2
176
     1
 62
     7
176
     1
 90
        3
176
     1
 90
        0
176
     1
 90
        0
176
     1
290
     0
176
     1
 90
        1
176
     1
 40
0.0
176
     1
 90
        0
176
     1
290
     0
176
     1
290
     1
176
     1
290
     1
176
     1
290
     0
176
     1
290
     0
176
     1
290
     0
176
     1
290
     0
176
     1
290
     0
176
     1
290
     0
176
     1
 90
       50
176
     1
 40
0.0
176
     1
 40
1.0
176
     1
 90
        0
176
     1
 62
    18
420
        0
176
     1
 90
       50
176
     1
 90
        3
176
     1
 62
     5
420
      255
176
     1
290
     0
176
     1
 90
       50
176
     1
 90
       50
176
     1
 90
       50
176
     1
290
     0
176
     1
 90
       50
176
     1
 62
   256
176
     0
 40
1.0
176
     0
 90
        2
176
     1
  1
strokes_ogs.tif
176
     1
290
     0
176
     1
 40
1.0
176
     1
 40
1.0
176
     1
1001
ACAD
1000
AcDbSavedByObjectVersion
1070
     0
  0
VISUALSTYLE
  5
3C
102
{ACAD_REACTORS
330
29
102
}
330
29
100
AcDbVisualStyle
  2
X-Ray
 70
    25
177
     3
291
     0
 70
    58
 90
        2
176
     1
 90
        2
176
     1
 90
        1
176
     1
 90
        1
176
     1
 40
0.5
176
     1
 40
30.0
176
     1
 62
     7
420
 16777215
176
     1
 90
        1
176
     1
 90
        0
176
     1
 62
     7
176
     1
 62
   257
176
     1
 90
        1
176
     1
 90
        1
176
     1
 40
1.0
176
     1
 90
        8
176
     1
 62
     7
176
     1
 40
1.0
176
     1
 90
        1
176
     1
 90
        6
176
     1
 90
        2
176
     1
 62
     7
176
     1
 90
        3
176
     1
 90
        0
176
     1
 90
        0
176
     1
290
     0
176
     1
 90
       13
176
     1
 40
0.0
176
     1
 90
        0
176
     1
290
     0
176
     1
290
     1
176
     1
290
     1
176
     1
290
     0
176
     1
290
     0
176
     1
290
     0
176
     1
290
     0
176
     1
290
     0
176
     1
290
     0
176
     1
 90
       50
176
     1
 40
0.0
176
     1
 40
1.0
176
     1
 90
        0
176
     1
 62
    18
420
        0
176
     1
 90
       50
176
     1
 90
        3
176
     1
 62
     5
420
      255
176
     1
290
     0
176
     1
 90
       50
176
     1
 90
       50
176
     1
 90
       50
176
     1
290
     0
176
     1
 90
       50
176
     1
 62
   256
176
     0
 40
1.0
176
     0
 90
        2
176
     1
  1
strokes_ogs.tif
176
     1
290
     0
176
     1
 40
1.0
176
     1
 40
1.0
176
     1
1001
ACAD
1000
AcDbSavedByObjectVersion
1070
     0
  0
DICTIONARYVAR
  5
135
102
{ACAD_REACTORS
330
130
102
}
330
130
100
DictionaryVariables
280
     0
  1
1:1
  0
DICTIONARYVAR
  5
132
102
{ACAD_REACTORS
330
130
102
}
330
130
100
DictionaryVariables
280
     0
  1
STANDARD
  0
DICTIONARYVAR
  5
131
102
{ACAD_REACTORS
330
130
102
}
330
130
100
DictionaryVariables
280
     0
  1
STANDARD
  0
DICTIONARYVAR
  5
133
102
{ACAD_REACTORS
330
130
102
}
330
130
100
DictionaryVariables
280
     0
  1
Imperial24
  0
DICTIONARYVAR
  5
134
102
{ACAD_REACTORS
330
130
102
}
330
130
100
DictionaryVariables
280
     0
  1
Imperial24
  0
DICTIONARY
  5
13B
330
6B
100
AcDbDictionary
280
     1
281
     1
  3
ACAD_XREC_ROUNDTRIP
360
13C
  0
DICTIONARY
  5
1A
330
19
100
AcDbDictionary
280
     1
281
     1
  3
BUMPTILE
360
1C
  3
DIFFUSETILE
360
1B
  3
OPACITYTILE
360
1F
  3
REFLECTIONTILE
360
1E
  3
REFRACTIONTILE
360
20
  3
SPECULARTILE
360
1D
  0
DICTIONARY
  5
12
330
11
100
AcDbDictionary
280
     1
281
     1
  3
BUMPTILE
360
14
  3
DIFFUSETILE
360
13
  3
OPACITYTILE
360
17
  3
REFLECTIONTILE
360
16
  3
REFRACTIONTILE
360
18
  3
SPECULARTILE
360
15
  0
DICTIONARY
  5
22
330
21
100
AcDbDictionary
280
     1
281
     1
  3
BUMPTILE
360
24
  3
DIFFUSETILE
360
23
  3
OPACITYTILE
360
27
  3
REFLECTIONTILE
360
26
  3
REFRACTIONTILE
360
28
  3
SPECULARTILE
360
25
  0
DICTIONARY
  5
139
330
69
100
AcDbDictionary
280
     1
281
     1
  3
ACAD_XREC_ROUNDTRIP
360
13A
  0
DICTIONARY
  5
136
330
65
100
AcDbDictionary
280
     1
281
     1
  3
ACAD_ROUNDTRIP_2008_TABLESTYLE_CELLSTYLEMAP
360
137
  0
XRECORD
  5
13C
102
{ACAD_REACTORS
330
13B
102
}
330
13B
100
AcDbXrecord
280
     1
102
DISPLAYNAME
  1
Imperial24
102
FLAGS
 90
        0
  0
XRECORD
  5
1C
102
{ACAD_REACTORS
330
1A
102
}
330
1A
100
AcDbXrecord
280
     1
270
     1
271
     1
  0
XRECORD
  5
1B
102
{ACAD_REACTORS
330
1A
102
}
330
1A
100
AcDbXrecord
280
     1
270
     1
271
     1
  0
XRECORD
  5
1F
102
{ACAD_REACTORS
330
1A
102
}
330
1A
100
AcDbXrecord
280
     1
270
     1
271
     1
  0
XRECORD
  5
1E
102
{ACAD_REACTORS
330
1A
102
}
330
1A
100
AcDbXrecord
280
     1
270
     1
271
     1
  0
XRECORD
  5
20
102
{ACAD_REACTORS
330
1A
102
}
330
1A
100
AcDbXrecord
280
     1
270
     1
271
     1
  0
XRECORD
  5
1D
102
{ACAD_REACTORS
330
1A
102
}
330
1A
100
AcDbXrecord
280
     1
270
     1
271
     1
  0
XRECORD
  5
14
102
{ACAD_REACTORS
330
12
102
}
330
12
100
AcDbXrecord
280
     1
270
     1
271
     1
  0
XRECORD
  5
13
102
{ACAD_REACTORS
330
12
102
}
330
12
100
AcDbXrecord
280
     1
270
     1
271
     1
  0
XRECORD
  5
17
102
{ACAD_REACTORS
330
12
102
}
330
12
100
AcDbXrecord
280
     1
270
     1
271
     1
  0
XRECORD
  5
16
102
{ACAD_REACTORS
330
12
102
}
330
12
100
AcDbXrecord
280
     1
270
     1
271
     1
  0
XRECORD
  5
18
102
{ACAD_REACTORS
330
12
102
}
330
12
100
AcDbXrecord
280
     1
270
     1
271
     1
  0
XRECORD
  5
15
102
{ACAD_REACTORS
330
12
102
}
330
12
100
AcDbXrecord
280
     1
270
     1
271
     1
  0
XRECORD
  5
24
102
{ACAD_REACTORS
330
22
102
}
330
22
100
AcDbXrecord
280
     1
270
     1
271
     1
  0
XRECORD
  5
23
102
{ACAD_REACTORS
330
22
102
}
330
22
100
AcDbXrecord
280
     1
270
     1
271
     1
  0
XRECORD
  5
27
102
{ACAD_REACTORS
330
22
102
}
330
22
100
AcDbXrecord
280
     1
270
     1
271
     1
  0
XRECORD
  5
26
102
{ACAD_REACTORS
330
22
102
}
330
22
100
AcDbXrecord
280
     1
270
     1
271
     1
  0
XRECORD
  5
28
102
{ACAD_REACTORS
330
22
102
}
330
22
100
AcDbXrecord
280
     1
270
     1
271
     1
  0
XRECORD
  5
25
102
{ACAD_REACTORS
330
22
102
}
330
22
100
AcDbXrecord
280
     1
270
     1
271
     1
  0
XRECORD
  5
13A
102
{ACAD_REACTORS
330
139
102
}
330
139
100
AcDbXrecord
280
     1
102
DISPLAYNAME
  1
Imperial24
102
FLAGS
 90
        0
  0
CELLSTYLEMAP
  5
137
102
{ACAD_REACTORS
330
136
102
}
330
136
100
AcDbCellStyleMap
 90
        3
300
CELLSTYLE
  1
TABLEFORMAT_BEGIN
 90
        5
170
     1
 91
        0
 92
    32768
 62
   257
 93
        1
300
CONTENTFORMAT
  1
CONTENTFORMAT_BEGIN
 90
        0
 91
        0
 92
      512
 93
        0
300

 40
0.0
140
1.0
 94
        5
 62
     0
340
55
144
0.25
309
CONTENTFORMAT_END
171
     0
 94
        0
309
TABLEFORMAT_END
  1
CELLSTYLE_BEGIN
 90
        1
 91
        1
300
_TITLE
309
CELLSTYLE_END
300
CELLSTYLE
  1
TABLEFORMAT_BEGIN
 90
        5
170
     1
 91
        0
 92
        0
 62
   257
 93
        1
300
CONTENTFORMAT
  1
CONTENTFORMAT_BEGIN
 90
        0
 91
        0
 92
      512
 93
        0
300

 40
0.0
140
1.0
 94
        5
 62
     0
340
55
144
0.18
309
CONTENTFORMAT_END
171
     0
 94
        0
309
TABLEFORMAT_END
  1
CELLSTYLE_BEGIN
 90
        2
 91
        1
300
_HEADER
309
CELLSTYLE_END
300
CELLSTYLE
  1
TABLEFORMAT_BEGIN
 90
        5
170
     1
 91
        0
 92
        0
 62
   257
 93
        1
300
CONTENTFORMAT
  1
CONTENTFORMAT_BEGIN
 90
        0
 91
        0
 92
      512
 93
        0
300

 40
0.0
140
1.0
 94
        2
 62
     0
340
55
144
0.18
309
CONTENTFORMAT_END
171
     0
 94
        0
309
TABLEFORMAT_END
  1
CELLSTYLE_BEGIN
 90
        3
 91
        2
300
_DATA
309
CELLSTYLE_END
  0
ENDSEC
  0
EOF
