  0
SECTION
  2
HEADER
  9
$ACADVER
  1
AC1021
  9
$ACADMAINTVER
 70
    25
  9
$DWGCODEPAGE
  3
ANSI_1252
  9
$INSBASE
 10
0.0
 20
0.0
 30
0.0
  9
$EXTMIN
 10
1.000000000000000E+20
 20
1.000000000000000E+20
 30
1.000000000000000E+20
  9
$EXTMAX
 10
-1.000000000000000E+20
 20
-1.000000000000000E+20
 30
-1.000000000000000E+20
  9
$LIMMIN
 10
0.0
 20
0.0
  9
$LIMMAX
 10
12.0
 20
9.0
  9
$ORTHOMODE
 70
     0
  9
$REGENMODE
 70
     1
  9
$FILLMODE
 70
     1
  9
$QTEXTMODE
 70
     0
  9
$MIRRTEXT
 70
     1
  9
$LTSCALE
 40
1.0
  9
$ATTMODE
 70
     1
  9
$TEXTSIZE
 40
0.2
  9
$TRACEWID
 40
0.05
  9
$TEXTSTYLE
  7
Standard
  9
$CLAYER
  8
0
  9
$CELTYPE
  6
ByLayer
  9
$CECOLOR
 62
   256
  9
$CELTSCALE
 40
1.0
  9
$DISPSILH
 70
     0
  9
$DIMSCALE
 40
1.0
  9
$DIMASZ
 40
0.18
  9
$DIMEXO
 40
0.0625
  9
$DIMDLI
 40
0.38
  9
$DIMRND
 40
0.0
  9
$DIMDLE
 40
0.0
  9
$DIMEXE
 40
0.18
  9
$DIMTP
 40
0.0
  9
$DIMTM
 40
0.0
  9
$DIMTXT
 40
0.18
  9
$DIMCEN
 40
0.09
  9
$DIMTSZ
 40
0.0
  9
$DIMTOL
 70
     0
  9
$DIMLIM
 70
     0
  9
$DIMTIH
 70
     1
  9
$DIMTOH
 70
     1
  9
$DIMSE1
 70
     0
  9
$DIMSE2
 70
     0
  9
$DIMTAD
 70
     0
  9
$DIMZIN
 70
     0
  9
$DIMBLK
  1

  9
$DIMASO
 70
     1
  9
$DIMSHO
 70
     1
  9
$DIMPOST
  1

  9
$DIMAPOST
  1

  9
$DIMALT
 70
     0
  9
$DIMALTD
 70
     2
  9
$DIMALTF
 40
25.4
  9
$DIMLFAC
 40
1.0
  9
$DIMTOFL
 70
     0
  9
$DIMTVP
 40
0.0
  9
$DIMTIX
 70
     0
  9
$DIMSOXD
 70
     0
  9
$DIMSAH
 70
     0
  9
$DIMBLK1
  1

  9
$DIMBLK2
  1

  9
$DIMSTYLE
  2
STANDARD_ACAD
  9
$DIMCLRD
 70
     0
  9
$DIMCLRE
 70
     0
  9
$DIMCLRT
 70
     0
  9
$DIMTFAC
 40
1.0
  9
$DIMGAP
 40
0.09
  9
$DIMJUST
 70
     0
  9
$DIMSD1
 70
     0
  9
$DIMSD2
 70
     0
  9
$DIMTOLJ
 70
     1
  9
$DIMTZIN
 70
     0
  9
$DIMALTZ
 70
     0
  9
$DIMALTTZ
 70
     0
  9
$DIMUPT
 70
     0
  9
$DIMDEC
 70
     4
  9
$DIMTDEC
 70
     4
  9
$DIMALTU
 70
     2
  9
$DIMALTTD
 70
     2
  9
$DIMTXSTY
  7
Standard
  9
$DIMAUNIT
 70
     0
  9
$DIMADEC
 70
     0
  9
$DIMALTRND
 40
0.0
  9
$DIMAZIN
 70
     0
  9
$DIMDSEP
 70
    46
  9
$DIMATFIT
 70
     3
  9
$DIMFRAC
 70
     0
  9
$DIMLDRBLK
  1

  9
$DIMLUNIT
 70
     2
  9
$DIMLWD
 70
    -2
  9
$DIMLWE
 70
    -2
  9
$DIMTMOVE
 70
     2
  9
$DIMFXL
 40
1.0
  9
$DIMFXLON
 70
     0
  9
$DIMJOGANG
 40
0.7853981633974483
  9
$DIMTFILL
 70
     0
  9
$DIMTFILLCLR
 70
     0
  9
$DIMARCSYM
 70
     0
  9
$DIMLTYPE
  6

  9
$DIMLTEX1
  6

  9
$DIMLTEX2
  6

  9
$LUNITS
 70
     2
  9
$LUPREC
 70
     3
  9
$SKETCHINC
 40
0.1
  9
$FILLETRAD
 40
0.5
  9
$AUNITS
 70
     0
  9
$AUPREC
 70
     0
  9
$MENU
  1
.
  9
$ELEVATION
 40
0.0
  9
$PELEVATION
 40
0.0
  9
$THICKNESS
 40
0.0
  9
$LIMCHECK
 70
     0
  9
$CHAMFERA
 40
0.0
  9
$CHAMFERB
 40
0.0
  9
$CHAMFERC
 40
0.0
  9
$CHAMFERD
 40
0.0
  9
$SKPOLY
 70
     0
  9
$TDCREATE
 40
2459627.597474213
  9
$TDUCREATE
 40
2459627.555807546
  9
$TDUPDATE
 40
2459627.59750419
  9
$TDUUPDATE
 40
2459627.555837523
  9
$TDINDWG
 40
0.0000000116
  9
$TDUSRTIMER
 40
0.0000000116
  9
$USRTIMER
 70
     1
  9
$ANGBASE
 50
0.0
  9
$ANGDIR
 70
     0
  9
$PDMODE
 70
     0
  9
$PDSIZE
 40
0.0
  9
$PLINEWID
 40
0.0
  9
$SPLFRAME
 70
     0
  9
$SPLINETYPE
 70
     6
  9
$SPLINESEGS
 70
     8
  9
$HANDSEED
  5
41E
  9
$SURFTAB1
 70
     6
  9
$SURFTAB2
 70
     6
  9
$SURFTYPE
 70
     6
  9
$SURFU
 70
     6
  9
$SURFV
 70
     6
  9
$UCSBASE
  2

  9
$UCSNAME
  2

  9
$UCSORG
 10
0.0
 20
0.0
 30
0.0
  9
$UCSXDIR
 10
1.0
 20
0.0
 30
0.0
  9
$UCSYDIR
 10
0.0
 20
1.0
 30
0.0
  9
$UCSORTHOREF
  2

  9
$UCSORTHOVIEW
 70
     0
  9
$UCSORGTOP
 10
0.0
 20
0.0
 30
0.0
  9
$UCSORGBOTTOM
 10
0.0
 20
0.0
 30
0.0
  9
$UCSORGLEFT
 10
0.0
 20
0.0
 30
0.0
  9
$UCSORGRIGHT
 10
0.0
 20
0.0
 30
0.0
  9
$UCSORGFRONT
 10
0.0
 20
0.0
 30
0.0
  9
$UCSORGBACK
 10
0.0
 20
0.0
 30
0.0
  9
$PUCSBASE
  2

  9
$PUCSNAME
  2

  9
$PUCSORG
 10
0.0
 20
0.0
 30
0.0
  9
$PUCSXDIR
 10
1.0
 20
0.0
 30
0.0
  9
$PUCSYDIR
 10
0.0
 20
1.0
 30
0.0
  9
$PUCSORTHOREF
  2

  9
$PUCSORTHOVIEW
 70
     0
  9
$PUCSORGTOP
 10
0.0
 20
0.0
 30
0.0
  9
$PUCSORGBOTTOM
 10
0.0
 20
0.0
 30
0.0
  9
$PUCSORGLEFT
 10
0.0
 20
0.0
 30
0.0
  9
$PUCSORGRIGHT
 10
0.0
 20
0.0
 30
0.0
  9
$PUCSORGFRONT
 10
0.0
 20
0.0
 30
0.0
  9
$PUCSORGBACK
 10
0.0
 20
0.0
 30
0.0
  9
$USERI1
 70
     0
  9
$USERI2
 70
     0
  9
$USERI3
 70
     0
  9
$USERI4
 70
     0
  9
$USERI5
 70
     0
  9
$USERR1
 40
0.0
  9
$USERR2
 40
0.0
  9
$USERR3
 40
0.0
  9
$USERR4
 40
0.0
  9
$USERR5
 40
0.0
  9
$WORLDVIEW
 70
     1
  9
$SHADEDGE
 70
     3
  9
$SHADEDIF
 70
    70
  9
$TILEMODE
 70
     1
  9
$MAXACTVP
 70
    64
  9
$PINSBASE
 10
0.0
 20
0.0
 30
0.0
  9
$PLIMCHECK
 70
     0
  9
$PEXTMIN
 10
1.000000000000000E+20
 20
1.000000000000000E+20
 30
1.000000000000000E+20
  9
$PEXTMAX
 10
-1.000000000000000E+20
 20
-1.000000000000000E+20
 30
-1.000000000000000E+20
  9
$PLIMMIN
 10
0.0
 20
0.0
  9
$PLIMMAX
 10
12.0
 20
9.0
  9
$UNITMODE
 70
     0
  9
$VISRETAIN
 70
     1
  9
$PLINEGEN
 70
     0
  9
$PSLTSCALE
 70
     1
  9
$TREEDEPTH
 70
  3020
  9
$CMLSTYLE
  2
Standard
  9
$CMLJUST
 70
     0
  9
$CMLSCALE
 40
1.0
  9
$PROXYGRAPHICS
 70
     1
  9
$MEASUREMENT
 70
     1
  9
$CELWEIGHT
370
    -1
  9
$ENDCAPS
280
     0
  9
$JOINSTYLE
280
     0
  9
$LWDISPLAY
290
     0
  9
$INSUNITS
 70
     4
  9
$HYPERLINKBASE
  1

  9
$STYLESHEET
  1

  9
$XEDIT
290
     1
  9
$CEPSNTYPE
380
     0
  9
$PSTYLEMODE
290
     1
  9
$FINGERPRINTGUID
  2
{d2cad70c-2199-4105-84a9-f0108b1d2f73}
  9
$VERSIONGUID
  2
{FAEB1C32-E019-11D5-929B-00C0DF256EC4}
  9
$EXTNAMES
290
     1
  9
$PSVPSCALE
 40
0.0
  9
$OLESTARTUP
290
     0
  9
$SORTENTS
280
   127
  9
$INDEXCTL
280
     0
  9
$HIDETEXT
280
     1
  9
$XCLIPFRAME
290
     0
  9
$HALOGAP
280
     0
  9
$OBSCOLOR
 70
   257
  9
$OBSLTYPE
280
     0
  9
$INTERSECTIONDISPLAY
280
     0
  9
$INTERSECTIONCOLOR
 70
   257
  9
$DIMASSOC
280
     2
  9
$PROJECTNAME
  1

  9
$CAMERADISPLAY
290
     0
  9
$LENSLENGTH
 40
50.0
  9
$CAMERAHEIGHT
 40
0.0
  9
$STEPSPERSEC
 40
2.0
  9
$STEPSIZE
 40
6.0
  9
$3DDWFPREC
 40
2.0
  9
$PSOLWIDTH
 40
0.25
  9
$PSOLHEIGHT
 40
4.0
  9
$LOFTANG1
 40
1.570796326794897
  9
$LOFTANG2
 40
1.570796326794897
  9
$LOFTMAG1
 40
0.0
  9
$LOFTMAG2
 40
0.0
  9
$LOFTPARAM
 70
     7
  9
$LOFTNORMALS
280
     1
  9
$LATITUDE
 40
37.795
  9
$LONGITUDE
 40
-122.394
  9
$NORTHDIRECTION
 40
0.0
  9
$TIMEZONE
 70
 -8000
  9
$LIGHTGLYPHDISPLAY
280
     1
  9
$TILEMODELIGHTSYNCH
280
     1
  9
$CMATERIAL
347
44
  9
$SOLIDHIST
280
     0
  9
$SHOWHIST
280
     1
  9
$DWFFRAME
280
     2
  9
$DGNFRAME
280
     2
  9
$REALWORLDSCALE
290
     1
  9
$INTERFERECOLOR
 62
   256
  9
$CSHADOW
280
     0
  9
$SHADOWPLANELOCATION
 40
0.0
  0
ENDSEC
  0
SECTION
  2
CLASSES
  0
CLASS
  1
ACDBDICTIONARYWDFLT
  2
AcDbDictionaryWithDefault
  3
ObjectDBX Classes
 90
        0
 91
        3
280
     0
281
     0
  0
CLASS
  1
VISUALSTYLE
  2
AcDbVisualStyle
  3
ObjectDBX Classes
 90
     4095
 91
        3
280
     0
281
     0
  0
CLASS
  1
MATERIAL
  2
AcDbMaterial
  3
ObjectDBX Classes
 90
     1153
 91
        3
280
     0
281
     0
  0
CLASS
  1
SCALE
  2
AcDbScale
  3
ObjectDBX Classes
 90
     1153
 91
        3
280
     0
281
     0
  0
CLASS
  1
TABLESTYLE
  2
AcDbTableStyle
  3
ObjectDBX Classes
 90
     4095
 91
        3
280
     0
281
     0
  0
CLASS
  1
MLEADERSTYLE
  2
AcDbMLeaderStyle
  3
ACDB_MLEADERSTYLE_CLASS
 90
     4095
 91
        3
280
     0
281
     0
  0
CLASS
  1
SUN
  2
AcDbSun
  3
SCENEOE
 90
     1153
 91
        3
280
     0
281
     0
  0
CLASS
  1
DICTIONARYVAR
  2
AcDbDictionaryVar
  3
ObjectDBX Classes
 90
        0
 91
        3
280
     0
281
     0
  0
CLASS
  1
CELLSTYLEMAP
  2
AcDbCellStyleMap
  3
ObjectDBX Classes
 90
     1152
 91
        3
280
     0
281
     0
  0
ENDSEC
  0
SECTION
  2
TABLES
  0
TABLE
  2
VPORT
  5
8
330
0
100
AcDbSymbolTable
 70
     1
  0
VPORT
  5
29
330
8
100
AcDbSymbolTableRecord
100
AcDbViewportTableRecord
  2
*Active
 70
     0
 10
0.0
 20
0.0
 11
1.0
 21
1.0
 12
10.42990654205607
 22
4.5
 13
0.0
 23
0.0
 14
0.5
 24
0.5
 15
0.5
 25
0.5
 16
0.0
 26
0.0
 36
1.0
 17
0.0
 27
0.0
 37
0.0
 40
9.0
 41
1.972972972850329
 42
50.0
 43
0.0
 44
0.0
 50
0.0
 51
0.0
 71
     0
 72
   100
 73
     1
 74
     3
 75
     0
 76
     0
 77
     0
 78
     0
281
     0
 65
     1
110
0.0
120
0.0
130
0.0
111
1.0
121
0.0
131
0.0
112
0.0
122
1.0
132
0.0
 79
     0
146
0.0
348
2F
 60
     3
 61
     5
292
     1
282
     1
141
0.0
142
0.0
 63
   250
361
6D
  0
ENDTAB
  0
TABLE
  2
LTYPE
  5
5
330
0
100
AcDbSymbolTable
 70
     1
  0
LTYPE
  5
14
330
5
100
AcDbSymbolTableRecord
100
AcDbLinetypeTableRecord
  2
ByBlock
 70
     0
  3

 72
    65
 73
     0
 40
0.0
  0
LTYPE
  5
15
330
5
100
AcDbSymbolTableRecord
100
AcDbLinetypeTableRecord
  2
ByLayer
 70
     0
  3

 72
    65
 73
     0
 40
0.0
  0
LTYPE
  5
16
330
5
100
AcDbSymbolTableRecord
100
AcDbLinetypeTableRecord
  2
Continuous
 70
     0
  3
Solid line
 72
    65
 73
     0
 40
0.0
  0
ENDTAB
  0
TABLE
  2
LAYER
  5
2
330
0
100
AcDbSymbolTable
 70
     2
  0
LAYER
  5
10
330
2
100
AcDbSymbolTableRecord
100
AcDbLayerTableRecord
  2
0
 70
     0
 62
     7
  6
Continuous
370
    -3
390
F
347
46
  0
LAYER
  5
6E
330
2
100
AcDbSymbolTableRecord
100
AcDbLayerTableRecord
  2
Default
 70
     0
 62
    18
420
        0
  6
Continuous
370
    -3
390
F
347
46
  0
ENDTAB
  0
TABLE
  2
STYLE
  5
3
330
0
100
AcDbSymbolTable
 70
     1
  0
STYLE
  5
11
330
3
100
AcDbSymbolTableRecord
100
AcDbTextStyleTableRecord
  2
Standard
 70
     0
 40
0.0
 41
1.0
 50
0.0
 71
     0
 42
0.2
  3
txt
  4

  0
ENDTAB
  0
TABLE
  2
VIEW
  5
6
330
0
100
AcDbSymbolTable
 70
     0
  0
ENDTAB
  0
TABLE
  2
UCS
  5
7
330
0
100
AcDbSymbolTable
 70
     0
  0
ENDTAB
  0
TABLE
  2
APPID
  5
9
330
0
100
AcDbSymbolTable
 70
     2
  0
APPID
  5
12
330
9
100
AcDbSymbolTableRecord
100
AcDbRegAppTableRecord
  2
ACAD
 70
     0
  0
APPID
  5
416
330
9
100
AcDbSymbolTableRecord
100
AcDbRegAppTableRecord
  2
ACAD_MLEADERVER
 70
     0
  0
ENDTAB
  0
TABLE
  2
DIMSTYLE
  5
A
330
0
100
AcDbSymbolTable
 70
     1
100
AcDbDimStyleTable
  0
DIMSTYLE
105
27
330
A
100
AcDbSymbolTableRecord
100
AcDbDimStyleTableRecord
  2
STANDARD_ACAD
 70
     0
178
     0
340
11
  0
ENDTAB
  0
TABLE
  2
BLOCK_RECORD
  5
1
330
0
100
AcDbSymbolTable
 70
     1
  0
BLOCK_RECORD
  5
1F
330
1
100
AcDbSymbolTableRecord
100
AcDbBlockTableRecord
  2
*Model_Space
340
22
 70
     0
280
     1
281
     0
  0
BLOCK_RECORD
  5
1B
330
1
100
AcDbSymbolTableRecord
100
AcDbBlockTableRecord
  2
*Paper_Space
340
1E
 70
     0
280
     1
281
     0
  0
BLOCK_RECORD
  5
23
330
1
100
AcDbSymbolTableRecord
100
AcDbBlockTableRecord
  2
*Paper_Space0
340
26
 70
     0
280
     1
281
     0
  0
ENDTAB
  0
ENDSEC
  0
SECTION
  2
BLOCKS
  0
BLOCK
  5
20
330
1F
100
AcDbEntity
  8
0
100
AcDbBlockBegin
  2
*Model_Space
 70
     0
 10
0.0
 20
0.0
 30
0.0
  3
*Model_Space
  1

  0
ENDBLK
  5
21
330
1F
100
AcDbEntity
  8
0
100
AcDbBlockEnd
  0
BLOCK
  5
1C
330
1B
100
AcDbEntity
 67
     1
  8
0
100
AcDbBlockBegin
  2
*Paper_Space
 70
     0
 10
0.0
 20
0.0
 30
0.0
  3
*Paper_Space
  1

  0
ENDBLK
  5
1D
330
1B
100
AcDbEntity
 67
     1
  8
0
100
AcDbBlockEnd
  0
BLOCK
  5
24
330
23
100
AcDbEntity
  8
0
100
AcDbBlockBegin
  2
*Paper_Space0
 70
     0
 10
0.0
 20
0.0
 30
0.0
  3
*Paper_Space0
  1

  0
ENDBLK
  5
25
330
23
100
AcDbEntity
  8
0
100
AcDbBlockEnd
  0
ENDSEC
  0
SECTION
  2
ENTITIES
  0
POLYLINE
  5
6F
330
1F
100
AcDbEntity
  8
Default
100
AcDb2dPolyline
 66
     1
 10
0.0
 20
0.0
 30
0.0
  0
VERTEX
  5
70
330
6F
100
AcDbEntity
  8
Default
100
AcDbVertex
100
AcDb2dVertex
 10
27.53333975039075
 20
135.6567058411696
 30
0.0
  0
VERTEX
  5
71
330
6F
100
AcDbEntity
  8
Default
100
AcDbVertex
100
AcDb2dVertex
 10
27.53333975039075
 20
111.406705840639
 30
0.0
  0
SEQEND
  5
72
330
6F
100
AcDbEntity
  8
Default
  0
LINE
  5
73
330
1F
100
AcDbEntity
  8
Default
100
AcDbLine
 10
27.53333975039075
 20
111.406705840639
 30
0.0
 11
30.53333975039087
 21
108.406705840639
 31
0.0
  0
POLYLINE
  5
74
330
1F
100
AcDbEntity
  8
Default
100
AcDb2dPolyline
 66
     1
 10
0.0
 20
0.0
 30
0.0
  0
VERTEX
  5
75
330
74
100
AcDbEntity
  8
Default
100
AcDbVertex
100
AcDb2dVertex
 10
30.53333975039087
 20
108.406705840639
 30
0.0
  0
VERTEX
  5
76
330
74
100
AcDbEntity
  8
Default
100
AcDbVertex
100
AcDb2dVertex
 10
54.78333975100682
 20
108.406705840639
 30
0.0
  0
SEQEND
  5
77
330
74
100
AcDbEntity
  8
Default
  0
POLYLINE
  5
78
330
1F
100
AcDbEntity
  8
Default
100
AcDb2dPolyline
 66
     1
 10
0.0
 20
0.0
 30
0.0
  0
VERTEX
  5
79
330
78
100
AcDbEntity
  8
Default
100
AcDbVertex
100
AcDb2dVertex
 10
54.78333975076717
 20
167.406705840639
 30
0.0
  0
VERTEX
  5
7A
330
78
100
AcDbEntity
  8
Default
100
AcDbVertex
100
AcDb2dVertex
 10
30.53333975039064
 20
167.406705840639
 30
0.0
  0
SEQEND
  5
7B
330
78
100
AcDbEntity
  8
Default
  0
LINE
  5
7C
330
1F
100
AcDbEntity
  8
Default
100
AcDbLine
 10
30.53333975039064
 20
167.406705840639
 30
0.0
 11
27.53333975039075
 21
164.4067058406388
 31
0.0
  0
POLYLINE
  5
7D
330
1F
100
AcDbEntity
  8
Default
100
AcDb2dPolyline
 66
     1
 10
0.0
 20
0.0
 30
0.0
  0
VERTEX
  5
7E
330
7D
100
AcDbEntity
  8
Default
100
AcDbVertex
100
AcDb2dVertex
 10
27.53333975039075
 20
164.4067058406388
 30
0.0
  0
VERTEX
  5
7F
330
7D
100
AcDbEntity
  8
Default
100
AcDbVertex
100
AcDb2dVertex
 10
27.53333975039075
 20
140.1567058401637
 30
0.0
  0
SEQEND
  5
80
330
7D
100
AcDbEntity
  8
Default
  0
POLYLINE
  5
81
330
1F
100
AcDbEntity
  8
Default
100
AcDb2dPolyline
 66
     1
 10
0.0
 20
0.0
 30
0.0
  0
VERTEX
  5
82
330
81
100
AcDbEntity
  8
Default
100
AcDbVertex
100
AcDb2dVertex
 10
86.53333975039075
 20
140.1567058400676
 30
0.0
  0
VERTEX
  5
83
330
81
100
AcDbEntity
  8
Default
100
AcDbVertex
100
AcDb2dVertex
 10
86.53333975039075
 20
164.406705840639
 30
0.0
  0
SEQEND
  5
84
330
81
100
AcDbEntity
  8
Default
  0
LINE
  5
85
330
1F
100
AcDbEntity
  8
Default
100
AcDbLine
 10
86.53333975039075
 20
164.406705840639
 30
0.0
 11
83.53333975039075
 21
167.406705840639
 31
0.0
  0
POLYLINE
  5
86
330
1F
100
AcDbEntity
  8
Default
100
AcDb2dPolyline
 66
     1
 10
0.0
 20
0.0
 30
0.0
  0
VERTEX
  5
87
330
86
100
AcDbEntity
  8
Default
100
AcDbVertex
100
AcDb2dVertex
 10
83.53333975039075
 20
167.406705840639
 30
0.0
  0
VERTEX
  5
88
330
86
100
AcDbEntity
  8
Default
100
AcDbVertex
100
AcDb2dVertex
 10
59.28333975000194
 20
167.406705840639
 30
0.0
  0
SEQEND
  5
89
330
86
100
AcDbEntity
  8
Default
  0
POLYLINE
  5
8A
330
1F
100
AcDbEntity
  8
Default
100
AcDb2dPolyline
 66
     1
 10
0.0
 20
0.0
 30
0.0
  0
VERTEX
  5
8B
330
8A
100
AcDbEntity
  8
Default
100
AcDbVertex
100
AcDb2dVertex
 10
59.2833397498006
 20
108.406705840639
 30
0.0
  0
VERTEX
  5
8C
330
8A
100
AcDbEntity
  8
Default
100
AcDbVertex
100
AcDb2dVertex
 10
83.53333975039098
 20
108.406705840639
 30
0.0
  0
SEQEND
  5
8D
330
8A
100
AcDbEntity
  8
Default
  0
LINE
  5
8E
330
1F
100
AcDbEntity
  8
Default
100
AcDbLine
 10
83.53333975039098
 20
108.406705840639
 30
0.0
 11
86.53333975039075
 21
111.406705840639
 31
0.0
  0
POLYLINE
  5
8F
330
1F
100
AcDbEntity
  8
Default
100
AcDb2dPolyline
 66
     1
 10
0.0
 20
0.0
 30
0.0
  0
VERTEX
  5
90
330
8F
100
AcDbEntity
  8
Default
100
AcDbVertex
100
AcDb2dVertex
 10
86.53333975039075
 20
111.406705840639
 30
0.0
  0
VERTEX
  5
91
330
8F
100
AcDbEntity
  8
Default
100
AcDbVertex
100
AcDb2dVertex
 10
86.53333975039075
 20
135.6567058410083
 30
0.0
  0
SEQEND
  5
92
330
8F
100
AcDbEntity
  8
Default
  0
LINE
  5
93
330
1F
100
AcDbEntity
  8
Default
100
AcDbLine
 10
86.53333975039075
 20
135.6567058406254
 30
0.0
 11
85.53333975039098
 21
136.6567058406383
 31
0.0
  0
LINE
  5
94
330
1F
100
AcDbEntity
  8
Default
100
AcDbLine
 10
59.28333975040462
 20
108.406705840639
 30
0.0
 11
58.28333975039155
 21
109.4067058406388
 31
0.0
  0
LINE
  5
95
330
1F
100
AcDbEntity
  8
Default
100
AcDbLine
 10
58.28333975039155
 20
109.4067058406388
 30
0.0
 11
58.28333975039098
 21
111.2567058406394
 31
0.0
  0
LINE
  5
96
330
1F
100
AcDbEntity
  8
Default
100
AcDbLine
 10
58.28333975039098
 20
111.2567058406394
 30
0.0
 11
55.78333975039098
 21
111.2567058406396
 31
0.0
  0
LINE
  5
97
330
1F
100
AcDbEntity
  8
Default
100
AcDbLine
 10
55.78333975039098
 20
111.2567058406396
 30
0.0
 11
55.78333975039075
 21
109.406705840639
 31
0.0
  0
LINE
  5
98
330
1F
100
AcDbEntity
  8
Default
100
AcDbLine
 10
55.78333975039075
 20
109.406705840639
 30
0.0
 11
54.78333975037256
 21
108.406705840639
 31
0.0
  0
LINE
  5
99
330
1F
100
AcDbEntity
  8
Default
100
AcDbLine
 10
54.78333975037711
 20
167.406705840639
 30
0.0
 11
55.78333975039007
 21
166.4067058406392
 31
0.0
  0
LINE
  5
9A
330
1F
100
AcDbEntity
  8
Default
100
AcDbLine
 10
55.78333975039007
 20
166.4067058406392
 30
0.0
 11
55.78333975039075
 21
164.5567058406386
 31
0.0
  0
LINE
  5
9B
330
1F
100
AcDbEntity
  8
Default
100
AcDbLine
 10
55.78333975039075
 20
164.5567058406386
 30
0.0
 11
58.28333975039064
 21
164.5567058406384
 31
0.0
  0
LINE
  5
9C
330
1F
100
AcDbEntity
  8
Default
100
AcDbLine
 10
58.28333975039064
 20
164.5567058406384
 30
0.0
 11
58.28333975039087
 21
166.406705840639
 31
0.0
  0
LINE
  5
9D
330
1F
100
AcDbEntity
  8
Default
100
AcDbLine
 10
58.28333975039087
 20
166.406705840639
 30
0.0
 11
59.28333975040917
 21
167.406705840639
 31
0.0
  0
LINE
  5
9E
330
1F
100
AcDbEntity
  8
Default
100
AcDbLine
 10
27.53333975039075
 20
135.6567058406254
 30
0.0
 11
28.53333975039052
 21
136.6567058406383
 31
0.0
  0
LINE
  5
9F
330
1F
100
AcDbEntity
  8
Default
100
AcDbLine
 10
28.53333975039052
 20
136.6567058406383
 30
0.0
 11
30.38333975039112
 21
136.656705840639
 31
0.0
  0
LINE
  5
A0
330
1F
100
AcDbEntity
  8
Default
100
AcDbLine
 10
30.38333975039112
 20
136.656705840639
 30
0.0
 11
30.38333975039134
 21
139.1567058406389
 31
0.0
  0
LINE
  5
A1
330
1F
100
AcDbEntity
  8
Default
100
AcDbLine
 10
30.38333975039134
 20
139.1567058406389
 30
0.0
 11
28.53333975039075
 21
139.1567058406391
 31
0.0
  0
LINE
  5
A2
330
1F
100
AcDbEntity
  8
Default
100
AcDbLine
 10
28.53333975039075
 20
139.1567058406391
 30
0.0
 11
27.53333975039075
 21
140.1567058406574
 31
0.0
  0
LINE
  5
A3
330
1F
100
AcDbEntity
  8
Default
100
AcDbLine
 10
85.53333975039098
 20
136.6567058406383
 30
0.0
 11
83.68333975039039
 21
136.656705840639
 31
0.0
  0
LINE
  5
A4
330
1F
100
AcDbEntity
  8
Default
100
AcDbLine
 10
83.68333975039039
 20
136.656705840639
 30
0.0
 11
83.68333975039016
 21
139.1567058406389
 31
0.0
  0
LINE
  5
A5
330
1F
100
AcDbEntity
  8
Default
100
AcDbLine
 10
83.68333975039016
 20
139.1567058406389
 30
0.0
 11
85.53333975039075
 21
139.1567058406391
 31
0.0
  0
LINE
  5
A6
330
1F
100
AcDbEntity
  8
Default
100
AcDbLine
 10
85.53333975039075
 20
139.1567058406391
 30
0.0
 11
86.53333975039075
 21
140.1567058406574
 31
0.0
  0
LINE
  5
A7
330
1F
100
AcDbEntity
  8
Default
100
AcDbLine
 10
-78.61639415026525
 20
162.4397480009827
 30
0.0
 11
-78.61639415026525
 21
166.5897480009824
 31
0.0
  0
LINE
  5
A8
330
1F
100
AcDbEntity
  8
Default
100
AcDbLine
 10
-77.61639415026548
 20
161.4397480009823
 30
0.0
 11
-78.61639415026525
 21
162.4397480009827
 31
0.0
  0
LINE
  5
A9
330
1F
100
AcDbEntity
  8
Default
100
AcDbLine
 10
-75.76639415026466
 20
161.4397480009825
 30
0.0
 11
-77.61639415026548
 21
161.4397480009823
 31
0.0
  0
LINE
  5
AA
330
1F
100
AcDbEntity
  8
Default
100
AcDbLine
 10
-75.76639415026466
 20
158.9397480009825
 30
0.0
 11
-75.76639415026466
 21
161.4397480009825
 31
0.0
  0
LINE
  5
AB
330
1F
100
AcDbEntity
  8
Default
100
AcDbLine
 10
-77.61639415026525
 20
158.9397480009823
 30
0.0
 11
-75.76639415026466
 21
158.9397480009825
 31
0.0
  0
LINE
  5
AC
330
1F
100
AcDbEntity
  8
Default
100
AcDbLine
 10
-78.61639415026525
 20
157.9397480009823
 30
0.0
 11
-77.61639415026525
 21
158.9397480009823
 31
0.0
  0
LINE
  5
AD
330
1F
100
AcDbEntity
  8
Default
100
AcDbLine
 10
-78.61639415026525
 20
128.7897480009823
 30
0.0
 11
-78.61639415026525
 21
157.9397480009823
 31
0.0
  0
LINE
  5
AE
330
1F
100
AcDbEntity
  8
Default
100
AcDbLine
 10
-78.61639415026525
 20
128.6397480009812
 30
0.0
 11
-78.61639415026525
 21
128.7897480009823
 31
0.0
  0
LINE
  5
AF
330
1F
100
AcDbEntity
  8
Default
100
AcDbLine
 10
-77.61639415026548
 20
127.6397480009831
 30
0.0
 11
-78.61639415026525
 21
128.6397480009812
 31
0.0
  0
LINE
  5
B0
330
1F
100
AcDbEntity
  8
Default
100
AcDbLine
 10
-75.76639415026466
 20
127.6397480009832
 30
0.0
 11
-77.61639415026548
 21
127.6397480009831
 31
0.0
  0
LINE
  5
B1
330
1F
100
AcDbEntity
  8
Default
100
AcDbLine
 10
-75.76639415026466
 20
125.1397480009832
 30
0.0
 11
-75.76639415026466
 21
127.6397480009832
 31
0.0
  0
LINE
  5
B2
330
1F
100
AcDbEntity
  8
Default
100
AcDbLine
 10
-77.61639415026525
 20
125.1397480009831
 30
0.0
 11
-75.76639415026466
 21
125.1397480009832
 31
0.0
  0
LINE
  5
B3
330
1F
100
AcDbEntity
  8
Default
100
AcDbLine
 10
-78.61639415026525
 20
124.1397480009819
 30
0.0
 11
-77.61639415026525
 21
125.1397480009831
 31
0.0
  0
LINE
  5
B4
330
1F
100
AcDbEntity
  8
Default
100
AcDbLine
 10
-78.61639415026525
 20
123.9897480009823
 30
0.0
 11
-78.61639415026525
 21
124.1397480009819
 31
0.0
  0
LINE
  5
B5
330
1F
100
AcDbEntity
  8
Default
100
AcDbLine
 10
-78.61639415026548
 20
94.83974800098349
 30
0.0
 11
-78.61639415026525
 21
123.9897480009823
 31
0.0
  0
LINE
  5
B6
330
1F
100
AcDbEntity
  8
Default
100
AcDbLine
 10
-77.6163941502657
 20
93.83974800098235
 30
0.0
 11
-78.61639415026548
 21
94.83974800098349
 31
0.0
  0
LINE
  5
B7
330
1F
100
AcDbEntity
  8
Default
100
AcDbLine
 10
-75.76639415026511
 20
93.83974800098167
 30
0.0
 11
-77.6163941502657
 21
93.83974800098235
 31
0.0
  0
LINE
  5
B8
330
1F
100
AcDbEntity
  8
Default
100
AcDbLine
 10
-75.76639415026511
 20
92.58974800098167
 30
0.0
 11
-75.76639415026511
 21
93.83974800098167
 31
0.0
  0
LINE
  5
B9
330
1F
100
AcDbEntity
  8
Default
100
AcDbLine
 10
-75.76639415026511
 20
91.33974800098167
 30
0.0
 11
-75.76639415026511
 21
92.58974800098167
 31
0.0
  0
LINE
  5
BA
330
1F
100
AcDbEntity
  8
Default
100
AcDbLine
 10
-77.6163941502657
 20
91.3397480009811
 30
0.0
 11
-75.76639415026511
 21
91.33974800098167
 31
0.0
  0
LINE
  5
BB
330
1F
100
AcDbEntity
  8
Default
100
AcDbLine
 10
-78.61639415026548
 20
90.33974800097997
 30
0.0
 11
-77.6163941502657
 21
91.3397480009811
 31
0.0
  0
LINE
  5
BC
330
1F
100
AcDbEntity
  8
Default
100
AcDbLine
 10
-78.61639415026525
 20
61.18974800098113
 30
0.0
 11
-78.61639415026548
 21
90.33974800097997
 31
0.0
  0
LINE
  5
BD
330
1F
100
AcDbEntity
  8
Default
100
AcDbLine
 10
-78.61639415026525
 20
61.0397480009816
 30
0.0
 11
-78.61639415026525
 21
61.18974800098113
 31
0.0
  0
LINE
  5
BE
330
1F
100
AcDbEntity
  8
Default
100
AcDbLine
 10
-77.61639415026525
 20
60.03974800098035
 30
0.0
 11
-78.61639415026525
 21
61.0397480009816
 31
0.0
  0
LINE
  5
BF
330
1F
100
AcDbEntity
  8
Default
100
AcDbLine
 10
-75.76639415026466
 20
60.03974800098013
 30
0.0
 11
-77.61639415026525
 21
60.03974800098035
 31
0.0
  0
LINE
  5
C0
330
1F
100
AcDbEntity
  8
Default
100
AcDbLine
 10
-75.76639415026466
 20
57.53974800098024
 30
0.0
 11
-75.76639415026466
 21
60.03974800098013
 31
0.0
  0
LINE
  5
C1
330
1F
100
AcDbEntity
  8
Default
100
AcDbLine
 10
-77.61639415026548
 20
57.53974800098035
 30
0.0
 11
-75.76639415026466
 21
57.53974800098024
 31
0.0
  0
LINE
  5
C2
330
1F
100
AcDbEntity
  8
Default
100
AcDbLine
 10
-78.61639415026525
 20
56.5397480009824
 30
0.0
 11
-77.61639415026548
 21
57.53974800098035
 31
0.0
  0
LINE
  5
C3
330
1F
100
AcDbEntity
  8
Default
100
AcDbLine
 10
-78.61639415026525
 20
56.38974800098117
 30
0.0
 11
-78.61639415026525
 21
56.5397480009824
 31
0.0
  0
LINE
  5
C4
330
1F
100
AcDbEntity
  8
Default
100
AcDbLine
 10
-78.61639415026502
 20
27.23974800098119
 30
0.0
 11
-78.61639415026525
 21
56.38974800098117
 31
0.0
  0
LINE
  5
C5
330
1F
100
AcDbEntity
  8
Default
100
AcDbLine
 10
-77.61639415026502
 20
26.23974800098108
 30
0.0
 11
-78.61639415026502
 21
27.23974800098119
 31
0.0
  0
LINE
  5
C6
330
1F
100
AcDbEntity
  8
Default
100
AcDbLine
 10
-75.76639415026466
 20
26.23974800098097
 30
0.0
 11
-77.61639415026502
 21
26.23974800098108
 31
0.0
  0
LINE
  5
C7
330
1F
100
AcDbEntity
  8
Default
100
AcDbLine
 10
-75.76639415026466
 20
23.73974800098097
 30
0.0
 11
-75.76639415026466
 21
26.23974800098097
 31
0.0
  0
LINE
  5
C8
330
1F
100
AcDbEntity
  8
Default
100
AcDbLine
 10
-77.61639415026548
 20
23.73974800098108
 30
0.0
 11
-75.76639415026466
 21
23.73974800098097
 31
0.0
  0
LINE
  5
C9
330
1F
100
AcDbEntity
  8
Default
100
AcDbLine
 10
-78.61639415026502
 20
22.73974800098074
 30
0.0
 11
-77.61639415026548
 21
23.73974800098108
 31
0.0
  0
LINE
  5
CA
330
1F
100
AcDbEntity
  8
Default
100
AcDbLine
 10
-78.61639415026502
 20
18.5897480009811
 30
0.0
 11
-78.61639415026502
 21
22.73974800098074
 31
0.0
  0
ARC
  5
CB
330
1F
100
AcDbEntity
  8
Default
100
AcDbCircle
 10
77.61639415026502
 20
18.5897480009811
 30
0.0
 40
1.0
210
0.0
220
0.0
230
-1.0
100
AcDbArc
 50
270.0
 51
359.9999999999998
  0
LINE
  5
CC
330
1F
100
AcDbEntity
  8
Default
100
AcDbLine
 10
-72.61639415026502
 20
17.58974800098122
 30
0.0
 11
-77.61639415026502
 21
17.5897480009811
 31
0.0
  0
LINE
  5
CD
330
1F
100
AcDbEntity
  8
Default
100
AcDbLine
 10
-69.4663941502663
 20
17.58974800098122
 30
0.0
 11
-72.61639415026502
 21
17.58974800098122
 31
0.0
  0
LINE
  5
CE
330
1F
100
AcDbEntity
  8
Default
100
AcDbLine
 10
-66.61639415026525
 20
17.58974800098122
 30
0.0
 11
-69.4663941502663
 21
17.58974800098122
 31
0.0
  0
LINE
  5
CF
330
1F
100
AcDbEntity
  8
Default
100
AcDbLine
 10
-64.7663941502642
 20
17.58974800098122
 30
0.0
 11
-66.61639415026525
 21
17.58974800098122
 31
0.0
  0
ARC
  5
D0
330
1F
100
AcDbEntity
  8
Default
100
AcDbCircle
 10
64.7663941502642
 20
18.58974800098122
 30
0.0
 40
1.0
210
0.0
220
0.0
230
-1.0
100
AcDbArc
 50
179.9999999999994
 51
270.0
  0
LINE
  5
D1
330
1F
100
AcDbEntity
  8
Default
100
AcDbLine
 10
-63.7663941502642
 20
22.58974800098122
 30
0.0
 11
-63.7663941502642
 21
18.58974800098122
 31
0.0
  0
LINE
  5
D2
330
1F
100
AcDbEntity
  8
Default
100
AcDbLine
 10
-63.7663941502642
 20
22.73974800098074
 30
0.0
 11
-63.7663941502642
 21
22.58974800098122
 31
0.0
  0
LINE
  5
D3
330
1F
100
AcDbEntity
  8
Default
100
AcDbLine
 10
-64.7663941502642
 20
23.73974800098108
 30
0.0
 11
-63.7663941502642
 21
22.73974800098074
 31
0.0
  0
LINE
  5
D4
330
1F
100
AcDbEntity
  8
Default
100
AcDbLine
 10
-66.61639415026502
 20
23.73974800098119
 30
0.0
 11
-64.7663941502642
 21
23.73974800098108
 31
0.0
  0
LINE
  5
D5
330
1F
100
AcDbEntity
  8
Default
100
AcDbLine
 10
-69.46639415026607
 20
23.73974800098119
 30
0.0
 11
-66.61639415026502
 21
23.73974800098119
 31
0.0
  0
LINE
  5
D6
330
1F
100
AcDbEntity
  8
Default
100
AcDbLine
 10
-69.4663941502663
 20
26.23974800098108
 30
0.0
 11
-69.46639415026607
 21
23.73974800098119
 31
0.0
  0
LINE
  5
D7
330
1F
100
AcDbEntity
  8
Default
100
AcDbLine
 10
-67.61639415026525
 20
26.23974800098108
 30
0.0
 11
-69.4663941502663
 21
26.23974800098108
 31
0.0
  0
LINE
  5
D8
330
1F
100
AcDbEntity
  8
Default
100
AcDbLine
 10
-69.4663941502663
 20
158.9397480009823
 30
0.0
 11
-67.61639415026548
 21
158.9397480009823
 31
0.0
  0
LINE
  5
D9
330
1F
100
AcDbEntity
  8
Default
100
AcDbLine
 10
-69.4663941502663
 20
161.4397480009823
 30
0.0
 11
-69.4663941502663
 21
158.9397480009823
 31
0.0
  0
LINE
  5
DA
330
1F
100
AcDbEntity
  8
Default
100
AcDbLine
 10
-66.61639415026525
 20
161.4397480009823
 30
0.0
 11
-69.4663941502663
 21
161.4397480009823
 31
0.0
  0
LINE
  5
DB
330
1F
100
AcDbEntity
  8
Default
100
AcDbLine
 10
-64.76639415026443
 20
161.4397480009823
 30
0.0
 11
-66.61639415026525
 21
161.4397480009823
 31
0.0
  0
LINE
  5
DC
330
1F
100
AcDbEntity
  8
Default
100
AcDbLine
 10
-63.7663941502642
 20
162.4397480009827
 30
0.0
 11
-64.76639415026443
 21
161.4397480009823
 31
0.0
  0
LINE
  5
DD
330
1F
100
AcDbEntity
  8
Default
100
AcDbLine
 10
-63.7663941502642
 20
162.5897480009824
 30
0.0
 11
-63.7663941502642
 21
162.4397480009827
 31
0.0
  0
LINE
  5
DE
330
1F
100
AcDbEntity
  8
Default
100
AcDbLine
 10
-63.7663941502642
 20
166.5897480009824
 30
0.0
 11
-63.7663941502642
 21
162.5897480009824
 31
0.0
  0
ARC
  5
DF
330
1F
100
AcDbEntity
  8
Default
100
AcDbCircle
 10
64.7663941502642
 20
166.5897480009824
 30
0.0
 40
1.0
210
0.0
220
0.0
230
-1.0
100
AcDbArc
 50
90.0
 51
180.0
  0
LINE
  5
E0
330
1F
100
AcDbEntity
  8
Default
100
AcDbLine
 10
-66.61639415026548
 20
167.5897480009824
 30
0.0
 11
-64.7663941502642
 21
167.5897480009824
 31
0.0
  0
LINE
  5
E1
330
1F
100
AcDbEntity
  8
Default
100
AcDbLine
 10
-69.4663941502663
 20
167.5897480009824
 30
0.0
 11
-66.61639415026548
 21
167.5897480009824
 31
0.0
  0
LINE
  5
E2
330
1F
100
AcDbEntity
  8
Default
100
AcDbLine
 10
-72.61639415026525
 20
167.5897480009824
 30
0.0
 11
-69.4663941502663
 21
167.5897480009824
 31
0.0
  0
LINE
  5
E3
330
1F
100
AcDbEntity
  8
Default
100
AcDbLine
 10
-77.61639415026525
 20
167.5897480009824
 30
0.0
 11
-72.61639415026525
 21
167.5897480009824
 31
0.0
  0
ARC
  5
E4
330
1F
100
AcDbEntity
  8
Default
100
AcDbCircle
 10
77.61639415026525
 20
166.5897480009824
 30
0.0
 40
1.0
210
0.0
220
0.0
230
-1.0
100
AcDbArc
 50
0.0
 51
90.0
  0
LINE
  5
E5
330
1F
100
AcDbEntity
  8
Default
100
AcDbLine
 10
-8.228987539165928
 20
99.54277838131236
 30
-1.06580298740414
 11
-5.626376250954763
 21
96.93974800098283
 31
-1.112511053041544
  0
LINE
  5
E6
330
1F
100
AcDbEntity
  8
Default
100
AcDbLine
 10
-5.626376250954763
 20
96.93974800098283
 30
-1.112511053041544
 11
-3.126778755014811
 21
96.93974800098295
 31
-1.157370369696537
  0
LINE
  5
E7
330
1F
100
AcDbEntity
  8
Default
100
AcDbLine
 10
-3.126778755014811
 20
96.93974800098295
 30
-1.157370369696537
 11
-3.126778755014811
 21
99.78974800098388
 31
-1.157370369696537
  0
LINE
  5
E8
330
1F
100
AcDbEntity
  8
Default
100
AcDbLine
 10
-3.126778755014811
 20
99.78974800098388
 30
-1.157370369696537
 11
-3.126778755014811
 21
101.6397480009848
 31
-1.157370369696537
  0
LINE
  5
E9
330
1F
100
AcDbEntity
  8
Default
100
AcDbLine
 10
-3.126778755014811
 20
101.6397480009848
 30
-1.157370369696537
 11
-1.976963906882474
 21
102.6397480009849
 31
-1.178005655357765
  0
LINE
  5
EA
330
1F
100
AcDbEntity
  8
Default
100
AcDbLine
 10
-1.976963906882474
 20
102.6397480009849
 30
-1.178005655357765
 11
2.022392086621494
 21
102.6397480009849
 31
-1.249780562005526
  0
ARC
  5
EB
330
1F
100
AcDbEntity
  8
Default
100
AcDbCircle
 10
-101.6397480009849
 20
-2.0444921990032
 30
1.213290094499724
 40
1.0
210
-0.01794372666196109
220
-1.232595164407831E-32
230
-0.9998389983759789
100
AcDbArc
 50
179.9999999999994
 51
270.0
  0
LINE
  5
EC
330
1F
100
AcDbEntity
  8
Default
100
AcDbLine
 10
3.022231084997429
 20
101.6397480009849
 30
-1.267724288667523
 11
3.022231084997429
 21
99.78974800098388
 31
-1.267724288667523
  0
LINE
  5
ED
330
1F
100
AcDbEntity
  8
Default
100
AcDbLine
 10
3.022231084997429
 20
99.78974800098388
 30
-1.267724288667523
 11
3.022231084997429
 21
96.93974800098283
 31
-1.267724288667523
  0
LINE
  5
EE
330
1F
100
AcDbEntity
  8
Default
100
AcDbLine
 10
3.022231084997429
 20
96.93974800098283
 30
-1.267724288667523
 11
3.022231084997429
 21
93.78974800098399
 31
-1.267724288667523
  0
LINE
  5
EF
330
1F
100
AcDbEntity
  8
Default
100
AcDbLine
 10
3.022231084997429
 20
93.78974800098399
 30
-1.267724288667523
 11
3.022231084997429
 21
91.3897480009797
 31
-1.267724288667523
  0
LINE
  5
F0
330
1F
100
AcDbEntity
  8
Default
100
AcDbLine
 10
3.022231084997429
 20
91.3897480009797
 30
-1.267724288667523
 11
3.022231084997429
 21
88.23974800098074
 31
-1.267724288667523
  0
LINE
  5
F1
330
1F
100
AcDbEntity
  8
Default
100
AcDbLine
 10
3.022231084997429
 20
88.23974800098074
 30
-1.267724288667523
 11
3.022231084997429
 21
85.38974800097981
 31
-1.267724288667523
  0
LINE
  5
F2
330
1F
100
AcDbEntity
  8
Default
100
AcDbLine
 10
3.022231084997429
 20
85.38974800097981
 30
-1.267724288667523
 11
3.022231084997429
 21
83.53974800097876
 31
-1.267724288667523
  0
ARC
  5
F3
330
1F
100
AcDbEntity
  8
Default
100
AcDbCircle
 10
-83.53974800097876
 20
-2.0444921990032
 30
1.213290094499724
 40
1.0
210
-0.01794372666196109
220
-1.848892746611746E-32
230
-0.9998389983759789
100
AcDbArc
 50
270.0
 51
0.0000000000005343
  0
LINE
  5
F4
330
1F
100
AcDbEntity
  8
Default
100
AcDbLine
 10
2.022392086621494
 20
82.53974800097876
 30
-1.249780562005526
 11
-1.976963906882474
 21
82.53974800097876
 31
-1.178005655357765
  0
LINE
  5
F5
330
1F
100
AcDbEntity
  8
Default
100
AcDbLine
 10
-1.976963906882474
 20
82.53974800097876
 30
-1.178005655357765
 11
-3.126778755014811
 21
83.53974800097888
 31
-1.157370369696537
  0
LINE
  5
F6
330
1F
100
AcDbEntity
  8
Default
100
AcDbLine
 10
-3.126778755014811
 20
83.53974800097888
 30
-1.157370369696537
 11
-3.126778755014811
 21
85.3897480009797
 31
-1.157370369696537
  0
LINE
  5
F7
330
1F
100
AcDbEntity
  8
Default
100
AcDbLine
 10
-3.126778755014811
 20
85.3897480009797
 30
-1.157370369696537
 11
-3.126778755014811
 21
88.23974800098074
 31
-1.157370369696537
  0
LINE
  5
F8
330
1F
100
AcDbEntity
  8
Default
100
AcDbLine
 10
-3.126778755014811
 20
88.23974800098074
 30
-1.157370369696537
 11
-5.626376250954763
 21
88.23974800098085
 31
-1.112511053041544
  0
LINE
  5
F9
330
1F
100
AcDbEntity
  8
Default
100
AcDbLine
 10
-5.626376250954763
 20
88.23974800098085
 30
-1.112511053041544
 11
-8.228987539165928
 21
85.63671762065132
 31
-1.06580298740414
  0
LINE
  5
FA
330
1F
100
AcDbEntity
  8
Default
100
AcDbLine
 10
-8.228987539165928
 20
85.63671762065132
 30
-1.06580298740414
 11
-67.61639415026525
 21
26.23974800098108
 31
0.0
  0
LINE
  5
FB
330
1F
100
AcDbEntity
  8
Default
100
AcDbLine
 10
-67.61639415026548
 20
158.9397480009823
 30
0.0
 11
-8.228987539165928
 21
99.54277838131236
 31
-1.06580298740414
  0
POLYLINE
  5
FC
330
1F
100
AcDbEntity
  8
Default
100
AcDb2dPolyline
 66
     1
 10
0.0
 20
0.0
 30
0.0
  0
VERTEX
  5
FD
330
FC
100
AcDbEntity
  8
Default
100
AcDbVertex
100
AcDb2dVertex
 10
157.7934938302325
 20
111.0575831903524
 30
0.0
  0
VERTEX
  5
FE
330
FC
100
AcDbEntity
  8
Default
100
AcDbVertex
100
AcDb2dVertex
 10
133.8434938302072
 20
111.0575831903524
 30
0.0
  0
SEQEND
  5
FF
330
FC
100
AcDbEntity
  8
Default
  0
LINE
  5
100
330
1F
100
AcDbEntity
  8
Default
100
AcDbLine
 10
133.8434938302072
 20
111.0575831903524
 30
0.0
 11
130.8434938302072
 21
108.0575831903524
 31
0.0
  0
POLYLINE
  5
101
330
1F
100
AcDbEntity
  8
Default
100
AcDb2dPolyline
 66
     1
 10
0.0
 20
0.0
 30
0.0
  0
VERTEX
  5
102
330
101
100
AcDbEntity
  8
Default
100
AcDbVertex
100
AcDb2dVertex
 10
130.8434938302072
 20
108.0575831903524
 30
0.0
  0
VERTEX
  5
103
330
101
100
AcDbEntity
  8
Default
100
AcDbVertex
100
AcDb2dVertex
 10
130.8434938302072
 20
84.1075831903438
 30
0.0
  0
SEQEND
  5
104
330
101
100
AcDbEntity
  8
Default
  0
POLYLINE
  5
105
330
1F
100
AcDbEntity
  8
Default
100
AcDb2dPolyline
 66
     1
 10
0.0
 20
0.0
 30
0.0
  0
VERTEX
  5
106
330
105
100
AcDbEntity
  8
Default
100
AcDbVertex
100
AcDb2dVertex
 10
229.893493830199
 20
111.0575831903521
 30
0.0
  0
VERTEX
  5
107
330
105
100
AcDbEntity
  8
Default
100
AcDbVertex
100
AcDb2dVertex
 10
253.8434938302072
 20
111.0575831903521
 30
0.0
  0
SEQEND
  5
108
330
105
100
AcDbEntity
  8
Default
  0
LINE
  5
109
330
1F
100
AcDbEntity
  8
Default
100
AcDbLine
 10
253.8434938302072
 20
111.0575831903521
 30
0.0
 11
256.8434938302072
 21
108.0575831903521
 31
0.0
  0
POLYLINE
  5
10A
330
1F
100
AcDbEntity
  8
Default
100
AcDb2dPolyline
 66
     1
 10
0.0
 20
0.0
 30
0.0
  0
VERTEX
  5
10B
330
10A
100
AcDbEntity
  8
Default
100
AcDbVertex
100
AcDb2dVertex
 10
256.8434938302072
 20
108.0575831903521
 30
0.0
  0
VERTEX
  5
10C
330
10A
100
AcDbEntity
  8
Default
100
AcDbVertex
100
AcDb2dVertex
 10
256.8434938302072
 20
84.10758319030174
 30
0.0
  0
SEQEND
  5
10D
330
10A
100
AcDbEntity
  8
Default
  0
POLYLINE
  5
10E
330
1F
100
AcDbEntity
  8
Default
100
AcDb2dPolyline
 66
     1
 10
0.0
 20
0.0
 30
0.0
  0
VERTEX
  5
10F
330
10E
100
AcDbEntity
  8
Default
100
AcDbVertex
100
AcDb2dVertex
 10
229.8934938301821
 20
-14.94241680964774
 30
0.0
  0
VERTEX
  5
110
330
10E
100
AcDbEntity
  8
Default
100
AcDbVertex
100
AcDb2dVertex
 10
253.843493830207
 20
-14.94241680964774
 30
0.0
  0
SEQEND
  5
111
330
10E
100
AcDbEntity
  8
Default
  0
LINE
  5
112
330
1F
100
AcDbEntity
  8
Default
100
AcDbLine
 10
253.843493830207
 20
-14.94241680964774
 30
0.0
 11
256.8434938302072
 21
-11.94241680964774
 31
0.0
  0
POLYLINE
  5
113
330
1F
100
AcDbEntity
  8
Default
100
AcDb2dPolyline
 66
     1
 10
0.0
 20
0.0
 30
0.0
  0
VERTEX
  5
114
330
113
100
AcDbEntity
  8
Default
100
AcDbVertex
100
AcDb2dVertex
 10
256.8434938302072
 20
-11.94241680964774
 30
0.0
  0
VERTEX
  5
115
330
113
100
AcDbEntity
  8
Default
100
AcDbVertex
100
AcDb2dVertex
 10
256.8434938302072
 20
12.00758319036061
 30
0.0
  0
SEQEND
  5
116
330
113
100
AcDbEntity
  8
Default
  0
POLYLINE
  5
117
330
1F
100
AcDbEntity
  8
Default
100
AcDb2dPolyline
 66
     1
 10
0.0
 20
0.0
 30
0.0
  0
VERTEX
  5
118
330
117
100
AcDbEntity
  8
Default
100
AcDbVertex
100
AcDb2dVertex
 10
157.7934938302157
 20
-14.94241680964763
 30
0.0
  0
VERTEX
  5
119
330
117
100
AcDbEntity
  8
Default
100
AcDbVertex
100
AcDb2dVertex
 10
133.8434938302072
 20
-14.94241680964763
 30
0.0
  0
SEQEND
  5
11A
330
117
100
AcDbEntity
  8
Default
  0
LINE
  5
11B
330
1F
100
AcDbEntity
  8
Default
100
AcDbLine
 10
133.8434938302072
 20
-14.94241680964763
 30
0.0
 11
130.8434938302072
 21
-11.94241680964774
 31
0.0
  0
POLYLINE
  5
11C
330
1F
100
AcDbEntity
  8
Default
100
AcDb2dPolyline
 66
     1
 10
0.0
 20
0.0
 30
0.0
  0
VERTEX
  5
11D
330
11C
100
AcDbEntity
  8
Default
100
AcDbVertex
100
AcDb2dVertex
 10
130.8434938302072
 20
-11.94241680964774
 30
0.0
  0
VERTEX
  5
11E
330
11C
100
AcDbEntity
  8
Default
100
AcDbVertex
100
AcDb2dVertex
 10
130.8434938302072
 20
12.00758319037732
 30
0.0
  0
SEQEND
  5
11F
330
11C
100
AcDbEntity
  8
Default
  0
POLYLINE
  5
120
330
1F
100
AcDbEntity
  8
Default
100
AcDb2dPolyline
 66
     1
 10
0.0
 20
0.0
 30
0.0
  0
VERTEX
  5
121
330
120
100
AcDbEntity
  8
Default
100
AcDbVertex
100
AcDb2dVertex
 10
225.3934938302206
 20
111.0575831903521
 30
0.0
  0
VERTEX
  5
122
330
120
100
AcDbEntity
  8
Default
100
AcDbVertex
100
AcDb2dVertex
 10
196.0934938302208
 20
111.0575831903523
 30
0.0
  0
SEQEND
  5
123
330
120
100
AcDbEntity
  8
Default
  0
POLYLINE
  5
124
330
1F
100
AcDbEntity
  8
Default
100
AcDb2dPolyline
 66
     1
 10
0.0
 20
0.0
 30
0.0
  0
VERTEX
  5
125
330
124
100
AcDbEntity
  8
Default
100
AcDbVertex
100
AcDb2dVertex
 10
162.2934938301947
 20
111.0575831903524
 30
0.0
  0
VERTEX
  5
126
330
124
100
AcDbEntity
  8
Default
100
AcDbVertex
100
AcDb2dVertex
 10
191.593493830189
 20
111.0575831903523
 30
0.0
  0
SEQEND
  5
127
330
124
100
AcDbEntity
  8
Default
  0
POLYLINE
  5
128
330
1F
100
AcDbEntity
  8
Default
100
AcDb2dPolyline
 66
     1
 10
0.0
 20
0.0
 30
0.0
  0
VERTEX
  5
129
330
128
100
AcDbEntity
  8
Default
100
AcDbVertex
100
AcDb2dVertex
 10
256.8434938302072
 20
79.60758319036483
 30
0.0
  0
VERTEX
  5
12A
330
128
100
AcDbEntity
  8
Default
100
AcDbVertex
100
AcDb2dVertex
 10
256.8434938302072
 20
50.30758319037068
 30
0.0
  0
SEQEND
  5
12B
330
128
100
AcDbEntity
  8
Default
  0
POLYLINE
  5
12C
330
1F
100
AcDbEntity
  8
Default
100
AcDb2dPolyline
 66
     1
 10
0.0
 20
0.0
 30
0.0
  0
VERTEX
  5
12D
330
12C
100
AcDbEntity
  8
Default
100
AcDbVertex
100
AcDb2dVertex
 10
256.8434938302072
 20
16.50758319033912
 30
0.0
  0
VERTEX
  5
12E
330
12C
100
AcDbEntity
  8
Default
100
AcDbVertex
100
AcDb2dVertex
 10
256.8434938302072
 20
45.80758319033862
 30
0.0
  0
SEQEND
  5
12F
330
12C
100
AcDbEntity
  8
Default
  0
POLYLINE
  5
130
330
1F
100
AcDbEntity
  8
Default
100
AcDb2dPolyline
 66
     1
 10
0.0
 20
0.0
 30
0.0
  0
VERTEX
  5
131
330
130
100
AcDbEntity
  8
Default
100
AcDbVertex
100
AcDb2dVertex
 10
196.0934938302256
 20
-14.94241680964774
 30
0.0
  0
VERTEX
  5
132
330
130
100
AcDbEntity
  8
Default
100
AcDbVertex
100
AcDb2dVertex
 10
225.3934938302199
 20
-14.94241680964774
 30
0.0
  0
SEQEND
  5
133
330
130
100
AcDbEntity
  8
Default
  0
POLYLINE
  5
134
330
1F
100
AcDbEntity
  8
Default
100
AcDb2dPolyline
 66
     1
 10
0.0
 20
0.0
 30
0.0
  0
VERTEX
  5
135
330
134
100
AcDbEntity
  8
Default
100
AcDbVertex
100
AcDb2dVertex
 10
162.2934938301941
 20
-14.94241680964763
 30
0.0
  0
VERTEX
  5
136
330
134
100
AcDbEntity
  8
Default
100
AcDbVertex
100
AcDb2dVertex
 10
191.5934938301936
 20
-14.94241680964763
 30
0.0
  0
SEQEND
  5
137
330
134
100
AcDbEntity
  8
Default
  0
POLYLINE
  5
138
330
1F
100
AcDbEntity
  8
Default
100
AcDb2dPolyline
 66
     1
 10
0.0
 20
0.0
 30
0.0
  0
VERTEX
  5
139
330
138
100
AcDbEntity
  8
Default
100
AcDbVertex
100
AcDb2dVertex
 10
130.8434938302072
 20
79.6075831903654
 30
0.0
  0
VERTEX
  5
13A
330
138
100
AcDbEntity
  8
Default
100
AcDbVertex
100
AcDb2dVertex
 10
130.8434938302072
 20
50.3075831903659
 30
0.0
  0
SEQEND
  5
13B
330
138
100
AcDbEntity
  8
Default
  0
POLYLINE
  5
13C
330
1F
100
AcDbEntity
  8
Default
100
AcDb2dPolyline
 66
     1
 10
0.0
 20
0.0
 30
0.0
  0
VERTEX
  5
13D
330
13C
100
AcDbEntity
  8
Default
100
AcDbVertex
100
AcDb2dVertex
 10
130.8434938302072
 20
16.50758319033957
 30
0.0
  0
VERTEX
  5
13E
330
13C
100
AcDbEntity
  8
Default
100
AcDbVertex
100
AcDb2dVertex
 10
130.8434938302072
 20
45.80758319033384
 30
0.0
  0
SEQEND
  5
13F
330
13C
100
AcDbEntity
  8
Default
  0
LINE
  5
140
330
1F
100
AcDbEntity
  8
Default
100
AcDbLine
 10
229.893493830199
 20
111.0575831903521
 30
0.0
 11
228.8934938302087
 21
110.0575831903523
 31
0.0
  0
LINE
  5
141
330
1F
100
AcDbEntity
  8
Default
100
AcDbLine
 10
226.3934938302087
 20
110.057583190352
 30
0.0
 11
225.3934938302206
 21
111.0575831903521
 31
0.0
  0
LINE
  5
142
330
1F
100
AcDbEntity
  8
Default
100
AcDbLine
 10
196.0934938302208
 20
111.0575831903523
 30
0.0
 11
195.0934938302079
 21
110.0575831903525
 31
0.0
  0
LINE
  5
143
330
1F
100
AcDbEntity
  8
Default
100
AcDbLine
 10
192.5934938302072
 20
110.0575831903524
 30
0.0
 11
191.593493830189
 21
111.0575831903523
 31
0.0
  0
LINE
  5
144
330
1F
100
AcDbEntity
  8
Default
100
AcDbLine
 10
162.2934938301947
 20
111.0575831903524
 30
0.0
 11
161.2934938302075
 21
110.0575831903525
 31
0.0
  0
LINE
  5
145
330
1F
100
AcDbEntity
  8
Default
100
AcDbLine
 10
158.7934938302072
 20
110.0575831903525
 30
0.0
 11
157.7934938302325
 21
111.0575831903524
 31
0.0
  0
LINE
  5
146
330
1F
100
AcDbEntity
  8
Default
100
AcDbLine
 10
228.8934938302087
 20
110.0575831903523
 30
0.0
 11
228.8934938302087
 21
108.2075831903514
 31
0.0
  0
LINE
  5
147
330
1F
100
AcDbEntity
  8
Default
100
AcDbLine
 10
228.8934938302087
 20
108.2075831903514
 30
0.0
 11
226.3934938302087
 21
108.2075831903514
 31
0.0
  0
LINE
  5
148
330
1F
100
AcDbEntity
  8
Default
100
AcDbLine
 10
226.3934938302087
 20
108.2075831903514
 30
0.0
 11
226.3934938302087
 21
110.057583190352
 31
0.0
  0
LINE
  5
149
330
1F
100
AcDbEntity
  8
Default
100
AcDbLine
 10
195.0934938302079
 20
110.0575831903525
 30
0.0
 11
195.0934938302072
 21
108.2075831903519
 31
0.0
  0
LINE
  5
14A
330
1F
100
AcDbEntity
  8
Default
100
AcDbLine
 10
195.0934938302072
 20
108.2075831903519
 30
0.0
 11
192.5934938302074
 21
108.2075831903518
 31
0.0
  0
LINE
  5
14B
330
1F
100
AcDbEntity
  8
Default
100
AcDbLine
 10
192.5934938302074
 20
108.2075831903518
 30
0.0
 11
192.5934938302072
 21
110.0575831903524
 31
0.0
  0
LINE
  5
14C
330
1F
100
AcDbEntity
  8
Default
100
AcDbLine
 10
161.2934938302075
 20
110.0575831903525
 30
0.0
 11
161.2934938302072
 21
108.2075831903519
 31
0.0
  0
LINE
  5
14D
330
1F
100
AcDbEntity
  8
Default
100
AcDbLine
 10
161.2934938302072
 20
108.2075831903519
 30
0.0
 11
158.7934938302075
 21
108.2075831903519
 31
0.0
  0
LINE
  5
14E
330
1F
100
AcDbEntity
  8
Default
100
AcDbLine
 10
158.7934938302075
 20
108.2075831903519
 30
0.0
 11
158.7934938302072
 21
110.0575831903525
 31
0.0
  0
LINE
  5
14F
330
1F
100
AcDbEntity
  8
Default
100
AcDbLine
 10
157.7934938302157
 20
-14.94241680964763
 30
0.0
 11
158.7934938302059
 21
-13.94241680964768
 31
0.0
  0
LINE
  5
150
330
1F
100
AcDbEntity
  8
Default
100
AcDbLine
 10
158.7934938302059
 20
-13.94241680964768
 30
0.0
 11
158.7934938302056
 21
-12.09241680964692
 31
0.0
  0
LINE
  5
151
330
1F
100
AcDbEntity
  8
Default
100
AcDbLine
 10
158.7934938302056
 20
-12.09241680964692
 30
0.0
 11
161.2934938302056
 21
-12.09241680964686
 31
0.0
  0
LINE
  5
152
330
1F
100
AcDbEntity
  8
Default
100
AcDbLine
 10
161.2934938302056
 20
-12.09241680964686
 30
0.0
 11
161.2934938302059
 21
-13.94241680964745
 31
0.0
  0
LINE
  5
153
330
1F
100
AcDbEntity
  8
Default
100
AcDbLine
 10
161.2934938302059
 20
-13.94241680964745
 30
0.0
 11
162.2934938301941
 21
-14.94241680964763
 31
0.0
  0
LINE
  5
154
330
1F
100
AcDbEntity
  8
Default
100
AcDbLine
 10
191.5934938301936
 20
-14.94241680964763
 30
0.0
 11
192.5934938302065
 21
-13.94241680964785
 31
0.0
  0
LINE
  5
155
330
1F
100
AcDbEntity
  8
Default
100
AcDbLine
 10
192.5934938302065
 20
-13.94241680964785
 30
0.0
 11
192.5934938302072
 21
-12.09241680964726
 31
0.0
  0
LINE
  5
156
330
1F
100
AcDbEntity
  8
Default
100
AcDbLine
 10
192.5934938302072
 20
-12.09241680964726
 30
0.0
 11
195.0934938302072
 21
-12.0924168096472
 31
0.0
  0
LINE
  5
157
330
1F
100
AcDbEntity
  8
Default
100
AcDbLine
 10
195.0934938302072
 20
-12.0924168096472
 30
0.0
 11
195.0934938302074
 21
-13.9424168096478
 31
0.0
  0
LINE
  5
158
330
1F
100
AcDbEntity
  8
Default
100
AcDbLine
 10
195.0934938302074
 20
-13.9424168096478
 30
0.0
 11
196.0934938302256
 21
-14.94241680964774
 31
0.0
  0
LINE
  5
159
330
1F
100
AcDbEntity
  8
Default
100
AcDbLine
 10
225.3934938302199
 20
-14.94241680964774
 30
0.0
 11
226.3934938302069
 21
-13.94241680964785
 31
0.0
  0
LINE
  5
15A
330
1F
100
AcDbEntity
  8
Default
100
AcDbLine
 10
226.3934938302069
 20
-13.94241680964785
 30
0.0
 11
226.3934938302071
 21
-12.09241680964726
 31
0.0
  0
LINE
  5
15B
330
1F
100
AcDbEntity
  8
Default
100
AcDbLine
 10
226.3934938302071
 20
-12.09241680964726
 30
0.0
 11
228.8934938302071
 21
-12.09241680964726
 31
0.0
  0
LINE
  5
15C
330
1F
100
AcDbEntity
  8
Default
100
AcDbLine
 10
228.8934938302071
 20
-12.09241680964726
 30
0.0
 11
228.8934938302074
 21
-13.94241680964785
 31
0.0
  0
LINE
  5
15D
330
1F
100
AcDbEntity
  8
Default
100
AcDbLine
 10
228.8934938302074
 20
-13.94241680964785
 30
0.0
 11
229.8934938301821
 21
-14.94241680964774
 31
0.0
  0
LINE
  5
15E
330
1F
100
AcDbEntity
  8
Default
100
AcDbLine
 10
256.8434938302072
 20
12.00758319036061
 30
0.0
 11
255.8434938302072
 21
13.00758319035083
 31
0.0
  0
LINE
  5
15F
330
1F
100
AcDbEntity
  8
Default
100
AcDbLine
 10
255.8434938302072
 20
13.00758319035083
 30
0.0
 11
253.9934938302064
 21
13.00758319035072
 31
0.0
  0
LINE
  5
160
330
1F
100
AcDbEntity
  8
Default
100
AcDbLine
 10
253.9934938302064
 20
13.00758319035072
 30
0.0
 11
253.9934938302064
 21
15.50758319035072
 31
0.0
  0
LINE
  5
161
330
1F
100
AcDbEntity
  8
Default
100
AcDbLine
 10
253.9934938302064
 20
15.50758319035072
 30
0.0
 11
255.843493830207
 21
15.50758319035083
 31
0.0
  0
LINE
  5
162
330
1F
100
AcDbEntity
  8
Default
100
AcDbLine
 10
255.843493830207
 20
15.50758319035083
 30
0.0
 11
256.8434938302072
 21
16.50758319033912
 31
0.0
  0
LINE
  5
163
330
1F
100
AcDbEntity
  8
Default
100
AcDbLine
 10
256.8434938302072
 20
45.80758319033862
 30
0.0
 11
255.8434938302072
 21
46.80758319035158
 31
0.0
  0
LINE
  5
164
330
1F
100
AcDbEntity
  8
Default
100
AcDbLine
 10
255.8434938302072
 20
46.80758319035158
 30
0.0
 11
253.9934938302068
 21
46.80758319035226
 31
0.0
  0
LINE
  5
165
330
1F
100
AcDbEntity
  8
Default
100
AcDbLine
 10
253.9934938302068
 20
46.80758319035226
 30
0.0
 11
253.9934938302066
 21
49.30758319035215
 31
0.0
  0
LINE
  5
166
330
1F
100
AcDbEntity
  8
Default
100
AcDbLine
 10
253.9934938302066
 20
49.30758319035215
 30
0.0
 11
255.8434938302072
 21
49.30758319035237
 31
0.0
  0
LINE
  5
167
330
1F
100
AcDbEntity
  8
Default
100
AcDbLine
 10
255.8434938302072
 20
49.30758319035237
 30
0.0
 11
256.8434938302072
 21
50.30758319037068
 31
0.0
  0
LINE
  5
168
330
1F
100
AcDbEntity
  8
Default
100
AcDbLine
 10
256.8434938302072
 20
79.60758319036483
 30
0.0
 11
255.8434938302074
 21
80.60758319035199
 31
0.0
  0
LINE
  5
169
330
1F
100
AcDbEntity
  8
Default
100
AcDbLine
 10
255.8434938302074
 20
80.60758319035199
 30
0.0
 11
253.9934938302068
 21
80.60758319035222
 31
0.0
  0
LINE
  5
16A
330
1F
100
AcDbEntity
  8
Default
100
AcDbLine
 10
253.9934938302068
 20
80.60758319035222
 30
0.0
 11
253.9934938302068
 21
83.10758319035222
 31
0.0
  0
LINE
  5
16B
330
1F
100
AcDbEntity
  8
Default
100
AcDbLine
 10
253.9934938302068
 20
83.10758319035222
 30
0.0
 11
255.8434938302072
 21
83.10758319035233
 31
0.0
  0
LINE
  5
16C
330
1F
100
AcDbEntity
  8
Default
100
AcDbLine
 10
255.8434938302072
 20
83.10758319035233
 30
0.0
 11
256.8434938302072
 21
84.10758319030174
 31
0.0
  0
LINE
  5
16D
330
1F
100
AcDbEntity
  8
Default
100
AcDbLine
 10
130.8434938302072
 20
84.1075831903438
 30
0.0
 11
131.8434938302072
 21
83.10758319035358
 31
0.0
  0
LINE
  5
16E
330
1F
100
AcDbEntity
  8
Default
100
AcDbLine
 10
131.8434938302072
 20
83.10758319035358
 30
0.0
 11
133.693493830208
 21
83.10758319035381
 31
0.0
  0
LINE
  5
16F
330
1F
100
AcDbEntity
  8
Default
100
AcDbLine
 10
133.693493830208
 20
83.10758319035381
 30
0.0
 11
133.693493830208
 21
80.60758319035381
 31
0.0
  0
LINE
  5
170
330
1F
100
AcDbEntity
  8
Default
100
AcDbLine
 10
133.693493830208
 20
80.60758319035381
 30
0.0
 11
131.8434938302074
 21
80.60758319035358
 31
0.0
  0
LINE
  5
171
330
1F
100
AcDbEntity
  8
Default
100
AcDbLine
 10
131.8434938302074
 20
80.60758319035358
 30
0.0
 11
130.8434938302072
 21
79.6075831903654
 31
0.0
  0
LINE
  5
172
330
1F
100
AcDbEntity
  8
Default
100
AcDbLine
 10
130.8434938302072
 20
50.3075831903659
 30
0.0
 11
131.8434938302072
 21
49.30758319035294
 31
0.0
  0
LINE
  5
173
330
1F
100
AcDbEntity
  8
Default
100
AcDbLine
 10
131.8434938302072
 20
49.30758319035294
 30
0.0
 11
133.6934938302076
 21
49.30758319035226
 31
0.0
  0
LINE
  5
174
330
1F
100
AcDbEntity
  8
Default
100
AcDbLine
 10
133.6934938302076
 20
49.30758319035226
 30
0.0
 11
133.6934938302078
 21
46.80758319035226
 31
0.0
  0
LINE
  5
175
330
1F
100
AcDbEntity
  8
Default
100
AcDbLine
 10
133.6934938302078
 20
46.80758319035226
 30
0.0
 11
131.8434938302072
 21
46.80758319035203
 31
0.0
  0
LINE
  5
176
330
1F
100
AcDbEntity
  8
Default
100
AcDbLine
 10
131.8434938302072
 20
46.80758319035203
 30
0.0
 11
130.8434938302072
 21
45.80758319033384
 31
0.0
  0
LINE
  5
177
330
1F
100
AcDbEntity
  8
Default
100
AcDbLine
 10
130.8434938302072
 20
16.50758319033957
 30
0.0
 11
131.8434938302072
 21
15.50758319035253
 31
0.0
  0
LINE
  5
178
330
1F
100
AcDbEntity
  8
Default
100
AcDbLine
 10
131.8434938302072
 20
15.50758319035253
 30
0.0
 11
133.6934938302076
 21
15.50758319035231
 31
0.0
  0
LINE
  5
179
330
1F
100
AcDbEntity
  8
Default
100
AcDbLine
 10
133.6934938302076
 20
15.50758319035231
 30
0.0
 11
133.6934938302078
 21
13.00758319035231
 31
0.0
  0
LINE
  5
17A
330
1F
100
AcDbEntity
  8
Default
100
AcDbLine
 10
133.6934938302078
 20
13.00758319035231
 30
0.0
 11
131.8434938302072
 21
13.00758319035208
 31
0.0
  0
LINE
  5
17B
330
1F
100
AcDbEntity
  8
Default
100
AcDbLine
 10
131.8434938302072
 20
13.00758319035208
 30
0.0
 11
130.8434938302072
 21
12.00758319037732
 31
0.0
  0
POLYLINE
  5
17C
330
1F
100
AcDbEntity
  8
Default
100
AcDb2dPolyline
 66
     1
 10
0.0
 20
0.0
 30
0.0
  0
VERTEX
  5
17D
330
17C
100
AcDbEntity
  8
Default
100
AcDbVertex
100
AcDb2dVertex
 10
86.58333975043504
 20
104.4067058406389
 30
0.0
  0
VERTEX
  5
17E
330
17C
100
AcDbEntity
  8
Default
100
AcDbVertex
100
AcDb2dVertex
 10
111.9333397504058
 20
104.406705840639
 30
0.0
  0
SEQEND
  5
17F
330
17C
100
AcDbEntity
  8
Default
  0
LINE
  5
180
330
1F
100
AcDbEntity
  8
Default
100
AcDbLine
 10
111.9333397504058
 20
104.406705840639
 30
0.0
 11
114.9333397504058
 21
101.406705840639
 31
0.0
  0
POLYLINE
  5
181
330
1F
100
AcDbEntity
  8
Default
100
AcDb2dPolyline
 66
     1
 10
0.0
 20
0.0
 30
0.0
  0
VERTEX
  5
182
330
181
100
AcDbEntity
  8
Default
100
AcDbVertex
100
AcDb2dVertex
 10
114.9333397504058
 20
101.406705840639
 30
0.0
  0
VERTEX
  5
183
330
181
100
AcDbEntity
  8
Default
100
AcDbVertex
100
AcDb2dVertex
 10
114.933339750406
 20
76.0567058405984
 30
0.0
  0
SEQEND
  5
184
330
181
100
AcDbEntity
  8
Default
  0
POLYLINE
  5
185
330
1F
100
AcDbEntity
  8
Default
100
AcDb2dPolyline
 66
     1
 10
0.0
 20
0.0
 30
0.0
  0
VERTEX
  5
186
330
185
100
AcDbEntity
  8
Default
100
AcDbVertex
100
AcDb2dVertex
 10
19.93333975040608
 20
76.0567058406682
 30
0.0
  0
VERTEX
  5
187
330
185
100
AcDbEntity
  8
Default
100
AcDbVertex
100
AcDb2dVertex
 10
19.93333975040596
 20
101.406705840639
 30
0.0
  0
SEQEND
  5
188
330
185
100
AcDbEntity
  8
Default
  0
LINE
  5
189
330
1F
100
AcDbEntity
  8
Default
100
AcDbLine
 10
19.93333975040596
 20
101.406705840639
 30
0.0
 11
22.93333975040574
 21
104.406705840639
 31
0.0
  0
POLYLINE
  5
18A
330
1F
100
AcDbEntity
  8
Default
100
AcDb2dPolyline
 66
     1
 10
0.0
 20
0.0
 30
0.0
  0
VERTEX
  5
18B
330
18A
100
AcDbEntity
  8
Default
100
AcDbVertex
100
AcDb2dVertex
 10
22.93333975040574
 20
104.406705840639
 30
0.0
  0
VERTEX
  5
18C
330
18A
100
AcDbEntity
  8
Default
100
AcDbVertex
100
AcDb2dVertex
 10
48.28333975044646
 20
104.406705840639
 30
0.0
  0
SEQEND
  5
18D
330
18A
100
AcDbEntity
  8
Default
  0
POLYLINE
  5
18E
330
1F
100
AcDbEntity
  8
Default
100
AcDb2dPolyline
 66
     1
 10
0.0
 20
0.0
 30
0.0
  0
VERTEX
  5
18F
330
18E
100
AcDbEntity
  8
Default
100
AcDbVertex
100
AcDb2dVertex
 10
19.93333975040619
 20
37.75670584067961
 30
0.0
  0
VERTEX
  5
190
330
18E
100
AcDbEntity
  8
Default
100
AcDbVertex
100
AcDb2dVertex
 10
19.9333397504063
 20
12.40670584063901
 30
0.0
  0
SEQEND
  5
191
330
18E
100
AcDbEntity
  8
Default
  0
LINE
  5
192
330
1F
100
AcDbEntity
  8
Default
100
AcDbLine
 10
19.9333397504063
 20
12.40670584063901
 30
0.0
 11
22.93333975040608
 21
9.406705840639006
 31
0.0
  0
POLYLINE
  5
193
330
1F
100
AcDbEntity
  8
Default
100
AcDb2dPolyline
 66
     1
 10
0.0
 20
0.0
 30
0.0
  0
VERTEX
  5
194
330
193
100
AcDbEntity
  8
Default
100
AcDbVertex
100
AcDb2dVertex
 10
22.93333975040608
 20
9.406705840639006
 30
0.0
  0
VERTEX
  5
195
330
193
100
AcDbEntity
  8
Default
100
AcDbVertex
100
AcDb2dVertex
 10
48.28333975037711
 20
9.40670584063912
 30
0.0
  0
SEQEND
  5
196
330
193
100
AcDbEntity
  8
Default
  0
POLYLINE
  5
197
330
1F
100
AcDbEntity
  8
Default
100
AcDb2dPolyline
 66
     1
 10
0.0
 20
0.0
 30
0.0
  0
VERTEX
  5
198
330
197
100
AcDbEntity
  8
Default
100
AcDbVertex
100
AcDb2dVertex
 10
86.5833397503657
 20
9.406705840639006
 30
0.0
  0
VERTEX
  5
199
330
197
100
AcDbEntity
  8
Default
100
AcDbVertex
100
AcDb2dVertex
 10
111.9333397504063
 20
9.406705840639006
 30
0.0
  0
SEQEND
  5
19A
330
197
100
AcDbEntity
  8
Default
  0
LINE
  5
19B
330
1F
100
AcDbEntity
  8
Default
100
AcDbLine
 10
111.9333397504063
 20
9.406705840639006
 30
0.0
 11
114.9333397504062
 21
12.40670584063901
 31
0.0
  0
POLYLINE
  5
19C
330
1F
100
AcDbEntity
  8
Default
100
AcDb2dPolyline
 66
     1
 10
0.0
 20
0.0
 30
0.0
  0
VERTEX
  5
19D
330
19C
100
AcDbEntity
  8
Default
100
AcDbVertex
100
AcDb2dVertex
 10
114.9333397504062
 20
12.40670584063901
 30
0.0
  0
VERTEX
  5
19E
330
19C
100
AcDbEntity
  8
Default
100
AcDbVertex
100
AcDb2dVertex
 10
114.9333397504061
 20
37.75670584060981
 30
0.0
  0
SEQEND
  5
19F
330
19C
100
AcDbEntity
  8
Default
  0
LINE
  5
1A0
330
1F
100
AcDbEntity
  8
Default
100
AcDbLine
 10
113.9333397504061
 20
75.05670584062352
 30
0.0
 11
114.933339750406
 21
76.0567058405984
 31
0.0
  0
LINE
  5
1A1
330
1F
100
AcDbEntity
  8
Default
100
AcDbLine
 10
112.0833397504055
 20
75.05670584062341
 30
0.0
 11
113.9333397504061
 21
75.05670584062352
 31
0.0
  0
LINE
  5
1A2
330
1F
100
AcDbEntity
  8
Default
100
AcDbLine
 10
112.0833397504056
 20
72.55670584062341
 30
0.0
 11
112.0833397504055
 21
75.05670584062341
 31
0.0
  0
LINE
  5
1A3
330
1F
100
AcDbEntity
  8
Default
100
AcDbLine
 10
113.9333397504061
 20
72.55670584062318
 30
0.0
 11
112.0833397504056
 21
72.55670584062341
 31
0.0
  0
LINE
  5
1A4
330
1F
100
AcDbEntity
  8
Default
100
AcDbLine
 10
114.933339750406
 20
71.55670584063603
 30
0.0
 11
113.9333397504061
 21
72.55670584062318
 31
0.0
  0
LINE
  5
1A5
330
1F
100
AcDbEntity
  8
Default
100
AcDbLine
 10
113.9333397504062
 20
41.25670584062357
 30
0.0
 11
114.9333397504061
 21
42.25670584064187
 31
0.0
  0
LINE
  5
1A6
330
1F
100
AcDbEntity
  8
Default
100
AcDbLine
 10
112.0833397504056
 20
41.25670584062334
 30
0.0
 11
113.9333397504062
 21
41.25670584062357
 31
0.0
  0
LINE
  5
1A7
330
1F
100
AcDbEntity
  8
Default
100
AcDbLine
 10
112.0833397504056
 20
38.75670584062345
 30
0.0
 11
112.0833397504056
 21
41.25670584062334
 31
0.0
  0
LINE
  5
1A8
330
1F
100
AcDbEntity
  8
Default
100
AcDbLine
 10
113.9333397504063
 20
38.75670584062277
 30
0.0
 11
112.0833397504056
 21
38.75670584062345
 31
0.0
  0
LINE
  5
1A9
330
1F
100
AcDbEntity
  8
Default
100
AcDbLine
 10
114.9333397504061
 20
37.75670584060981
 30
0.0
 11
113.9333397504063
 21
38.75670584062277
 31
0.0
  0
POLYLINE
  5
1AA
330
1F
100
AcDbEntity
  8
Default
100
AcDb2dPolyline
 66
     1
 10
0.0
 20
0.0
 30
0.0
  0
VERTEX
  5
1AB
330
1AA
100
AcDbEntity
  8
Default
100
AcDbVertex
100
AcDb2dVertex
 10
114.9333397504061
 20
42.25670584064187
 30
0.0
  0
VERTEX
  5
1AC
330
1AA
100
AcDbEntity
  8
Default
100
AcDbVertex
100
AcDb2dVertex
 10
114.933339750406
 20
71.55670584063603
 30
0.0
  0
SEQEND
  5
1AD
330
1AA
100
AcDbEntity
  8
Default
  0
POLYLINE
  5
1AE
330
1F
100
AcDbEntity
  8
Default
100
AcDb2dPolyline
 66
     1
 10
0.0
 20
0.0
 30
0.0
  0
VERTEX
  5
1AF
330
1AE
100
AcDbEntity
  8
Default
100
AcDbVertex
100
AcDb2dVertex
 10
82.08333975040298
 20
104.406705840639
 30
0.0
  0
VERTEX
  5
1B0
330
1AE
100
AcDbEntity
  8
Default
100
AcDbVertex
100
AcDb2dVertex
 10
52.78333975040883
 20
104.406705840639
 30
0.0
  0
SEQEND
  5
1B1
330
1AE
100
AcDbEntity
  8
Default
  0
LINE
  5
1B2
330
1F
100
AcDbEntity
  8
Default
100
AcDbLine
 10
86.58333975043504
 20
104.4067058406389
 30
0.0
 11
85.58333975042208
 21
103.4067058406391
 31
0.0
  0
LINE
  5
1B3
330
1F
100
AcDbEntity
  8
Default
100
AcDbLine
 10
85.58333975042208
 20
103.4067058406391
 30
0.0
 11
85.5833397504214
 21
101.5567058406385
 31
0.0
  0
LINE
  5
1B4
330
1F
100
AcDbEntity
  8
Default
100
AcDbLine
 10
85.5833397504214
 20
101.5567058406385
 30
0.0
 11
83.08333975042152
 21
101.5567058406384
 31
0.0
  0
LINE
  5
1B5
330
1F
100
AcDbEntity
  8
Default
100
AcDbLine
 10
83.08333975042152
 20
101.5567058406384
 30
0.0
 11
83.08333975042129
 21
103.406705840639
 31
0.0
  0
LINE
  5
1B6
330
1F
100
AcDbEntity
  8
Default
100
AcDbLine
 10
83.08333975042129
 20
103.406705840639
 30
0.0
 11
82.08333975040298
 21
104.406705840639
 31
0.0
  0
LINE
  5
1B7
330
1F
100
AcDbEntity
  8
Default
100
AcDbLine
 10
52.78333975040883
 20
104.406705840639
 30
0.0
 11
51.78333975042167
 21
103.4067058406391
 31
0.0
  0
LINE
  5
1B8
330
1F
100
AcDbEntity
  8
Default
100
AcDbLine
 10
51.78333975042167
 20
103.4067058406391
 30
0.0
 11
51.78333975042145
 21
101.5567058406385
 31
0.0
  0
LINE
  5
1B9
330
1F
100
AcDbEntity
  8
Default
100
AcDbLine
 10
51.78333975042145
 20
101.5567058406385
 30
0.0
 11
49.28333975042145
 21
101.5567058406385
 31
0.0
  0
LINE
  5
1BA
330
1F
100
AcDbEntity
  8
Default
100
AcDbLine
 10
49.28333975042145
 20
101.5567058406385
 30
0.0
 11
49.28333975042133
 21
103.4067058406391
 31
0.0
  0
LINE
  5
1BB
330
1F
100
AcDbEntity
  8
Default
100
AcDbLine
 10
49.28333975042133
 20
103.4067058406391
 30
0.0
 11
48.28333975044646
 21
104.406705840639
 31
0.0
  0
LINE
  5
1BC
330
1F
100
AcDbEntity
  8
Default
100
AcDbLine
 10
20.93333975040608
 20
38.75670584065449
 30
0.0
 11
19.93333975040619
 21
37.75670584067961
 31
0.0
  0
LINE
  5
1BD
330
1F
100
AcDbEntity
  8
Default
100
AcDbLine
 10
22.78333975040667
 20
38.7567058406546
 30
0.0
 11
20.93333975040608
 21
38.75670584065449
 31
0.0
  0
LINE
  5
1BE
330
1F
100
AcDbEntity
  8
Default
100
AcDbLine
 10
22.78333975040655
 20
41.2567058406546
 30
0.0
 11
22.78333975040667
 21
38.7567058406546
 31
0.0
  0
LINE
  5
1BF
330
1F
100
AcDbEntity
  8
Default
100
AcDbLine
 10
20.93333975040608
 20
41.25670584065483
 30
0.0
 11
22.78333975040655
 21
41.2567058406546
 31
0.0
  0
LINE
  5
1C0
330
1F
100
AcDbEntity
  8
Default
100
AcDbLine
 10
19.93333975040619
 20
42.25670584064198
 30
0.0
 11
20.93333975040608
 21
41.25670584065483
 31
0.0
  0
LINE
  5
1C1
330
1F
100
AcDbEntity
  8
Default
100
AcDbLine
 10
20.93333975040596
 20
72.55670584065444
 30
0.0
 11
19.93333975040608
 21
71.55670584063614
 31
0.0
  0
LINE
  5
1C2
330
1F
100
AcDbEntity
  8
Default
100
AcDbLine
 10
22.78333975040655
 20
72.55670584065467
 30
0.0
 11
20.93333975040596
 21
72.55670584065444
 31
0.0
  0
LINE
  5
1C3
330
1F
100
AcDbEntity
  8
Default
100
AcDbLine
 10
22.78333975040655
 20
75.05670584065456
 30
0.0
 11
22.78333975040655
 21
72.55670584065467
 31
0.0
  0
LINE
  5
1C4
330
1F
100
AcDbEntity
  8
Default
100
AcDbLine
 10
20.93333975040585
 20
75.05670584065524
 30
0.0
 11
22.78333975040655
 21
75.05670584065456
 31
0.0
  0
LINE
  5
1C5
330
1F
100
AcDbEntity
  8
Default
100
AcDbLine
 10
19.93333975040608
 20
76.0567058406682
 30
0.0
 11
20.93333975040585
 21
75.05670584065524
 31
0.0
  0
POLYLINE
  5
1C6
330
1F
100
AcDbEntity
  8
Default
100
AcDb2dPolyline
 66
     1
 10
0.0
 20
0.0
 30
0.0
  0
VERTEX
  5
1C7
330
1C6
100
AcDbEntity
  8
Default
100
AcDbVertex
100
AcDb2dVertex
 10
19.93333975040608
 20
71.55670584063614
 30
0.0
  0
VERTEX
  5
1C8
330
1C6
100
AcDbEntity
  8
Default
100
AcDbVertex
100
AcDb2dVertex
 10
19.93333975040619
 20
42.25670584064198
 30
0.0
  0
SEQEND
  5
1C9
330
1C6
100
AcDbEntity
  8
Default
  0
POLYLINE
  5
1CA
330
1F
100
AcDbEntity
  8
Default
100
AcDb2dPolyline
 66
     1
 10
0.0
 20
0.0
 30
0.0
  0
VERTEX
  5
1CB
330
1CA
100
AcDbEntity
  8
Default
100
AcDbVertex
100
AcDb2dVertex
 10
52.78333975040917
 20
9.406705840639006
 30
0.0
  0
VERTEX
  5
1CC
330
1CA
100
AcDbEntity
  8
Default
100
AcDbVertex
100
AcDb2dVertex
 10
82.08333975040333
 20
9.406705840639006
 30
0.0
  0
SEQEND
  5
1CD
330
1CA
100
AcDbEntity
  8
Default
  0
LINE
  5
1CE
330
1F
100
AcDbEntity
  8
Default
100
AcDbLine
 10
48.28333975037711
 20
9.40670584063912
 30
0.0
 11
49.28333975039007
 21
10.40670584063889
 31
0.0
  0
LINE
  5
1CF
330
1F
100
AcDbEntity
  8
Default
100
AcDbLine
 10
49.28333975039007
 20
10.40670584063889
 30
0.0
 11
49.28333975039075
 21
12.25670584063948
 31
0.0
  0
LINE
  5
1D0
330
1F
100
AcDbEntity
  8
Default
100
AcDbLine
 10
49.28333975039075
 20
12.25670584063948
 30
0.0
 11
51.78333975039064
 21
12.25670584063954
 31
0.0
  0
LINE
  5
1D1
330
1F
100
AcDbEntity
  8
Default
100
AcDbLine
 10
51.78333975039064
 20
12.25670584063954
 30
0.0
 11
51.78333975039087
 21
10.40670584063895
 31
0.0
  0
LINE
  5
1D2
330
1F
100
AcDbEntity
  8
Default
100
AcDbLine
 10
51.78333975039087
 20
10.40670584063895
 30
0.0
 11
52.78333975040917
 21
9.406705840639006
 31
0.0
  0
LINE
  5
1D3
330
1F
100
AcDbEntity
  8
Default
100
AcDbLine
 10
82.08333975040333
 20
9.406705840639006
 30
0.0
 11
83.08333975039048
 21
10.40670584063889
 31
0.0
  0
LINE
  5
1D4
330
1F
100
AcDbEntity
  8
Default
100
AcDbLine
 10
83.08333975039048
 20
10.40670584063889
 30
0.0
 11
83.0833397503907
 21
12.25670584063948
 31
0.0
  0
LINE
  5
1D5
330
1F
100
AcDbEntity
  8
Default
100
AcDbLine
 10
83.0833397503907
 20
12.25670584063948
 30
0.0
 11
85.5833397503907
 21
12.25670584063948
 31
0.0
  0
LINE
  5
1D6
330
1F
100
AcDbEntity
  8
Default
100
AcDbLine
 10
85.5833397503907
 20
12.25670584063948
 30
0.0
 11
85.58333975039082
 21
10.40670584063889
 31
0.0
  0
LINE
  5
1D7
330
1F
100
AcDbEntity
  8
Default
100
AcDbLine
 10
85.58333975039082
 20
10.40670584063889
 30
0.0
 11
86.5833397503657
 21
9.406705840639006
 31
0.0
  0
LINE
  5
1D8
330
1F
100
AcDbEntity
  8
Default
100
AcDbLine
 10
-20.41215175831496
 20
-63.86803809157357
 30
0.0
 11
-20.41215175831513
 21
-62.01803809157275
 31
0.0
  0
LINE
  5
1D9
330
1F
100
AcDbEntity
  8
Default
100
AcDbLine
 10
-21.41215175831508
 20
-64.86803809157357
 30
0.0
 11
-20.41215175831496
 21
-63.86803809157357
 31
0.0
  0
LINE
  5
1DA
330
1F
100
AcDbEntity
  8
Default
100
AcDbLine
 10
-50.71215175831458
 20
-64.86803809157357
 30
0.0
 11
-21.41215175831508
 21
-64.86803809157357
 31
0.0
  0
LINE
  5
1DB
330
1F
100
AcDbEntity
  8
Default
100
AcDbLine
 10
-51.71215175831497
 20
-63.86803809157357
 30
0.0
 11
-50.71215175831458
 21
-64.86803809157357
 31
0.0
  0
LINE
  5
1DC
330
1F
100
AcDbEntity
  8
Default
100
AcDbLine
 10
-51.71215175831514
 20
-62.01803809157298
 30
0.0
 11
-51.71215175831497
 21
-63.86803809157357
 31
0.0
  0
LINE
  5
1DD
330
1F
100
AcDbEntity
  8
Default
100
AcDbLine
 10
-54.21215175831514
 20
-62.01803809157309
 30
0.0
 11
-51.71215175831514
 21
-62.01803809157298
 31
0.0
  0
LINE
  5
1DE
330
1F
100
AcDbEntity
  8
Default
100
AcDbLine
 10
-54.21215175831571
 20
-63.86803809157368
 30
0.0
 11
-54.21215175831514
 21
-62.01803809157309
 31
0.0
  0
LINE
  5
1DF
330
1F
100
AcDbEntity
  8
Default
100
AcDbLine
 10
-55.21215175831685
 20
-64.86803809157334
 30
0.0
 11
-54.21215175831571
 21
-63.86803809157368
 31
0.0
  0
LINE
  5
1E0
330
1F
100
AcDbEntity
  8
Default
100
AcDbLine
 10
-84.36215175831569
 20
-64.86803809157334
 30
0.0
 11
-55.21215175831685
 21
-64.86803809157334
 31
0.0
  0
LINE
  5
1E1
330
1F
100
AcDbEntity
  8
Default
100
AcDbLine
 10
-84.51215175831521
 20
-64.86803809157334
 30
0.0
 11
-84.36215175831569
 21
-64.86803809157334
 31
0.0
  0
LINE
  5
1E2
330
1F
100
AcDbEntity
  8
Default
100
AcDbLine
 10
-85.51215175831646
 20
-63.86803809157334
 30
0.0
 11
-84.51215175831521
 21
-64.86803809157334
 31
0.0
  0
LINE
  5
1E3
330
1F
100
AcDbEntity
  8
Default
100
AcDbLine
 10
-85.51215175831669
 20
-62.01803809157275
 30
0.0
 11
-85.51215175831646
 21
-63.86803809157334
 31
0.0
  0
LINE
  5
1E4
330
1F
100
AcDbEntity
  8
Default
100
AcDbLine
 10
-88.01215175831663
 20
-62.01803809157275
 30
0.0
 11
-85.51215175831669
 21
-62.01803809157275
 31
0.0
  0
LINE
  5
1E5
330
1F
100
AcDbEntity
  8
Default
100
AcDbLine
 10
-88.01215175831646
 20
-63.86803809157357
 30
0.0
 11
-88.01215175831663
 21
-62.01803809157275
 31
0.0
  0
LINE
  5
1E6
330
1F
100
AcDbEntity
  8
Default
100
AcDbLine
 10
-89.01215175831453
 20
-64.86803809157334
 30
0.0
 11
-88.01215175831646
 21
-63.86803809157357
 31
0.0
  0
LINE
  5
1E7
330
1F
100
AcDbEntity
  8
Default
100
AcDbLine
 10
-89.1621517583157
 20
-64.86803809157334
 30
0.0
 11
-89.01215175831453
 21
-64.86803809157334
 31
0.0
  0
LINE
  5
1E8
330
1F
100
AcDbEntity
  8
Default
100
AcDbLine
 10
-118.3121517583156
 20
-64.86803809157323
 30
0.0
 11
-89.1621517583157
 21
-64.86803809157334
 31
0.0
  0
LINE
  5
1E9
330
1F
100
AcDbEntity
  8
Default
100
AcDbLine
 10
-119.3121517583157
 20
-63.86803809157323
 30
0.0
 11
-118.3121517583156
 21
-64.86803809157323
 31
0.0
  0
LINE
  5
1EA
330
1F
100
AcDbEntity
  8
Default
100
AcDbLine
 10
-119.3121517583159
 20
-62.01803809157263
 30
0.0
 11
-119.3121517583157
 21
-63.86803809157323
 31
0.0
  0
LINE
  5
1EB
330
1F
100
AcDbEntity
  8
Default
100
AcDbLine
 10
-122.8121517583161
 20
-64.86803809157323
 30
0.0
 11
-126.9621517583157
 21
-64.86803809157323
 31
0.0
  0
LINE
  5
1EC
330
1F
100
AcDbEntity
  8
Default
100
AcDbLine
 10
-121.8121517583157
 20
-63.86803809157345
 30
0.0
 11
-122.8121517583161
 21
-64.86803809157323
 31
0.0
  0
LINE
  5
1ED
330
1F
100
AcDbEntity
  8
Default
100
AcDbLine
 10
-121.8121517583158
 20
-62.01803809157275
 30
0.0
 11
-121.8121517583157
 21
-63.86803809157345
 31
0.0
  0
LINE
  5
1EE
330
1F
100
AcDbEntity
  8
Default
100
AcDbLine
 10
-119.3121517583159
 20
-62.01803809157263
 30
0.0
 11
-121.8121517583158
 21
-62.01803809157275
 31
0.0
  0
LINE
  5
1EF
330
1F
100
AcDbEntity
  8
Default
100
AcDbLine
 10
-121.8121517583157
 20
-55.71803809157416
 30
0.0
 11
-119.3121517583157
 21
-55.71803809157439
 31
0.0
  0
LINE
  5
1F0
330
1F
100
AcDbEntity
  8
Default
100
AcDbLine
 10
-121.8121517583157
 20
-52.86803809157323
 30
0.0
 11
-121.8121517583157
 21
-55.71803809157416
 31
0.0
  0
LINE
  5
1F1
330
1F
100
AcDbEntity
  8
Default
100
AcDbLine
 10
-121.8121517583157
 20
-51.01803809157241
 30
0.0
 11
-121.8121517583157
 21
-52.86803809157323
 31
0.0
  0
LINE
  5
1F2
330
1F
100
AcDbEntity
  8
Default
100
AcDbLine
 10
-122.8121517583161
 20
-50.01803809157229
 30
0.0
 11
-121.8121517583157
 21
-51.01803809157241
 31
0.0
  0
LINE
  5
1F3
330
1F
100
AcDbEntity
  8
Default
100
AcDbLine
 10
-122.9621517583157
 20
-50.01803809157229
 30
0.0
 11
-122.8121517583161
 21
-50.01803809157229
 31
0.0
  0
LINE
  5
1F4
330
1F
100
AcDbEntity
  8
Default
100
AcDbLine
 10
-126.9621517583157
 20
-50.01803809157229
 30
0.0
 11
-122.9621517583157
 21
-50.01803809157229
 31
0.0
  0
ARC
  5
1F5
330
1F
100
AcDbEntity
  8
Default
100
AcDbCircle
 10
126.9621517583157
 20
-51.01803809157229
 30
0.0
 40
1.0
210
0.0
220
0.0
230
-1.0
100
AcDbArc
 50
0.0
 51
90.0
  0
LINE
  5
1F6
330
1F
100
AcDbEntity
  8
Default
100
AcDbLine
 10
-127.9621517583157
 20
-52.86803809157334
 30
0.0
 11
-127.9621517583157
 21
-51.01803809157229
 31
0.0
  0
LINE
  5
1F7
330
1F
100
AcDbEntity
  8
Default
100
AcDbLine
 10
-127.9621517583157
 20
-55.71803809157427
 30
0.0
 11
-127.9621517583157
 21
-52.86803809157334
 31
0.0
  0
LINE
  5
1F8
330
1F
100
AcDbEntity
  8
Default
100
AcDbLine
 10
-127.9621517583157
 20
-58.86803809157323
 30
0.0
 11
-127.9621517583157
 21
-55.71803809157427
 31
0.0
  0
LINE
  5
1F9
330
1F
100
AcDbEntity
  8
Default
100
AcDbLine
 10
-127.9621517583157
 20
-63.86803809157323
 30
0.0
 11
-127.9621517583157
 21
-58.86803809157323
 31
0.0
  0
ARC
  5
1FA
330
1F
100
AcDbEntity
  8
Default
100
AcDbCircle
 10
126.9621517583157
 20
-63.86803809157323
 30
0.0
 40
1.0
210
0.0
220
0.0
230
-1.0
100
AcDbArc
 50
270.0
 51
0.0
  0
LINE
  5
1FB
330
1F
100
AcDbEntity
  8
Default
100
AcDbLine
 10
-20.41215175831525
 20
-55.71803809157439
 30
0.0
 11
-17.91215175831536
 21
-55.71803809157427
 31
0.0
  0
LINE
  5
1FC
330
1F
100
AcDbEntity
  8
Default
100
AcDbLine
 10
-17.91215175831536
 20
-55.71803809157427
 30
0.0
 11
-17.91215175831536
 21
-52.86803809157334
 31
0.0
  0
LINE
  5
1FD
330
1F
100
AcDbEntity
  8
Default
100
AcDbLine
 10
-17.91215175831536
 20
-52.86803809157334
 30
0.0
 11
-17.9121517583153
 21
-51.01803809157252
 31
0.0
  0
LINE
  5
1FE
330
1F
100
AcDbEntity
  8
Default
100
AcDbLine
 10
-17.9121517583153
 20
-51.01803809157252
 30
0.0
 11
-16.91215175831491
 21
-50.01803809157229
 31
0.0
  0
LINE
  5
1FF
330
1F
100
AcDbEntity
  8
Default
100
AcDbLine
 10
-16.91215175831491
 20
-50.01803809157229
 30
0.0
 11
-16.76215175831538
 21
-50.01803809157229
 31
0.0
  0
LINE
  5
200
330
1F
100
AcDbEntity
  8
Default
100
AcDbLine
 10
-16.76215175831538
 20
-50.01803809157229
 30
0.0
 11
-12.76215175831538
 21
-50.01803809157229
 31
0.0
  0
ARC
  5
201
330
1F
100
AcDbEntity
  8
Default
100
AcDbCircle
 10
12.76215175831538
 20
-51.01803809157229
 30
0.0
 40
1.0
210
0.0
220
0.0
230
-1.0
100
AcDbArc
 50
89.99999999999939
 51
180.0
  0
LINE
  5
202
330
1F
100
AcDbEntity
  8
Default
100
AcDbLine
 10
-11.76215175831538
 20
-51.01803809157229
 30
0.0
 11
-11.76215175831538
 21
-52.86803809157334
 31
0.0
  0
LINE
  5
203
330
1F
100
AcDbEntity
  8
Default
100
AcDbLine
 10
-11.76215175831538
 20
-52.86803809157334
 30
0.0
 11
-11.76215175831538
 21
-55.71803809157439
 31
0.0
  0
LINE
  5
204
330
1F
100
AcDbEntity
  8
Default
100
AcDbLine
 10
-11.76215175831538
 20
-55.71803809157439
 30
0.0
 11
-11.76215175831533
 21
-58.86803809157334
 31
0.0
  0
LINE
  5
205
330
1F
100
AcDbEntity
  8
Default
100
AcDbLine
 10
-11.76215175831533
 20
-58.86803809157334
 30
0.0
 11
-11.76215175831527
 21
-63.86803809157334
 31
0.0
  0
ARC
  5
206
330
1F
100
AcDbEntity
  8
Default
100
AcDbCircle
 10
12.76215175831527
 20
-63.86803809157334
 30
0.0
 40
1.0
210
0.0
220
0.0
230
-1.0
100
AcDbArc
 50
180.0
 51
269.9999999999998
  0
LINE
  5
207
330
1F
100
AcDbEntity
  8
Default
100
AcDbLine
 10
-12.76215175831527
 20
-64.86803809157334
 30
0.0
 11
-16.91215175831491
 21
-64.86803809157334
 31
0.0
  0
LINE
  5
208
330
1F
100
AcDbEntity
  8
Default
100
AcDbLine
 10
-16.91215175831491
 20
-64.86803809157334
 30
0.0
 11
-17.91215175831525
 21
-63.86803809157357
 31
0.0
  0
LINE
  5
209
330
1F
100
AcDbEntity
  8
Default
100
AcDbLine
 10
-17.91215175831525
 20
-63.86803809157357
 30
0.0
 11
-17.91215175831513
 21
-62.01803809157275
 31
0.0
  0
LINE
  5
20A
330
1F
100
AcDbEntity
  8
Default
100
AcDbLine
 10
-17.91215175831513
 20
-62.01803809157275
 30
0.0
 11
-20.41215175831513
 21
-62.01803809157275
 31
0.0
  0
LINE
  5
20B
330
1F
100
AcDbEntity
  8
Default
100
AcDbLine
 10
-74.21215175831702
 20
-10.6180380915747
 30
0.0
 11
-74.21215175831713
 21
-8.118038091574704
 31
0.0
  0
LINE
  5
20C
330
1F
100
AcDbEntity
  8
Default
100
AcDbLine
 10
-74.21215175831713
 20
-8.118038091574704
 30
0.0
 11
-77.06215175831812
 21
-8.118038091574704
 31
0.0
  0
LINE
  5
20D
330
1F
100
AcDbEntity
  8
Default
100
AcDbLine
 10
-77.06215175831812
 20
-8.118038091574704
 30
0.0
 11
-78.912151758319
 21
-8.118038091574704
 31
0.0
  0
LINE
  5
20E
330
1F
100
AcDbEntity
  8
Default
100
AcDbLine
 10
-78.912151758319
 20
-8.118038091574704
 30
0.0
 11
-79.91215175831911
 21
-6.968038091574726
 31
0.0
  0
LINE
  5
20F
330
1F
100
AcDbEntity
  8
Default
100
AcDbLine
 10
-79.91215175831911
 20
-6.968038091574726
 30
0.0
 11
-79.91215175831911
 21
-2.968038091574726
 31
0.0
  0
ARC
  5
210
330
1F
100
AcDbEntity
  8
Default
100
AcDbCircle
 10
78.91215175831911
 20
-2.968038091574726
 30
0.0
 40
1.0
210
0.0
220
0.0
230
-1.0
100
AcDbArc
 50
359.9999999999994
 51
90.0
  0
LINE
  5
211
330
1F
100
AcDbEntity
  8
Default
100
AcDbLine
 10
-78.91215175831911
 20
-1.968038091574726
 30
0.0
 11
-77.06215175831807
 21
-1.968038091574726
 31
0.0
  0
LINE
  5
212
330
1F
100
AcDbEntity
  8
Default
100
AcDbLine
 10
-77.06215175831807
 20
-1.968038091574726
 30
0.0
 11
-74.21215175831708
 21
-1.968038091574613
 31
0.0
  0
LINE
  5
213
330
1F
100
AcDbEntity
  8
Default
100
AcDbLine
 10
-74.21215175831708
 20
-1.968038091574613
 30
0.0
 11
-71.06215175831818
 21
-1.96803809157467
 31
0.0
  0
LINE
  5
214
330
1F
100
AcDbEntity
  8
Default
100
AcDbLine
 10
-71.06215175831818
 20
-1.96803809157467
 30
0.0
 11
-68.66215175831388
 21
-1.96803809157467
 31
0.0
  0
LINE
  5
215
330
1F
100
AcDbEntity
  8
Default
100
AcDbLine
 10
-68.66215175831388
 20
-1.96803809157467
 30
0.0
 11
-65.51215175831499
 21
-1.968038091574613
 31
0.0
  0
LINE
  5
216
330
1F
100
AcDbEntity
  8
Default
100
AcDbLine
 10
-65.51215175831499
 20
-1.968038091574613
 30
0.0
 11
-62.662151758314
 21
-1.968038091574726
 31
0.0
  0
LINE
  5
217
330
1F
100
AcDbEntity
  8
Default
100
AcDbLine
 10
-62.662151758314
 20
-1.968038091574726
 30
0.0
 11
-60.81215175831295
 21
-1.968038091574726
 31
0.0
  0
ARC
  5
218
330
1F
100
AcDbEntity
  8
Default
100
AcDbCircle
 10
60.81215175831295
 20
-2.968038091574726
 30
0.0
 40
1.0
210
0.0
220
0.0
230
-1.0
100
AcDbArc
 50
90.0
 51
180.0000000000006
  0
LINE
  5
219
330
1F
100
AcDbEntity
  8
Default
100
AcDbLine
 10
-59.81215175831295
 20
-2.968038091574726
 30
0.0
 11
-59.81215175831295
 21
-6.968038091574726
 31
0.0
  0
LINE
  5
21A
330
1F
100
AcDbEntity
  8
Default
100
AcDbLine
 10
-59.81215175831295
 20
-6.968038091574726
 30
0.0
 11
-60.81215175831306
 21
-8.118038091574704
 31
0.0
  0
LINE
  5
21B
330
1F
100
AcDbEntity
  8
Default
100
AcDbLine
 10
-60.81215175831306
 20
-8.118038091574704
 30
0.0
 11
-62.66215175831394
 21
-8.118038091574704
 31
0.0
  0
LINE
  5
21C
330
1F
100
AcDbEntity
  8
Default
100
AcDbLine
 10
-62.66215175831394
 20
-8.118038091574704
 30
0.0
 11
-65.51215175831493
 21
-8.118038091574704
 31
0.0
  0
LINE
  5
21D
330
1F
100
AcDbEntity
  8
Default
100
AcDbLine
 10
-65.51215175831493
 20
-8.118038091574704
 30
0.0
 11
-65.51215175831504
 21
-10.6180380915747
 31
0.0
  0
LINE
  5
21E
330
1F
100
AcDbEntity
  8
Default
100
AcDbLine
 10
-119.3121517583157
 20
-55.71803809157439
 30
0.0
 11
-74.21215175832799
 21
-10.61803809158653
 31
0.0
  0
LINE
  5
21F
330
1F
100
AcDbEntity
  8
Default
100
AcDbLine
 10
-65.51215175831868
 20
-10.61803809157107
 30
0.0
 11
-20.41215175831525
 21
-55.71803809157439
 31
0.0
  0
LINE
  5
220
330
1F
100
AcDbEntity
  8
Default
100
AcDbLine
 10
74.49495502286976
 20
-53.1609313103869
 30
0.0
 11
73.49495502286965
 21
-52.1609313103869
 31
0.0
  0
LINE
  5
221
330
1F
100
AcDbEntity
  8
Default
100
AcDbLine
 10
74.49495502286976
 20
-55.01093131038749
 30
0.0
 11
74.49495502286976
 21
-53.1609313103869
 31
0.0
  0
LINE
  5
222
330
1F
100
AcDbEntity
  8
Default
100
AcDbLine
 10
74.49495502286976
 20
-63.1609313103869
 30
0.0
 11
74.49495502286959
 21
-61.31093131038608
 31
0.0
  0
LINE
  5
223
330
1F
100
AcDbEntity
  8
Default
100
AcDbLine
 10
73.49495502286965
 20
-64.1609313103869
 30
0.0
 11
74.49495502286976
 21
-63.1609313103869
 31
0.0
  0
LINE
  5
224
330
1F
100
AcDbEntity
  8
Default
100
AcDbLine
 10
44.34495502287081
 20
-64.1609313103869
 30
0.0
 11
73.49495502286965
 21
-64.1609313103869
 31
0.0
  0
LINE
  5
225
330
1F
100
AcDbEntity
  8
Default
100
AcDbLine
 10
44.19495502287128
 20
-64.1609313103869
 30
0.0
 11
44.34495502287081
 21
-64.1609313103869
 31
0.0
  0
LINE
  5
226
330
1F
100
AcDbEntity
  8
Default
100
AcDbLine
 10
43.19495502287003
 20
-63.16093131038679
 30
0.0
 11
44.19495502287128
 21
-64.1609313103869
 31
0.0
  0
LINE
  5
227
330
1F
100
AcDbEntity
  8
Default
100
AcDbLine
 10
43.19495502286986
 20
-61.3109313103862
 30
0.0
 11
43.19495502287003
 21
-63.16093131038679
 31
0.0
  0
LINE
  5
228
330
1F
100
AcDbEntity
  8
Default
100
AcDbLine
 10
40.69495502286992
 20
-61.31093131038631
 30
0.0
 11
43.19495502286986
 21
-61.3109313103862
 31
0.0
  0
LINE
  5
229
330
1F
100
AcDbEntity
  8
Default
100
AcDbLine
 10
40.69495502287003
 20
-63.16093131038701
 30
0.0
 11
40.69495502286992
 21
-61.31093131038631
 31
0.0
  0
LINE
  5
22A
330
1F
100
AcDbEntity
  8
Default
100
AcDbLine
 10
39.69495502287202
 20
-64.16093131038679
 30
0.0
 11
40.69495502287003
 21
-63.16093131038701
 31
0.0
  0
LINE
  5
22B
330
1F
100
AcDbEntity
  8
Default
100
AcDbLine
 10
39.54495502287085
 20
-64.16093131038679
 30
0.0
 11
39.69495502287202
 21
-64.16093131038679
 31
0.0
  0
LINE
  5
22C
330
1F
100
AcDbEntity
  8
Default
100
AcDbLine
 10
10.39495502287087
 20
-64.16093131038667
 30
0.0
 11
39.54495502287085
 21
-64.16093131038679
 31
0.0
  0
LINE
  5
22D
330
1F
100
AcDbEntity
  8
Default
100
AcDbLine
 10
9.39495502287076
 20
-63.16093131038667
 30
0.0
 11
10.39495502287087
 21
-64.16093131038667
 31
0.0
  0
LINE
  5
22E
330
1F
100
AcDbEntity
  8
Default
100
AcDbLine
 10
9.394955022870647
 20
-61.31093131038608
 30
0.0
 11
9.39495502287076
 21
-63.16093131038667
 31
0.0
  0
LINE
  5
22F
330
1F
100
AcDbEntity
  8
Default
100
AcDbLine
 10
9.394955022870818
 20
-53.1609313103869
 30
0.0
 11
9.39495502287076
 21
-55.01093131038772
 31
0.0
  0
LINE
  5
230
330
1F
100
AcDbEntity
  8
Default
100
AcDbLine
 10
10.39495502287087
 20
-52.16093131038667
 30
0.0
 11
9.394955022870818
 21
-53.1609313103869
 31
0.0
  0
LINE
  5
231
330
1F
100
AcDbEntity
  8
Default
100
AcDbLine
 10
5.894955022870477
 20
-64.16093131038667
 30
0.0
 11
1.74495502287084
 21
-64.16093131038667
 31
0.0
  0
LINE
  5
232
330
1F
100
AcDbEntity
  8
Default
100
AcDbLine
 10
6.894955022870818
 20
-63.1609313103869
 30
0.0
 11
5.894955022870477
 21
-64.16093131038667
 31
0.0
  0
LINE
  5
233
330
1F
100
AcDbEntity
  8
Default
100
AcDbLine
 10
6.894955022870704
 20
-61.3109313103862
 30
0.0
 11
6.894955022870818
 21
-63.1609313103869
 31
0.0
  0
LINE
  5
234
330
1F
100
AcDbEntity
  8
Default
100
AcDbLine
 10
9.394955022870647
 20
-61.31093131038608
 30
0.0
 11
6.894955022870704
 21
-61.3109313103862
 31
0.0
  0
LINE
  5
235
330
1F
100
AcDbEntity
  8
Default
100
AcDbLine
 10
6.894955022870874
 20
-55.01093131038772
 30
0.0
 11
9.394955022870818
 21
-55.01093131038783
 31
0.0
  0
LINE
  5
236
330
1F
100
AcDbEntity
  8
Default
100
AcDbLine
 10
6.894955022870874
 20
-52.16093131038667
 30
0.0
 11
6.894955022870874
 21
-55.01093131038772
 31
0.0
  0
LINE
  5
237
330
1F
100
AcDbEntity
  8
Default
100
AcDbLine
 10
6.894955022870818
 20
-50.31093131038585
 30
0.0
 11
6.894955022870874
 21
-52.16093131038667
 31
0.0
  0
LINE
  5
238
330
1F
100
AcDbEntity
  8
Default
100
AcDbLine
 10
5.894955022870477
 20
-49.31093131038574
 30
0.0
 11
6.894955022870818
 21
-50.31093131038585
 31
0.0
  0
LINE
  5
239
330
1F
100
AcDbEntity
  8
Default
100
AcDbLine
 10
5.744955022870897
 20
-49.31093131038574
 30
0.0
 11
5.894955022870477
 21
-49.31093131038574
 31
0.0
  0
LINE
  5
23A
330
1F
100
AcDbEntity
  8
Default
100
AcDbLine
 10
1.744955022870897
 20
-49.31093131038574
 30
0.0
 11
5.744955022870897
 21
-49.31093131038574
 31
0.0
  0
ARC
  5
23B
330
1F
100
AcDbEntity
  8
Default
100
AcDbCircle
 10
-1.744955022870897
 20
-50.31093131038574
 30
0.0
 40
1.0
210
0.0
220
0.0
230
-1.0
100
AcDbArc
 50
0.0
 51
90.00000000000058
  0
LINE
  5
23C
330
1F
100
AcDbEntity
  8
Default
100
AcDbLine
 10
0.7449550228708972
 20
-52.1609313103869
 30
0.0
 11
0.7449550228708972
 21
-50.31093131038574
 31
0.0
  0
LINE
  5
23D
330
1F
100
AcDbEntity
  8
Default
100
AcDbLine
 10
0.7449550228708972
 20
-55.01093131038772
 30
0.0
 11
0.7449550228708972
 21
-52.1609313103869
 31
0.0
  0
LINE
  5
23E
330
1F
100
AcDbEntity
  8
Default
100
AcDbLine
 10
0.7449550228708404
 20
-58.16093131038667
 30
0.0
 11
0.7449550228708972
 21
-55.01093131038772
 31
0.0
  0
LINE
  5
23F
330
1F
100
AcDbEntity
  8
Default
100
AcDbLine
 10
0.7449550228708404
 20
-63.16093131038667
 30
0.0
 11
0.7449550228708404
 21
-58.16093131038667
 31
0.0
  0
ARC
  5
240
330
1F
100
AcDbEntity
  8
Default
100
AcDbCircle
 10
-1.74495502287084
 20
-63.16093131038667
 30
0.0
 40
1.0
210
0.0
220
0.0
230
-1.0
100
AcDbArc
 50
270.0000000000002
 51
0.0
  0
LINE
  5
241
330
1F
100
AcDbEntity
  8
Default
100
AcDbLine
 10
74.49495502286948
 20
-55.01093131038772
 30
0.0
 11
76.99495502286936
 21
-55.0109313103876
 31
0.0
  0
LINE
  5
242
330
1F
100
AcDbEntity
  8
Default
100
AcDbLine
 10
76.99495502286936
 20
-55.0109313103876
 30
0.0
 11
76.99495502286936
 21
-52.16093131038667
 31
0.0
  0
LINE
  5
243
330
1F
100
AcDbEntity
  8
Default
100
AcDbLine
 10
76.99495502286936
 20
-52.16093131038667
 30
0.0
 11
76.99495502286942
 21
-50.31093131038585
 31
0.0
  0
LINE
  5
244
330
1F
100
AcDbEntity
  8
Default
100
AcDbLine
 10
76.99495502286942
 20
-50.31093131038585
 30
0.0
 11
77.99495502286982
 21
-49.31093131038563
 31
0.0
  0
LINE
  5
245
330
1F
100
AcDbEntity
  8
Default
100
AcDbLine
 10
77.99495502286982
 20
-49.31093131038563
 30
0.0
 11
78.14495502286934
 21
-49.31093131038563
 31
0.0
  0
LINE
  5
246
330
1F
100
AcDbEntity
  8
Default
100
AcDbLine
 10
78.14495502286934
 20
-49.31093131038563
 30
0.0
 11
82.14495502286934
 21
-49.31093131038563
 31
0.0
  0
ARC
  5
247
330
1F
100
AcDbEntity
  8
Default
100
AcDbCircle
 10
-82.14495502286934
 20
-50.31093131038563
 30
0.0
 40
1.0
210
0.0
220
0.0
230
-1.0
100
AcDbArc
 50
90.0
 51
180.0
  0
LINE
  5
248
330
1F
100
AcDbEntity
  8
Default
100
AcDbLine
 10
83.14495502286934
 20
-50.31093131038563
 30
0.0
 11
83.14495502286934
 21
-52.16093131038667
 31
0.0
  0
LINE
  5
249
330
1F
100
AcDbEntity
  8
Default
100
AcDbLine
 10
83.14495502286934
 20
-52.16093131038667
 30
0.0
 11
83.14495502286934
 21
-55.01093131038772
 31
0.0
  0
LINE
  5
24A
330
1F
100
AcDbEntity
  8
Default
100
AcDbLine
 10
83.14495502286934
 20
-55.01093131038772
 30
0.0
 11
83.1449550228694
 21
-58.16093131038667
 31
0.0
  0
LINE
  5
24B
330
1F
100
AcDbEntity
  8
Default
100
AcDbLine
 10
83.1449550228694
 20
-58.16093131038667
 30
0.0
 11
83.14495502286945
 21
-63.16093131038667
 31
0.0
  0
ARC
  5
24C
330
1F
100
AcDbEntity
  8
Default
100
AcDbCircle
 10
-82.14495502286945
 20
-63.16093131038667
 30
0.0
 40
1.0
210
0.0
220
0.0
230
-1.0
100
AcDbArc
 50
180.0
 51
270.0
  0
LINE
  5
24D
330
1F
100
AcDbEntity
  8
Default
100
AcDbLine
 10
82.14495502286945
 20
-64.16093131038667
 30
0.0
 11
77.99495502286982
 21
-64.16093131038667
 31
0.0
  0
LINE
  5
24E
330
1F
100
AcDbEntity
  8
Default
100
AcDbLine
 10
77.99495502286982
 20
-64.16093131038667
 30
0.0
 11
76.99495502286948
 21
-63.1609313103869
 31
0.0
  0
LINE
  5
24F
330
1F
100
AcDbEntity
  8
Default
100
AcDbLine
 10
76.99495502286948
 20
-63.1609313103869
 30
0.0
 11
76.99495502286959
 21
-61.31093131038608
 31
0.0
  0
LINE
  5
250
330
1F
100
AcDbEntity
  8
Default
100
AcDbLine
 10
76.99495502286959
 20
-61.31093131038608
 30
0.0
 11
74.49495502286959
 21
-61.31093131038608
 31
0.0
  0
LINE
  5
251
330
1F
100
AcDbEntity
  8
Default
100
AcDbLine
 10
37.5949550228699
 20
-24.96093131038919
 30
0.0
 11
37.59495502286978
 21
-22.46093131038919
 31
0.0
  0
LINE
  5
252
330
1F
100
AcDbEntity
  8
Default
100
AcDbLine
 10
37.59495502286978
 20
-22.46093131038919
 30
0.0
 11
34.74495502286879
 21
-22.46093131038919
 31
0.0
  0
LINE
  5
253
330
1F
100
AcDbEntity
  8
Default
100
AcDbLine
 10
34.74495502286879
 20
-22.46093131038919
 30
0.0
 11
32.89495502286792
 21
-22.46093131038919
 31
0.0
  0
LINE
  5
254
330
1F
100
AcDbEntity
  8
Default
100
AcDbLine
 10
32.89495502286792
 20
-22.46093131038919
 30
0.0
 11
31.8949550228678
 21
-21.31093131038921
 31
0.0
  0
LINE
  5
255
330
1F
100
AcDbEntity
  8
Default
100
AcDbLine
 10
31.8949550228678
 20
-21.31093131038921
 30
0.0
 11
31.8949550228678
 21
-17.31093131038921
 31
0.0
  0
ARC
  5
256
330
1F
100
AcDbEntity
  8
Default
100
AcDbCircle
 10
-32.8949550228678
 20
-17.31093131038921
 30
0.0
 40
1.0
210
0.0
220
0.0
230
-1.0
100
AcDbArc
 50
359.9999999999994
 51
90.0
  0
LINE
  5
257
330
1F
100
AcDbEntity
  8
Default
100
AcDbLine
 10
32.8949550228678
 20
-16.31093131038921
 30
0.0
 11
34.74495502286885
 21
-16.31093131038921
 31
0.0
  0
LINE
  5
258
330
1F
100
AcDbEntity
  8
Default
100
AcDbLine
 10
34.74495502286885
 20
-16.31093131038921
 30
0.0
 11
37.59495502286984
 21
-16.31093131038909
 31
0.0
  0
LINE
  5
259
330
1F
100
AcDbEntity
  8
Default
100
AcDbLine
 10
37.59495502286984
 20
-16.31093131038909
 30
0.0
 11
40.74495502286874
 21
-16.31093131038915
 31
0.0
  0
LINE
  5
25A
330
1F
100
AcDbEntity
  8
Default
100
AcDbLine
 10
40.74495502286874
 20
-16.31093131038915
 30
0.0
 11
43.14495502287303
 21
-16.31093131038915
 31
0.0
  0
LINE
  5
25B
330
1F
100
AcDbEntity
  8
Default
100
AcDbLine
 10
43.14495502287303
 20
-16.31093131038915
 30
0.0
 11
46.29495502287193
 21
-16.31093131038909
 31
0.0
  0
LINE
  5
25C
330
1F
100
AcDbEntity
  8
Default
100
AcDbLine
 10
46.29495502287193
 20
-16.31093131038909
 30
0.0
 11
49.14495502287292
 21
-16.31093131038921
 31
0.0
  0
LINE
  5
25D
330
1F
100
AcDbEntity
  8
Default
100
AcDbLine
 10
49.14495502287292
 20
-16.31093131038921
 30
0.0
 11
50.99495502287397
 21
-16.31093131038921
 31
0.0
  0
ARC
  5
25E
330
1F
100
AcDbEntity
  8
Default
100
AcDbCircle
 10
-50.99495502287397
 20
-17.31093131038921
 30
0.0
 40
1.0
210
0.0
220
0.0
230
-1.0
100
AcDbArc
 50
90.0
 51
180.0000000000006
  0
LINE
  5
25F
330
1F
100
AcDbEntity
  8
Default
100
AcDbLine
 10
51.99495502287397
 20
-17.31093131038921
 30
0.0
 11
51.99495502287397
 21
-21.31093131038921
 31
0.0
  0
LINE
  5
260
330
1F
100
AcDbEntity
  8
Default
100
AcDbLine
 10
51.99495502287397
 20
-21.31093131038921
 30
0.0
 11
50.99495502287385
 21
-22.46093131038919
 31
0.0
  0
LINE
  5
261
330
1F
100
AcDbEntity
  8
Default
100
AcDbLine
 10
50.99495502287385
 20
-22.46093131038919
 30
0.0
 11
49.14495502287298
 21
-22.46093131038919
 31
0.0
  0
LINE
  5
262
330
1F
100
AcDbEntity
  8
Default
100
AcDbLine
 10
49.14495502287298
 20
-22.46093131038919
 30
0.0
 11
46.29495502287199
 21
-22.46093131038919
 31
0.0
  0
LINE
  5
263
330
1F
100
AcDbEntity
  8
Default
100
AcDbLine
 10
46.29495502287199
 20
-22.46093131038919
 30
0.0
 11
46.29495502287187
 21
-24.96093131038919
 31
0.0
  0
LINE
  5
264
330
1F
100
AcDbEntity
  8
Default
100
AcDbLine
 10
10.39495502287087
 20
-52.16093131038667
 30
0.0
 11
37.59495502287075
 21
-24.96093131038685
 31
0.0
  0
LINE
  5
265
330
1F
100
AcDbEntity
  8
Default
100
AcDbLine
 10
46.2949550228725
 20
-24.96093131038981
 30
0.0
 11
73.49495502286965
 21
-52.1609313103869
 31
0.0
  0
LINE
  5
266
330
1F
100
AcDbEntity
  8
Default
100
AcDbLine
 10
248.532485678274
 20
-53.64026415095941
 30
0.0
 11
246.032485678274
 21
-53.6402641509593
 31
0.0
  0
LINE
  5
267
330
1F
100
AcDbEntity
  8
Default
100
AcDbLine
 10
248.532485678274
 20
-51.79026415095848
 30
0.0
 11
248.532485678274
 21
-53.64026415095941
 31
0.0
  0
LINE
  5
268
330
1F
100
AcDbEntity
  8
Default
100
AcDbLine
 10
249.5324856782744
 20
-50.79026415095871
 30
0.0
 11
248.532485678274
 21
-51.79026415095848
 31
0.0
  0
LINE
  5
269
330
1F
100
AcDbEntity
  8
Default
100
AcDbLine
 10
253.682485678274
 20
-50.79026415095871
 30
0.0
 11
249.5324856782744
 21
-50.79026415095871
 31
0.0
  0
ARC
  5
26A
330
1F
100
AcDbEntity
  8
Default
100
AcDbCircle
 10
253.682485678274
 20
-51.79026415095871
 30
0.0
 40
1.0
100
AcDbArc
 50
0.0
 51
90.0
  0
LINE
  5
26B
330
1F
100
AcDbEntity
  8
Default
100
AcDbLine
 10
254.682485678274
 20
-56.79026415095871
 30
0.0
 11
254.682485678274
 21
-51.79026415095871
 31
0.0
  0
LINE
  5
26C
330
1F
100
AcDbEntity
  8
Default
100
AcDbLine
 10
254.682485678274
 20
-61.79026415095871
 30
0.0
 11
254.682485678274
 21
-56.79026415095871
 31
0.0
  0
ARC
  5
26D
330
1F
100
AcDbEntity
  8
Default
100
AcDbCircle
 10
253.682485678274
 20
-61.79026415095871
 30
0.0
 40
1.0
100
AcDbArc
 50
270.0
 51
0.0
  0
LINE
  5
26E
330
1F
100
AcDbEntity
  8
Default
100
AcDbLine
 10
249.682485678274
 20
-62.79026415095871
 30
0.0
 11
253.682485678274
 21
-62.79026415095871
 31
0.0
  0
LINE
  5
26F
330
1F
100
AcDbEntity
  8
Default
100
AcDbLine
 10
249.5324856782744
 20
-62.79026415095871
 30
0.0
 11
249.682485678274
 21
-62.79026415095871
 31
0.0
  0
LINE
  5
270
330
1F
100
AcDbEntity
  8
Default
100
AcDbLine
 10
248.532485678274
 20
-61.79026415095848
 30
0.0
 11
249.5324856782744
 21
-62.79026415095871
 31
0.0
  0
LINE
  5
271
330
1F
100
AcDbEntity
  8
Default
100
AcDbLine
 10
248.5324856782738
 20
-59.94026415095766
 30
0.0
 11
248.532485678274
 21
-61.79026415095848
 31
0.0
  0
LINE
  5
272
330
1F
100
AcDbEntity
  8
Default
100
AcDbLine
 10
246.0324856782739
 20
-59.94026415095777
 30
0.0
 11
248.5324856782738
 21
-59.94026415095766
 31
0.0
  0
LINE
  5
273
330
1F
100
AcDbEntity
  8
Default
100
AcDbLine
 10
246.032485678274
 20
-61.79026415095848
 30
0.0
 11
246.0324856782739
 21
-59.94026415095777
 31
0.0
  0
LINE
  5
274
330
1F
100
AcDbEntity
  8
Default
100
AcDbLine
 10
245.0324856782736
 20
-62.79026415095836
 30
0.0
 11
246.032485678274
 21
-61.79026415095848
 31
0.0
  0
LINE
  5
275
330
1F
100
AcDbEntity
  8
Default
100
AcDbLine
 10
240.8824856782741
 20
-62.79026415095836
 30
0.0
 11
245.0324856782736
 21
-62.79026415095836
 31
0.0
  0
ARC
  5
276
330
1F
100
AcDbEntity
  8
Default
100
AcDbCircle
 10
240.8824856782741
 20
-61.79026415095836
 30
0.0
 40
1.0
100
AcDbArc
 50
180.0
 51
270.0
  0
LINE
  5
277
330
1F
100
AcDbEntity
  8
Default
100
AcDbLine
 10
239.8824856782741
 20
-56.79026415095825
 30
0.0
 11
239.8824856782741
 21
-61.79026415095836
 31
0.0
  0
LINE
  5
278
330
1F
100
AcDbEntity
  8
Default
100
AcDbLine
 10
239.8824856782741
 20
-51.79026415095836
 30
0.0
 11
239.8824856782741
 21
-56.79026415095825
 31
0.0
  0
ARC
  5
279
330
1F
100
AcDbEntity
  8
Default
100
AcDbCircle
 10
240.8824856782741
 20
-51.79026415095836
 30
0.0
 40
1.0
100
AcDbArc
 50
90.0
 51
180.0
  0
LINE
  5
27A
330
1F
100
AcDbEntity
  8
Default
100
AcDbLine
 10
244.8824856782741
 20
-50.79026415095836
 30
0.0
 11
240.8824856782741
 21
-50.79026415095836
 31
0.0
  0
LINE
  5
27B
330
1F
100
AcDbEntity
  8
Default
100
AcDbLine
 10
245.0324856782737
 20
-50.79026415095836
 30
0.0
 11
244.8824856782741
 21
-50.79026415095836
 31
0.0
  0
LINE
  5
27C
330
1F
100
AcDbEntity
  8
Default
100
AcDbLine
 10
246.032485678274
 20
-51.79026415095848
 30
0.0
 11
245.0324856782737
 21
-50.79026415095836
 31
0.0
  0
LINE
  5
27D
330
1F
100
AcDbEntity
  8
Default
100
AcDbLine
 10
246.032485678274
 20
-53.6402641509593
 30
0.0
 11
246.032485678274
 21
-51.79026415095848
 31
0.0
  0
LINE
  5
27E
330
1F
100
AcDbEntity
  8
Default
100
AcDbLine
 10
229.5324856782738
 20
-59.94026415095743
 30
0.0
 11
232.0324856782738
 21
-59.94026415095743
 31
0.0
  0
LINE
  5
27F
330
1F
100
AcDbEntity
  8
Default
100
AcDbLine
 10
232.032485678274
 20
-53.64026415095907
 30
0.0
 11
229.532485678274
 21
-53.64026415095907
 31
0.0
  0
LINE
  5
280
330
1F
100
AcDbEntity
  8
Default
100
AcDbLine
 10
232.0324856782739
 20
-51.79026415095825
 30
0.0
 11
232.032485678274
 21
-53.64026415095907
 31
0.0
  0
LINE
  5
281
330
1F
100
AcDbEntity
  8
Default
100
AcDbLine
 10
233.0324856782743
 20
-50.79026415095848
 30
0.0
 11
232.0324856782739
 21
-51.79026415095825
 31
0.0
  0
LINE
  5
282
330
1F
100
AcDbEntity
  8
Default
100
AcDbLine
 10
237.1824856782739
 20
-50.79026415095848
 30
0.0
 11
233.0324856782743
 21
-50.79026415095848
 31
0.0
  0
ARC
  5
283
330
1F
100
AcDbEntity
  8
Default
100
AcDbCircle
 10
237.1824856782739
 20
-51.79026415095848
 30
0.0
 40
1.0
100
AcDbArc
 50
359.9999999999992
 51
90.0
  0
LINE
  5
284
330
1F
100
AcDbEntity
  8
Default
100
AcDbLine
 10
238.1824856782738
 20
-56.79026415095848
 30
0.0
 11
238.1824856782739
 21
-51.79026415095848
 31
0.0
  0
LINE
  5
285
330
1F
100
AcDbEntity
  8
Default
100
AcDbLine
 10
238.1824856782738
 20
-61.79026415095848
 30
0.0
 11
238.1824856782738
 21
-56.79026415095848
 31
0.0
  0
ARC
  5
286
330
1F
100
AcDbEntity
  8
Default
100
AcDbCircle
 10
237.1824856782738
 20
-61.79026415095848
 30
0.0
 40
1.0
100
AcDbArc
 50
270.0
 51
359.9999999999992
  0
LINE
  5
287
330
1F
100
AcDbEntity
  8
Default
100
AcDbLine
 10
233.1824856782738
 20
-62.79026415095848
 30
0.0
 11
237.1824856782738
 21
-62.79026415095848
 31
0.0
  0
LINE
  5
288
330
1F
100
AcDbEntity
  8
Default
100
AcDbLine
 10
233.0324856782742
 20
-62.79026415095848
 30
0.0
 11
233.1824856782738
 21
-62.79026415095848
 31
0.0
  0
LINE
  5
289
330
1F
100
AcDbEntity
  8
Default
100
AcDbLine
 10
232.0324856782738
 20
-61.79026415095825
 30
0.0
 11
233.0324856782742
 21
-62.79026415095848
 31
0.0
  0
LINE
  5
28A
330
1F
100
AcDbEntity
  8
Default
100
AcDbLine
 10
232.0324856782738
 20
-59.94026415095743
 30
0.0
 11
232.0324856782738
 21
-61.79026415095825
 31
0.0
  0
LINE
  5
28B
330
1F
100
AcDbEntity
  8
Default
100
AcDbLine
 10
229.532485678274
 20
-53.64026415095941
 30
0.0
 11
227.032485678274
 21
-53.6402641509593
 31
0.0
  0
LINE
  5
28C
330
1F
100
AcDbEntity
  8
Default
100
AcDbLine
 10
227.0324856782739
 20
-59.94026415095777
 30
0.0
 11
229.5324856782739
 21
-59.94026415095766
 31
0.0
  0
LINE
  5
28D
330
1F
100
AcDbEntity
  8
Default
100
AcDbLine
 10
227.032485678274
 20
-61.79026415095848
 30
0.0
 11
227.0324856782739
 21
-59.94026415095777
 31
0.0
  0
LINE
  5
28E
330
1F
100
AcDbEntity
  8
Default
100
AcDbLine
 10
226.0324856782736
 20
-62.79026415095836
 30
0.0
 11
227.032485678274
 21
-61.79026415095848
 31
0.0
  0
LINE
  5
28F
330
1F
100
AcDbEntity
  8
Default
100
AcDbLine
 10
221.8824856782741
 20
-62.79026415095836
 30
0.0
 11
226.0324856782736
 21
-62.79026415095836
 31
0.0
  0
ARC
  5
290
330
1F
100
AcDbEntity
  8
Default
100
AcDbCircle
 10
221.8824856782741
 20
-61.79026415095836
 30
0.0
 40
1.0
100
AcDbArc
 50
180.0
 51
270.0
  0
LINE
  5
291
330
1F
100
AcDbEntity
  8
Default
100
AcDbLine
 10
220.8824856782741
 20
-56.79026415095825
 30
0.0
 11
220.8824856782741
 21
-61.79026415095836
 31
0.0
  0
LINE
  5
292
330
1F
100
AcDbEntity
  8
Default
100
AcDbLine
 10
220.8824856782741
 20
-51.79026415095836
 30
0.0
 11
220.8824856782741
 21
-56.79026415095825
 31
0.0
  0
ARC
  5
293
330
1F
100
AcDbEntity
  8
Default
100
AcDbCircle
 10
221.8824856782741
 20
-51.79026415095836
 30
0.0
 40
1.0
100
AcDbArc
 50
90.0
 51
180.0
  0
LINE
  5
294
330
1F
100
AcDbEntity
  8
Default
100
AcDbLine
 10
225.8824856782741
 20
-50.79026415095836
 30
0.0
 11
221.8824856782741
 21
-50.79026415095836
 31
0.0
  0
LINE
  5
295
330
1F
100
AcDbEntity
  8
Default
100
AcDbLine
 10
226.0324856782737
 20
-50.79026415095836
 30
0.0
 11
225.8824856782741
 21
-50.79026415095836
 31
0.0
  0
LINE
  5
296
330
1F
100
AcDbEntity
  8
Default
100
AcDbLine
 10
227.032485678274
 20
-51.79026415095848
 30
0.0
 11
226.0324856782737
 21
-50.79026415095836
 31
0.0
  0
LINE
  5
297
330
1F
100
AcDbEntity
  8
Default
100
AcDbLine
 10
227.032485678274
 20
-53.6402641509593
 30
0.0
 11
227.032485678274
 21
-51.79026415095848
 31
0.0
  0
LINE
  5
298
330
1F
100
AcDbEntity
  8
Default
100
AcDbLine
 10
214.432485678274
 20
-53.64026415095918
 30
0.0
 11
211.9324856782741
 21
-53.64026415095907
 31
0.0
  0
LINE
  5
299
330
1F
100
AcDbEntity
  8
Default
100
AcDbLine
 10
214.432485678274
 20
-51.79026415095825
 30
0.0
 11
214.432485678274
 21
-53.64026415095918
 31
0.0
  0
LINE
  5
29A
330
1F
100
AcDbEntity
  8
Default
100
AcDbLine
 10
215.4324856782744
 20
-50.79026415095848
 30
0.0
 11
214.432485678274
 21
-51.79026415095825
 31
0.0
  0
LINE
  5
29B
330
1F
100
AcDbEntity
  8
Default
100
AcDbLine
 10
219.582485678274
 20
-50.79026415095848
 30
0.0
 11
215.4324856782744
 21
-50.79026415095848
 31
0.0
  0
ARC
  5
29C
330
1F
100
AcDbEntity
  8
Default
100
AcDbCircle
 10
219.582485678274
 20
-51.79026415095848
 30
0.0
 40
1.0
100
AcDbArc
 50
0.0
 51
90.0
  0
LINE
  5
29D
330
1F
100
AcDbEntity
  8
Default
100
AcDbLine
 10
220.582485678274
 20
-56.79026415095848
 30
0.0
 11
220.582485678274
 21
-51.79026415095848
 31
0.0
  0
LINE
  5
29E
330
1F
100
AcDbEntity
  8
Default
100
AcDbLine
 10
220.582485678274
 20
-61.79026415095848
 30
0.0
 11
220.582485678274
 21
-56.79026415095848
 31
0.0
  0
ARC
  5
29F
330
1F
100
AcDbEntity
  8
Default
100
AcDbCircle
 10
219.582485678274
 20
-61.79026415095848
 30
0.0
 40
1.0
100
AcDbArc
 50
270.0
 51
0.0
  0
LINE
  5
2A0
330
1F
100
AcDbEntity
  8
Default
100
AcDbLine
 10
215.582485678274
 20
-62.79026415095848
 30
0.0
 11
219.582485678274
 21
-62.79026415095848
 31
0.0
  0
LINE
  5
2A1
330
1F
100
AcDbEntity
  8
Default
100
AcDbLine
 10
215.4324856782744
 20
-62.79026415095848
 30
0.0
 11
215.582485678274
 21
-62.79026415095848
 31
0.0
  0
LINE
  5
2A2
330
1F
100
AcDbEntity
  8
Default
100
AcDbLine
 10
214.432485678274
 20
-61.79026415095825
 30
0.0
 11
215.4324856782744
 21
-62.79026415095848
 31
0.0
  0
LINE
  5
2A3
330
1F
100
AcDbEntity
  8
Default
100
AcDbLine
 10
214.4324856782738
 20
-59.94026415095743
 30
0.0
 11
214.432485678274
 21
-61.79026415095825
 31
0.0
  0
LINE
  5
2A4
330
1F
100
AcDbEntity
  8
Default
100
AcDbLine
 10
211.9324856782739
 20
-59.94026415095755
 30
0.0
 11
214.4324856782738
 21
-59.94026415095743
 31
0.0
  0
LINE
  5
2A5
330
1F
100
AcDbEntity
  8
Default
100
AcDbLine
 10
211.932485678274
 20
-61.79026415095825
 30
0.0
 11
211.9324856782739
 21
-59.94026415095755
 31
0.0
  0
LINE
  5
2A6
330
1F
100
AcDbEntity
  8
Default
100
AcDbLine
 10
210.9324856782737
 20
-62.79026415095814
 30
0.0
 11
211.932485678274
 21
-61.79026415095825
 31
0.0
  0
LINE
  5
2A7
330
1F
100
AcDbEntity
  8
Default
100
AcDbLine
 10
206.782485678274
 20
-62.79026415095814
 30
0.0
 11
210.9324856782737
 21
-62.79026415095814
 31
0.0
  0
ARC
  5
2A8
330
1F
100
AcDbEntity
  8
Default
100
AcDbCircle
 10
206.782485678274
 20
-61.79026415095814
 30
0.0
 40
1.0
100
AcDbArc
 50
180.0
 51
270.0
  0
LINE
  5
2A9
330
1F
100
AcDbEntity
  8
Default
100
AcDbLine
 10
205.782485678274
 20
-56.79026415095802
 30
0.0
 11
205.782485678274
 21
-61.79026415095814
 31
0.0
  0
LINE
  5
2AA
330
1F
100
AcDbEntity
  8
Default
100
AcDbLine
 10
205.7824856782741
 20
-51.79026415095814
 30
0.0
 11
205.782485678274
 21
-56.79026415095802
 31
0.0
  0
ARC
  5
2AB
330
1F
100
AcDbEntity
  8
Default
100
AcDbCircle
 10
206.7824856782741
 20
-51.79026415095814
 30
0.0
 40
1.0
100
AcDbArc
 50
90.0
 51
180.0
  0
LINE
  5
2AC
330
1F
100
AcDbEntity
  8
Default
100
AcDbLine
 10
210.7824856782741
 20
-50.79026415095814
 30
0.0
 11
206.7824856782741
 21
-50.79026415095814
 31
0.0
  0
LINE
  5
2AD
330
1F
100
AcDbEntity
  8
Default
100
AcDbLine
 10
210.9324856782737
 20
-50.79026415095814
 30
0.0
 11
210.7824856782741
 21
-50.79026415095814
 31
0.0
  0
LINE
  5
2AE
330
1F
100
AcDbEntity
  8
Default
100
AcDbLine
 10
211.932485678274
 20
-51.79026415095825
 30
0.0
 11
210.9324856782737
 21
-50.79026415095814
 31
0.0
  0
LINE
  5
2AF
330
1F
100
AcDbEntity
  8
Default
100
AcDbLine
 10
211.9324856782741
 20
-53.64026415095907
 30
0.0
 11
211.932485678274
 21
-51.79026415095825
 31
0.0
  0
LINE
  5
2B0
330
1F
100
AcDbEntity
  8
Default
100
AcDbLine
 10
195.4324856782738
 20
-59.9402641509572
 30
0.0
 11
197.9324856782738
 21
-59.9402641509572
 31
0.0
  0
LINE
  5
2B1
330
1F
100
AcDbEntity
  8
Default
100
AcDbLine
 10
197.932485678274
 20
-53.64026415095884
 30
0.0
 11
195.432485678274
 21
-53.64026415095884
 31
0.0
  0
LINE
  5
2B2
330
1F
100
AcDbEntity
  8
Default
100
AcDbLine
 10
197.9324856782739
 20
-51.79026415095802
 30
0.0
 11
197.932485678274
 21
-53.64026415095884
 31
0.0
  0
LINE
  5
2B3
330
1F
100
AcDbEntity
  8
Default
100
AcDbLine
 10
198.9324856782743
 20
-50.79026415095825
 30
0.0
 11
197.9324856782739
 21
-51.79026415095802
 31
0.0
  0
LINE
  5
2B4
330
1F
100
AcDbEntity
  8
Default
100
AcDbLine
 10
203.0824856782739
 20
-50.79026415095825
 30
0.0
 11
198.9324856782743
 21
-50.79026415095825
 31
0.0
  0
ARC
  5
2B5
330
1F
100
AcDbEntity
  8
Default
100
AcDbCircle
 10
203.0824856782739
 20
-51.79026415095825
 30
0.0
 40
1.0
100
AcDbArc
 50
359.9999999999992
 51
90.0
  0
LINE
  5
2B6
330
1F
100
AcDbEntity
  8
Default
100
AcDbLine
 10
204.0824856782738
 20
-56.79026415095825
 30
0.0
 11
204.0824856782739
 21
-51.79026415095825
 31
0.0
  0
LINE
  5
2B7
330
1F
100
AcDbEntity
  8
Default
100
AcDbLine
 10
204.0824856782738
 20
-61.79026415095825
 30
0.0
 11
204.0824856782738
 21
-56.79026415095825
 31
0.0
  0
ARC
  5
2B8
330
1F
100
AcDbEntity
  8
Default
100
AcDbCircle
 10
203.0824856782738
 20
-61.79026415095825
 30
0.0
 40
1.0
100
AcDbArc
 50
270.0
 51
359.9999999999992
  0
LINE
  5
2B9
330
1F
100
AcDbEntity
  8
Default
100
AcDbLine
 10
199.0824856782738
 20
-62.79026415095825
 30
0.0
 11
203.0824856782738
 21
-62.79026415095825
 31
0.0
  0
LINE
  5
2BA
330
1F
100
AcDbEntity
  8
Default
100
AcDbLine
 10
198.9324856782741
 20
-62.79026415095825
 30
0.0
 11
199.0824856782738
 21
-62.79026415095825
 31
0.0
  0
LINE
  5
2BB
330
1F
100
AcDbEntity
  8
Default
100
AcDbLine
 10
197.9324856782738
 20
-61.79026415095802
 30
0.0
 11
198.9324856782741
 21
-62.79026415095825
 31
0.0
  0
LINE
  5
2BC
330
1F
100
AcDbEntity
  8
Default
100
AcDbLine
 10
197.9324856782738
 20
-59.9402641509572
 30
0.0
 11
197.9324856782738
 21
-61.79026415095802
 31
0.0
  0
LINE
  5
2BD
330
1F
100
AcDbEntity
  8
Default
100
AcDbLine
 10
195.432485678274
 20
-53.64026415095918
 30
0.0
 11
192.9324856782741
 21
-53.64026415095907
 31
0.0
  0
LINE
  5
2BE
330
1F
100
AcDbEntity
  8
Default
100
AcDbLine
 10
192.9324856782739
 20
-59.94026415095755
 30
0.0
 11
195.4324856782738
 21
-59.94026415095743
 31
0.0
  0
LINE
  5
2BF
330
1F
100
AcDbEntity
  8
Default
100
AcDbLine
 10
192.932485678274
 20
-61.79026415095825
 30
0.0
 11
192.9324856782739
 21
-59.94026415095755
 31
0.0
  0
LINE
  5
2C0
330
1F
100
AcDbEntity
  8
Default
100
AcDbLine
 10
191.9324856782737
 20
-62.79026415095814
 30
0.0
 11
192.932485678274
 21
-61.79026415095825
 31
0.0
  0
LINE
  5
2C1
330
1F
100
AcDbEntity
  8
Default
100
AcDbLine
 10
187.782485678274
 20
-62.79026415095814
 30
0.0
 11
191.9324856782737
 21
-62.79026415095814
 31
0.0
  0
ARC
  5
2C2
330
1F
100
AcDbEntity
  8
Default
100
AcDbCircle
 10
187.782485678274
 20
-61.79026415095814
 30
0.0
 40
1.0
100
AcDbArc
 50
180.0
 51
270.0
  0
LINE
  5
2C3
330
1F
100
AcDbEntity
  8
Default
100
AcDbLine
 10
186.782485678274
 20
-56.79026415095802
 30
0.0
 11
186.782485678274
 21
-61.79026415095814
 31
0.0
  0
LINE
  5
2C4
330
1F
100
AcDbEntity
  8
Default
100
AcDbLine
 10
186.7824856782741
 20
-51.79026415095814
 30
0.0
 11
186.782485678274
 21
-56.79026415095802
 31
0.0
  0
ARC
  5
2C5
330
1F
100
AcDbEntity
  8
Default
100
AcDbCircle
 10
187.7824856782741
 20
-51.79026415095814
 30
0.0
 40
1.0
100
AcDbArc
 50
90.0
 51
180.0
  0
LINE
  5
2C6
330
1F
100
AcDbEntity
  8
Default
100
AcDbLine
 10
191.7824856782741
 20
-50.79026415095814
 30
0.0
 11
187.7824856782741
 21
-50.79026415095814
 31
0.0
  0
LINE
  5
2C7
330
1F
100
AcDbEntity
  8
Default
100
AcDbLine
 10
191.9324856782737
 20
-50.79026415095814
 30
0.0
 11
191.7824856782741
 21
-50.79026415095814
 31
0.0
  0
LINE
  5
2C8
330
1F
100
AcDbEntity
  8
Default
100
AcDbLine
 10
192.932485678274
 20
-51.79026415095825
 30
0.0
 11
191.9324856782737
 21
-50.79026415095814
 31
0.0
  0
LINE
  5
2C9
330
1F
100
AcDbEntity
  8
Default
100
AcDbLine
 10
192.9324856782741
 20
-53.64026415095907
 30
0.0
 11
192.932485678274
 21
-51.79026415095825
 31
0.0
  0
LINE
  5
2CA
330
1F
100
AcDbEntity
  8
Default
100
AcDbLine
 10
248.432485678274
 20
-40.64026415095918
 30
0.0
 11
245.9324856782741
 21
-40.64026415095907
 31
0.0
  0
LINE
  5
2CB
330
1F
100
AcDbEntity
  8
Default
100
AcDbLine
 10
248.432485678274
 20
-38.79026415095831
 30
0.0
 11
248.432485678274
 21
-40.64026415095918
 31
0.0
  0
LINE
  5
2CC
330
1F
100
AcDbEntity
  8
Default
100
AcDbLine
 10
249.4324856782744
 20
-37.79026415095842
 30
0.0
 11
248.432485678274
 21
-38.79026415095831
 31
0.0
  0
LINE
  5
2CD
330
1F
100
AcDbEntity
  8
Default
100
AcDbLine
 10
253.582485678274
 20
-37.79026415095842
 30
0.0
 11
249.4324856782744
 21
-37.79026415095842
 31
0.0
  0
ARC
  5
2CE
330
1F
100
AcDbEntity
  8
Default
100
AcDbCircle
 10
253.582485678274
 20
-38.79026415095842
 30
0.0
 40
1.0
100
AcDbArc
 50
0.0
 51
90.0
  0
LINE
  5
2CF
330
1F
100
AcDbEntity
  8
Default
100
AcDbLine
 10
254.582485678274
 20
-43.79026415095842
 30
0.0
 11
254.582485678274
 21
-38.79026415095842
 31
0.0
  0
LINE
  5
2D0
330
1F
100
AcDbEntity
  8
Default
100
AcDbLine
 10
254.582485678274
 20
-48.79026415095842
 30
0.0
 11
254.582485678274
 21
-43.79026415095842
 31
0.0
  0
ARC
  5
2D1
330
1F
100
AcDbEntity
  8
Default
100
AcDbCircle
 10
253.582485678274
 20
-48.79026415095842
 30
0.0
 40
1.0
100
AcDbArc
 50
270.0
 51
0.0
  0
LINE
  5
2D2
330
1F
100
AcDbEntity
  8
Default
100
AcDbLine
 10
249.582485678274
 20
-49.79026415095848
 30
0.0
 11
253.582485678274
 21
-49.79026415095848
 31
0.0
  0
LINE
  5
2D3
330
1F
100
AcDbEntity
  8
Default
100
AcDbLine
 10
249.4324856782744
 20
-49.79026415095848
 30
0.0
 11
249.582485678274
 21
-49.79026415095848
 31
0.0
  0
LINE
  5
2D4
330
1F
100
AcDbEntity
  8
Default
100
AcDbLine
 10
248.432485678274
 20
-48.79026415095831
 30
0.0
 11
249.4324856782744
 21
-49.79026415095848
 31
0.0
  0
LINE
  5
2D5
330
1F
100
AcDbEntity
  8
Default
100
AcDbLine
 10
248.4324856782738
 20
-46.94026415095749
 30
0.0
 11
248.432485678274
 21
-48.79026415095831
 31
0.0
  0
LINE
  5
2D6
330
1F
100
AcDbEntity
  8
Default
100
AcDbLine
 10
245.9324856782739
 20
-46.94026415095755
 30
0.0
 11
248.4324856782738
 21
-46.94026415095749
 31
0.0
  0
LINE
  5
2D7
330
1F
100
AcDbEntity
  8
Default
100
AcDbLine
 10
245.932485678274
 20
-48.79026415095831
 30
0.0
 11
245.9324856782739
 21
-46.94026415095755
 31
0.0
  0
LINE
  5
2D8
330
1F
100
AcDbEntity
  8
Default
100
AcDbLine
 10
244.9324856782737
 20
-49.79026415095814
 30
0.0
 11
245.932485678274
 21
-48.79026415095831
 31
0.0
  0
LINE
  5
2D9
330
1F
100
AcDbEntity
  8
Default
100
AcDbLine
 10
240.782485678274
 20
-49.79026415095814
 30
0.0
 11
244.9324856782737
 21
-49.79026415095814
 31
0.0
  0
ARC
  5
2DA
330
1F
100
AcDbEntity
  8
Default
100
AcDbCircle
 10
240.782485678274
 20
-48.79026415095814
 30
0.0
 40
1.0
100
AcDbArc
 50
180.0
 51
270.0
  0
LINE
  5
2DB
330
1F
100
AcDbEntity
  8
Default
100
AcDbLine
 10
239.782485678274
 20
-43.79026415095808
 30
0.0
 11
239.782485678274
 21
-48.79026415095814
 31
0.0
  0
LINE
  5
2DC
330
1F
100
AcDbEntity
  8
Default
100
AcDbLine
 10
239.7824856782741
 20
-38.79026415095814
 30
0.0
 11
239.782485678274
 21
-43.79026415095808
 31
0.0
  0
ARC
  5
2DD
330
1F
100
AcDbEntity
  8
Default
100
AcDbCircle
 10
240.7824856782741
 20
-38.79026415095814
 30
0.0
 40
1.0
100
AcDbArc
 50
90.0
 51
180.0
  0
LINE
  5
2DE
330
1F
100
AcDbEntity
  8
Default
100
AcDbLine
 10
244.7824856782741
 20
-37.79026415095814
 30
0.0
 11
240.7824856782741
 21
-37.79026415095814
 31
0.0
  0
LINE
  5
2DF
330
1F
100
AcDbEntity
  8
Default
100
AcDbLine
 10
244.9324856782737
 20
-37.79026415095814
 30
0.0
 11
244.7824856782741
 21
-37.79026415095814
 31
0.0
  0
LINE
  5
2E0
330
1F
100
AcDbEntity
  8
Default
100
AcDbLine
 10
245.932485678274
 20
-38.79026415095825
 30
0.0
 11
244.9324856782737
 21
-37.79026415095814
 31
0.0
  0
LINE
  5
2E1
330
1F
100
AcDbEntity
  8
Default
100
AcDbLine
 10
245.9324856782741
 20
-40.64026415095907
 30
0.0
 11
245.932485678274
 21
-38.79026415095825
 31
0.0
  0
LINE
  5
2E2
330
1F
100
AcDbEntity
  8
Default
100
AcDbLine
 10
229.4324856782738
 20
-46.94026415095715
 30
0.0
 11
231.9324856782738
 21
-46.94026415095726
 31
0.0
  0
LINE
  5
2E3
330
1F
100
AcDbEntity
  8
Default
100
AcDbLine
 10
231.932485678274
 20
-40.64026415095879
 30
0.0
 11
229.432485678274
 21
-40.64026415095884
 31
0.0
  0
LINE
  5
2E4
330
1F
100
AcDbEntity
  8
Default
100
AcDbLine
 10
231.9324856782739
 20
-38.79026415095802
 30
0.0
 11
231.932485678274
 21
-40.64026415095879
 31
0.0
  0
LINE
  5
2E5
330
1F
100
AcDbEntity
  8
Default
100
AcDbLine
 10
232.9324856782743
 20
-37.79026415095819
 30
0.0
 11
231.9324856782739
 21
-38.79026415095802
 31
0.0
  0
LINE
  5
2E6
330
1F
100
AcDbEntity
  8
Default
100
AcDbLine
 10
237.0824856782739
 20
-37.79026415095825
 30
0.0
 11
232.9324856782743
 21
-37.79026415095819
 31
0.0
  0
ARC
  5
2E7
330
1F
100
AcDbEntity
  8
Default
100
AcDbCircle
 10
237.0824856782739
 20
-38.79026415095825
 30
0.0
 40
1.0
100
AcDbArc
 50
359.9999999999992
 51
90.0
  0
LINE
  5
2E8
330
1F
100
AcDbEntity
  8
Default
100
AcDbLine
 10
238.0824856782738
 20
-43.79026415095831
 30
0.0
 11
238.0824856782739
 21
-38.79026415095825
 31
0.0
  0
LINE
  5
2E9
330
1F
100
AcDbEntity
  8
Default
100
AcDbLine
 10
238.0824856782738
 20
-48.79026415095825
 30
0.0
 11
238.0824856782738
 21
-43.79026415095831
 31
0.0
  0
ARC
  5
2EA
330
1F
100
AcDbEntity
  8
Default
100
AcDbCircle
 10
237.0824856782738
 20
-48.79026415095825
 30
0.0
 40
1.0
100
AcDbArc
 50
270.0
 51
359.9999999999992
  0
LINE
  5
2EB
330
1F
100
AcDbEntity
  8
Default
100
AcDbLine
 10
233.0824856782738
 20
-49.79026415095825
 30
0.0
 11
237.0824856782738
 21
-49.79026415095825
 31
0.0
  0
LINE
  5
2EC
330
1F
100
AcDbEntity
  8
Default
100
AcDbLine
 10
232.9324856782741
 20
-49.79026415095825
 30
0.0
 11
233.0824856782738
 21
-49.79026415095825
 31
0.0
  0
LINE
  5
2ED
330
1F
100
AcDbEntity
  8
Default
100
AcDbLine
 10
231.9324856782738
 20
-48.79026415095808
 30
0.0
 11
232.9324856782741
 21
-49.79026415095825
 31
0.0
  0
LINE
  5
2EE
330
1F
100
AcDbEntity
  8
Default
100
AcDbLine
 10
231.9324856782738
 20
-46.94026415095726
 30
0.0
 11
231.9324856782738
 21
-48.79026415095808
 31
0.0
  0
LINE
  5
2EF
330
1F
100
AcDbEntity
  8
Default
100
AcDbLine
 10
229.432485678274
 20
-40.64026415095918
 30
0.0
 11
226.9324856782741
 21
-40.64026415095907
 31
0.0
  0
LINE
  5
2F0
330
1F
100
AcDbEntity
  8
Default
100
AcDbLine
 10
226.9324856782739
 20
-46.94026415095755
 30
0.0
 11
229.4324856782738
 21
-46.94026415095749
 31
0.0
  0
LINE
  5
2F1
330
1F
100
AcDbEntity
  8
Default
100
AcDbLine
 10
226.932485678274
 20
-48.79026415095831
 30
0.0
 11
226.9324856782739
 21
-46.94026415095755
 31
0.0
  0
LINE
  5
2F2
330
1F
100
AcDbEntity
  8
Default
100
AcDbLine
 10
225.9324856782737
 20
-49.79026415095814
 30
0.0
 11
226.932485678274
 21
-48.79026415095831
 31
0.0
  0
LINE
  5
2F3
330
1F
100
AcDbEntity
  8
Default
100
AcDbLine
 10
221.782485678274
 20
-49.79026415095814
 30
0.0
 11
225.9324856782737
 21
-49.79026415095814
 31
0.0
  0
ARC
  5
2F4
330
1F
100
AcDbEntity
  8
Default
100
AcDbCircle
 10
221.782485678274
 20
-48.79026415095814
 30
0.0
 40
1.0
100
AcDbArc
 50
180.0
 51
270.0
  0
LINE
  5
2F5
330
1F
100
AcDbEntity
  8
Default
100
AcDbLine
 10
220.782485678274
 20
-43.79026415095808
 30
0.0
 11
220.782485678274
 21
-48.79026415095814
 31
0.0
  0
LINE
  5
2F6
330
1F
100
AcDbEntity
  8
Default
100
AcDbLine
 10
220.7824856782741
 20
-38.79026415095814
 30
0.0
 11
220.782485678274
 21
-43.79026415095808
 31
0.0
  0
ARC
  5
2F7
330
1F
100
AcDbEntity
  8
Default
100
AcDbCircle
 10
221.7824856782741
 20
-38.79026415095814
 30
0.0
 40
1.0
100
AcDbArc
 50
90.0
 51
180.0
  0
LINE
  5
2F8
330
1F
100
AcDbEntity
  8
Default
100
AcDbLine
 10
225.7824856782741
 20
-37.79026415095814
 30
0.0
 11
221.7824856782741
 21
-37.79026415095814
 31
0.0
  0
LINE
  5
2F9
330
1F
100
AcDbEntity
  8
Default
100
AcDbLine
 10
225.9324856782737
 20
-37.79026415095814
 30
0.0
 11
225.7824856782741
 21
-37.79026415095814
 31
0.0
  0
LINE
  5
2FA
330
1F
100
AcDbEntity
  8
Default
100
AcDbLine
 10
226.932485678274
 20
-38.79026415095825
 30
0.0
 11
225.9324856782737
 21
-37.79026415095814
 31
0.0
  0
LINE
  5
2FB
330
1F
100
AcDbEntity
  8
Default
100
AcDbLine
 10
226.9324856782741
 20
-40.64026415095907
 30
0.0
 11
226.932485678274
 21
-38.79026415095825
 31
0.0
  0
LINE
  5
2FC
330
1F
100
AcDbEntity
  8
Default
100
AcDbLine
 10
212.2824856782743
 20
-64.79026415095836
 30
0.0
 11
212.2824856782742
 21
-66.6402641509593
 31
0.0
  0
LINE
  5
2FD
330
1F
100
AcDbEntity
  8
Default
100
AcDbLine
 10
209.7824856782743
 20
-64.79026415095836
 30
0.0
 11
208.7824856782739
 21
-63.79026415095825
 31
0.0
  0
LINE
  5
2FE
330
1F
100
AcDbEntity
  8
Default
100
AcDbLine
 10
208.7824856782739
 20
-63.79026415095825
 30
0.0
 11
208.6324856782743
 21
-63.79026415095825
 31
0.0
  0
LINE
  5
2FF
330
1F
100
AcDbEntity
  8
Default
100
AcDbLine
 10
203.6324856782743
 20
-64.79026415095825
 30
0.0
 11
203.6324856782743
 21
-69.79026415095825
 31
0.0
  0
LINE
  5
300
330
1F
100
AcDbEntity
  8
Default
100
AcDbLine
 10
203.6324856782743
 20
-69.79026415095825
 30
0.0
 11
203.6324856782742
 21
-74.79026415095825
 31
0.0
  0
ARC
  5
301
330
1F
100
AcDbEntity
  8
Default
100
AcDbCircle
 10
204.6324856782742
 20
-74.79026415095825
 30
0.0
 40
1.0
100
AcDbArc
 50
180.0
 51
270.0
  0
LINE
  5
302
330
1F
100
AcDbEntity
  8
Default
100
AcDbLine
 10
208.7824856782738
 20
-75.79026415095825
 30
0.0
 11
209.7824856782742
 21
-74.79026415095848
 31
0.0
  0
LINE
  5
303
330
1F
100
AcDbEntity
  8
Default
100
AcDbLine
 10
209.7824856782742
 20
-74.79026415095848
 30
0.0
 11
209.7824856782741
 21
-72.94026415095766
 31
0.0
  0
LINE
  5
304
330
1F
100
AcDbEntity
  8
Default
100
AcDbLine
 10
212.282485678274
 20
-72.94026415095766
 30
0.0
 11
212.2824856782742
 21
-74.79026415095825
 31
0.0
  0
LINE
  5
305
330
1F
100
AcDbEntity
  8
Default
100
AcDbLine
 10
212.2824856782742
 20
-74.79026415095825
 30
0.0
 11
213.2824856782743
 21
-75.79026415095825
 31
0.0
  0
LINE
  5
306
330
1F
100
AcDbEntity
  8
Default
100
AcDbLine
 10
213.2824856782743
 20
-75.79026415095825
 30
0.0
 11
242.4324856782742
 21
-75.79026415095825
 31
0.0
  0
LINE
  5
307
330
1F
100
AcDbEntity
  8
Default
100
AcDbLine
 10
242.5824856782755
 20
-75.79026415095825
 30
0.0
 11
243.5824856782734
 21
-74.79026415095848
 31
0.0
  0
LINE
  5
308
330
1F
100
AcDbEntity
  8
Default
100
AcDbLine
 10
243.5824856782734
 20
-74.79026415095848
 30
0.0
 11
243.5824856782733
 21
-72.94026415095777
 31
0.0
  0
LINE
  5
309
330
1F
100
AcDbEntity
  8
Default
100
AcDbLine
 10
242.5824856782722
 20
-63.79026415095848
 30
0.0
 11
242.4324856782727
 21
-63.79026415095848
 31
0.0
  0
LINE
  5
30A
330
1F
100
AcDbEntity
  8
Default
100
AcDbLine
 10
246.0824856782734
 20
-66.64026415095941
 30
0.0
 11
243.5824856782735
 21
-66.6402641509593
 31
0.0
  0
LINE
  5
30B
330
1F
100
AcDbEntity
  8
Default
100
AcDbLine
 10
243.5824856782733
 20
-72.94026415095777
 30
0.0
 11
246.0824856782733
 21
-72.94026415095766
 31
0.0
  0
ARC
  5
30C
330
1F
100
AcDbEntity
  8
Default
100
AcDbCircle
 10
251.2324856782734
 20
-64.7902641509587
 30
0.0
 40
1.0
100
AcDbArc
 50
0.0
 51
90.0
  0
LINE
  5
30D
330
1F
100
AcDbEntity
  8
Default
100
AcDbLine
 10
247.0824856782738
 20
-75.7902641509587
 30
0.0
 11
247.2324856782734
 21
-75.7902641509587
 31
0.0
  0
LINE
  5
30E
330
1F
100
AcDbEntity
  8
Default
100
AcDbLine
 10
246.0824856782733
 20
-72.94026415095766
 30
0.0
 11
246.0824856782734
 21
-74.79026415095848
 31
0.0
  0
LINE
  5
30F
330
1F
100
AcDbEntity
  8
Default
100
AcDbLine
 10
246.0824856782734
 20
-74.79026415095848
 30
0.0
 11
247.0824856782738
 21
-75.7902641509587
 31
0.0
  0
LINE
  5
310
330
1F
100
AcDbEntity
  8
Default
100
AcDbLine
 10
247.2324856782734
 20
-75.7902641509587
 30
0.0
 11
251.2324856782734
 21
-75.7902641509587
 31
0.0
  0
ARC
  5
311
330
1F
100
AcDbEntity
  8
Default
100
AcDbCircle
 10
251.2324856782734
 20
-74.7902641509587
 30
0.0
 40
1.0
100
AcDbArc
 50
270.0
 51
0.0
  0
LINE
  5
312
330
1F
100
AcDbEntity
  8
Default
100
AcDbLine
 10
252.2324856782734
 20
-74.7902641509587
 30
0.0
 11
252.2324856782734
 21
-69.7902641509587
 31
0.0
  0
LINE
  5
313
330
1F
100
AcDbEntity
  8
Default
100
AcDbLine
 10
252.2324856782734
 20
-69.7902641509587
 30
0.0
 11
252.2324856782734
 21
-64.7902641509587
 31
0.0
  0
LINE
  5
314
330
1F
100
AcDbEntity
  8
Default
100
AcDbLine
 10
251.2324856782734
 20
-63.79026415095871
 30
0.0
 11
247.0824856782738
 21
-63.79026415095871
 31
0.0
  0
LINE
  5
315
330
1F
100
AcDbEntity
  8
Default
100
AcDbLine
 10
247.0824856782738
 20
-63.79026415095871
 30
0.0
 11
246.0824856782734
 21
-64.79026415095848
 31
0.0
  0
LINE
  5
316
330
1F
100
AcDbEntity
  8
Default
100
AcDbLine
 10
246.0824856782734
 20
-64.79026415095848
 30
0.0
 11
246.0824856782734
 21
-66.64026415095941
 31
0.0
  0
LINE
  5
317
330
1F
100
AcDbEntity
  8
Default
100
AcDbLine
 10
243.5824856782735
 20
-64.79026415095848
 30
0.0
 11
242.5824856782734
 21
-63.79026415095848
 31
0.0
  0
LINE
  5
318
330
1F
100
AcDbEntity
  8
Default
100
AcDbLine
 10
213.2824856782739
 20
-63.79026415095848
 30
0.0
 11
212.2824856782735
 21
-64.79026415095859
 31
0.0
  0
LINE
  5
319
330
1F
100
AcDbEntity
  8
Default
100
AcDbLine
 10
242.4324856782727
 20
-63.79026415095848
 30
0.0
 11
213.2824856782739
 21
-63.79026415095848
 31
0.0
  0
LINE
  5
31A
330
1F
100
AcDbEntity
  8
Default
100
AcDbLine
 10
242.4324856782742
 20
-75.79026415095825
 30
0.0
 11
242.5824856782755
 21
-75.79026415095825
 31
0.0
  0
LINE
  5
31B
330
1F
100
AcDbEntity
  8
Default
100
AcDbLine
 10
209.7824856782741
 20
-72.94026415095766
 30
0.0
 11
212.282485678274
 21
-72.94026415095766
 31
0.0
  0
LINE
  5
31C
330
1F
100
AcDbEntity
  8
Default
100
AcDbLine
 10
204.6324856782742
 20
-75.79026415095825
 30
0.0
 11
208.7824856782738
 21
-75.79026415095825
 31
0.0
  0
ARC
  5
31D
330
1F
100
AcDbEntity
  8
Default
100
AcDbCircle
 10
204.6324856782743
 20
-64.79026415095825
 30
0.0
 40
1.0
100
AcDbArc
 50
90.0
 51
180.0
  0
LINE
  5
31E
330
1F
100
AcDbEntity
  8
Default
100
AcDbLine
 10
208.6324856782743
 20
-63.79026415095825
 30
0.0
 11
204.6324856782743
 21
-63.79026415095825
 31
0.0
  0
LINE
  5
31F
330
1F
100
AcDbEntity
  8
Default
100
AcDbLine
 10
209.7824856782743
 20
-66.64026415095918
 30
0.0
 11
209.7824856782743
 21
-64.79026415095836
 31
0.0
  0
LINE
  5
320
330
1F
100
AcDbEntity
  8
Default
100
AcDbLine
 10
212.2824856782742
 20
-66.6402641509593
 30
0.0
 11
209.7824856782743
 21
-66.64026415095918
 31
0.0
  0
LINE
  5
321
330
1F
100
AcDbEntity
  8
Default
100
AcDbLine
 10
243.5824856782735
 20
-66.6402641509593
 30
0.0
 11
243.5824856782735
 21
-64.79026415095848
 31
0.0
  0
LINE
  5
322
330
1F
100
AcDbEntity
  8
Default
100
AcDbLine
 10
162.1324856782744
 20
-64.79026415095836
 30
0.0
 11
162.1324856782744
 21
-66.6402641509593
 31
0.0
  0
LINE
  5
323
330
1F
100
AcDbEntity
  8
Default
100
AcDbLine
 10
159.6324856782744
 20
-64.79026415095836
 30
0.0
 11
158.6324856782741
 21
-63.79026415095825
 31
0.0
  0
ARC
  5
324
330
1F
100
AcDbEntity
  8
Default
100
AcDbCircle
 10
154.4824856782745
 20
-64.79026415095825
 30
0.0
 40
1.0
100
AcDbArc
 50
90.0
 51
180.0
  0
LINE
  5
325
330
1F
100
AcDbEntity
  8
Default
100
AcDbLine
 10
153.4824856782745
 20
-64.79026415095825
 30
0.0
 11
153.4824856782744
 21
-69.79026415095825
 31
0.0
  0
ARC
  5
326
330
1F
100
AcDbEntity
  8
Default
100
AcDbCircle
 10
154.4824856782744
 20
-74.79026415095825
 30
0.0
 40
1.0
100
AcDbArc
 50
180.0
 51
270.0
  0
LINE
  5
327
330
1F
100
AcDbEntity
  8
Default
100
AcDbLine
 10
154.4824856782744
 20
-75.79026415095825
 30
0.0
 11
158.6324856782741
 21
-75.79026415095825
 31
0.0
  0
LINE
  5
328
330
1F
100
AcDbEntity
  8
Default
100
AcDbLine
 10
159.6324856782744
 20
-74.79026415095848
 30
0.0
 11
159.6324856782743
 21
-72.94026415095766
 31
0.0
  0
LINE
  5
329
330
1F
100
AcDbEntity
  8
Default
100
AcDbLine
 10
159.6324856782743
 20
-72.94026415095766
 30
0.0
 11
162.1324856782743
 21
-72.94026415095766
 31
0.0
  0
LINE
  5
32A
330
1F
100
AcDbEntity
  8
Default
100
AcDbLine
 10
162.1324856782743
 20
-72.94026415095766
 30
0.0
 11
162.1324856782744
 21
-74.79026415095825
 31
0.0
  0
LINE
  5
32B
330
1F
100
AcDbEntity
  8
Default
100
AcDbLine
 10
192.4324856782756
 20
-75.79026415095825
 30
0.0
 11
193.4324856782737
 21
-74.79026415095848
 31
0.0
  0
LINE
  5
32C
330
1F
100
AcDbEntity
  8
Default
100
AcDbLine
 10
193.4324856782737
 20
-74.79026415095848
 30
0.0
 11
193.4324856782735
 21
-72.94026415095777
 31
0.0
  0
LINE
  5
32D
330
1F
100
AcDbEntity
  8
Default
100
AcDbLine
 10
192.4324856782724
 20
-63.79026415095848
 30
0.0
 11
192.2824856782729
 21
-63.79026415095848
 31
0.0
  0
LINE
  5
32E
330
1F
100
AcDbEntity
  8
Default
100
AcDbLine
 10
195.9324856782736
 20
-66.64026415095941
 30
0.0
 11
193.4324856782737
 21
-66.6402641509593
 31
0.0
  0
ARC
  5
32F
330
1F
100
AcDbEntity
  8
Default
100
AcDbCircle
 10
201.0824856782737
 20
-64.7902641509587
 30
0.0
 40
1.0
100
AcDbArc
 50
0.0
 51
90.0
  0
LINE
  5
330
330
1F
100
AcDbEntity
  8
Default
100
AcDbLine
 10
202.0824856782737
 20
-74.7902641509587
 30
0.0
 11
202.0824856782737
 21
-69.7902641509587
 31
0.0
  0
ARC
  5
331
330
1F
100
AcDbEntity
  8
Default
100
AcDbCircle
 10
201.0824856782737
 20
-74.7902641509587
 30
0.0
 40
1.0
100
AcDbArc
 50
270.0
 51
0.0
  0
LINE
  5
332
330
1F
100
AcDbEntity
  8
Default
100
AcDbLine
 10
196.932485678274
 20
-75.7902641509587
 30
0.0
 11
197.0824856782737
 21
-75.7902641509587
 31
0.0
  0
LINE
  5
333
330
1F
100
AcDbEntity
  8
Default
100
AcDbLine
 10
195.9324856782735
 20
-72.94026415095766
 30
0.0
 11
195.9324856782737
 21
-74.79026415095848
 31
0.0
  0
LINE
  5
334
330
1F
100
AcDbEntity
  8
Default
100
AcDbLine
 10
195.9324856782737
 20
-74.79026415095848
 30
0.0
 11
196.932485678274
 21
-75.7902641509587
 31
0.0
  0
LINE
  5
335
330
1F
100
AcDbEntity
  8
Default
100
AcDbLine
 10
197.0824856782737
 20
-75.7902641509587
 30
0.0
 11
201.0824856782737
 21
-75.7902641509587
 31
0.0
  0
LINE
  5
336
330
1F
100
AcDbEntity
  8
Default
100
AcDbLine
 10
202.0824856782737
 20
-69.7902641509587
 30
0.0
 11
202.0824856782737
 21
-64.7902641509587
 31
0.0
  0
LINE
  5
337
330
1F
100
AcDbEntity
  8
Default
100
AcDbLine
 10
201.0824856782737
 20
-63.79026415095871
 30
0.0
 11
196.932485678274
 21
-63.79026415095871
 31
0.0
  0
LINE
  5
338
330
1F
100
AcDbEntity
  8
Default
100
AcDbLine
 10
196.932485678274
 20
-63.79026415095871
 30
0.0
 11
195.9324856782737
 21
-64.79026415095848
 31
0.0
  0
LINE
  5
339
330
1F
100
AcDbEntity
  8
Default
100
AcDbLine
 10
195.9324856782737
 20
-64.79026415095848
 30
0.0
 11
195.9324856782737
 21
-66.64026415095941
 31
0.0
  0
LINE
  5
33A
330
1F
100
AcDbEntity
  8
Default
100
AcDbLine
 10
193.4324856782735
 20
-72.94026415095777
 30
0.0
 11
195.9324856782735
 21
-72.94026415095766
 31
0.0
  0
LINE
  5
33B
330
1F
100
AcDbEntity
  8
Default
100
AcDbLine
 10
193.4324856782737
 20
-64.79026415095848
 30
0.0
 11
192.4324856782736
 21
-63.79026415095848
 31
0.0
  0
LINE
  5
33C
330
1F
100
AcDbEntity
  8
Default
100
AcDbLine
 10
163.1324856782741
 20
-63.79026415095848
 30
0.0
 11
162.1324856782737
 21
-64.79026415095859
 31
0.0
  0
LINE
  5
33D
330
1F
100
AcDbEntity
  8
Default
100
AcDbLine
 10
192.2824856782729
 20
-63.79026415095848
 30
0.0
 11
163.1324856782741
 21
-63.79026415095848
 31
0.0
  0
LINE
  5
33E
330
1F
100
AcDbEntity
  8
Default
100
AcDbLine
 10
192.2824856782744
 20
-75.79026415095825
 30
0.0
 11
192.4324856782756
 21
-75.79026415095825
 31
0.0
  0
LINE
  5
33F
330
1F
100
AcDbEntity
  8
Default
100
AcDbLine
 10
163.1324856782745
 20
-75.79026415095825
 30
0.0
 11
192.2824856782744
 21
-75.79026415095825
 31
0.0
  0
LINE
  5
340
330
1F
100
AcDbEntity
  8
Default
100
AcDbLine
 10
162.1324856782744
 20
-74.79026415095825
 30
0.0
 11
163.1324856782745
 21
-75.79026415095825
 31
0.0
  0
LINE
  5
341
330
1F
100
AcDbEntity
  8
Default
100
AcDbLine
 10
158.6324856782741
 20
-75.79026415095825
 30
0.0
 11
159.6324856782744
 21
-74.79026415095848
 31
0.0
  0
LINE
  5
342
330
1F
100
AcDbEntity
  8
Default
100
AcDbLine
 10
153.4824856782744
 20
-69.79026415095825
 30
0.0
 11
153.4824856782744
 21
-74.79026415095825
 31
0.0
  0
LINE
  5
343
330
1F
100
AcDbEntity
  8
Default
100
AcDbLine
 10
158.4824856782745
 20
-63.79026415095825
 30
0.0
 11
154.4824856782745
 21
-63.79026415095825
 31
0.0
  0
LINE
  5
344
330
1F
100
AcDbEntity
  8
Default
100
AcDbLine
 10
158.6324856782741
 20
-63.79026415095825
 30
0.0
 11
158.4824856782745
 21
-63.79026415095825
 31
0.0
  0
LINE
  5
345
330
1F
100
AcDbEntity
  8
Default
100
AcDbLine
 10
159.6324856782745
 20
-66.64026415095918
 30
0.0
 11
159.6324856782744
 21
-64.79026415095836
 31
0.0
  0
LINE
  5
346
330
1F
100
AcDbEntity
  8
Default
100
AcDbLine
 10
162.1324856782744
 20
-66.6402641509593
 30
0.0
 11
159.6324856782745
 21
-66.64026415095918
 31
0.0
  0
LINE
  5
347
330
1F
100
AcDbEntity
  8
Default
100
AcDbLine
 10
193.4324856782737
 20
-66.6402641509593
 30
0.0
 11
193.4324856782737
 21
-64.79026415095848
 31
0.0
  0
LINE
  5
348
330
1F
100
AcDbEntity
  8
Default
100
AcDbLine
 10
143.7324856782733
 20
-66.64026415095918
 30
0.0
 11
143.7324856782733
 21
-64.79026415095836
 31
0.0
  0
LINE
  5
349
330
1F
100
AcDbEntity
  8
Default
100
AcDbLine
 10
109.9324856782741
 20
-66.64026415095907
 30
0.0
 11
109.932485678274
 21
-64.79026415095825
 31
0.0
  0
LINE
  5
34A
330
1F
100
AcDbEntity
  8
Default
100
AcDbLine
 10
109.932485678274
 20
-64.79026415095825
 30
0.0
 11
108.9324856782737
 21
-63.79026415095814
 31
0.0
  0
ARC
  5
34B
330
1F
100
AcDbEntity
  8
Default
100
AcDbCircle
 10
104.7824856782741
 20
-64.79026415095814
 30
0.0
 40
1.0
100
AcDbArc
 50
90.0
 51
180.0
  0
LINE
  5
34C
330
1F
100
AcDbEntity
  8
Default
100
AcDbLine
 10
103.7824856782741
 20
-64.79026415095814
 30
0.0
 11
103.782485678274
 21
-69.79026415095802
 31
0.0
  0
ARC
  5
34D
330
1F
100
AcDbEntity
  8
Default
100
AcDbCircle
 10
104.782485678274
 20
-74.79026415095814
 30
0.0
 40
1.0
100
AcDbArc
 50
180.0
 51
270.0
  0
LINE
  5
34E
330
1F
100
AcDbEntity
  8
Default
100
AcDbLine
 10
109.932485678274
 20
-74.79026415095825
 30
0.0
 11
109.9324856782739
 21
-72.94026415095755
 31
0.0
  0
LINE
  5
34F
330
1F
100
AcDbEntity
  8
Default
100
AcDbLine
 10
109.9324856782739
 20
-72.94026415095755
 30
0.0
 11
112.4324856782738
 21
-72.94026415095755
 31
0.0
  0
LINE
  5
350
330
1F
100
AcDbEntity
  8
Default
100
AcDbLine
 10
112.4324856782738
 20
-72.94026415095755
 30
0.0
 11
112.432485678274
 21
-74.79026415095814
 31
0.0
  0
LINE
  5
351
330
1F
100
AcDbEntity
  8
Default
100
AcDbLine
 10
113.4324856782741
 20
-75.79026415095814
 30
0.0
 11
142.5824856782741
 21
-75.79026415095825
 31
0.0
  0
LINE
  5
352
330
1F
100
AcDbEntity
  8
Default
100
AcDbLine
 10
143.7324856782733
 20
-74.79026415095848
 30
0.0
 11
143.7324856782731
 21
-72.94026415095766
 31
0.0
  0
LINE
  5
353
330
1F
100
AcDbEntity
  8
Default
100
AcDbLine
 10
113.4324856782737
 20
-63.79026415095836
 30
0.0
 11
112.4324856782733
 21
-64.79026415095848
 31
0.0
  0
LINE
  5
354
330
1F
100
AcDbEntity
  8
Default
100
AcDbLine
 10
146.2324856782732
 20
-66.6402641509593
 30
0.0
 11
143.7324856782733
 21
-66.64026415095918
 31
0.0
  0
LINE
  5
355
330
1F
100
AcDbEntity
  8
Default
100
AcDbLine
 10
143.7324856782731
 20
-72.94026415095766
 30
0.0
 11
146.2324856782731
 21
-72.94026415095766
 31
0.0
  0
LINE
  5
356
330
1F
100
AcDbEntity
  8
Default
100
AcDbLine
 10
146.2324856782733
 20
-64.79026415095848
 30
0.0
 11
146.2324856782733
 21
-66.6402641509593
 31
0.0
  0
LINE
  5
357
330
1F
100
AcDbEntity
  8
Default
100
AcDbLine
 10
147.2324856782736
 20
-63.79026415095848
 30
0.0
 11
146.2324856782733
 21
-64.79026415095848
 31
0.0
  0
ARC
  5
358
330
1F
100
AcDbEntity
  8
Default
100
AcDbCircle
 10
151.3824856782733
 20
-64.79026415095848
 30
0.0
 40
1.0
100
AcDbArc
 50
0.0
 51
90.0
  0
LINE
  5
359
330
1F
100
AcDbEntity
  8
Default
100
AcDbLine
 10
152.3824856782733
 20
-69.79026415095848
 30
0.0
 11
152.3824856782733
 21
-64.79026415095848
 31
0.0
  0
LINE
  5
35A
330
1F
100
AcDbEntity
  8
Default
100
AcDbLine
 10
152.3824856782733
 20
-74.79026415095848
 30
0.0
 11
152.3824856782733
 21
-69.79026415095848
 31
0.0
  0
ARC
  5
35B
330
1F
100
AcDbEntity
  8
Default
100
AcDbCircle
 10
151.3824856782733
 20
-74.79026415095848
 30
0.0
 40
1.0
100
AcDbArc
 50
270.0
 51
0.0
  0
LINE
  5
35C
330
1F
100
AcDbEntity
  8
Default
100
AcDbLine
 10
146.2324856782731
 20
-72.94026415095766
 30
0.0
 11
146.2324856782733
 21
-74.79026415095848
 31
0.0
  0
LINE
  5
35D
330
1F
100
AcDbEntity
  8
Default
100
AcDbLine
 10
146.2324856782733
 20
-74.79026415095848
 30
0.0
 11
147.2324856782736
 21
-75.79026415095848
 31
0.0
  0
LINE
  5
35E
330
1F
100
AcDbEntity
  8
Default
100
AcDbLine
 10
147.2324856782736
 20
-75.79026415095848
 30
0.0
 11
147.3824856782733
 21
-75.79026415095848
 31
0.0
  0
LINE
  5
35F
330
1F
100
AcDbEntity
  8
Default
100
AcDbLine
 10
147.3824856782733
 20
-75.79026415095848
 30
0.0
 11
151.3824856782733
 21
-75.79026415095848
 31
0.0
  0
LINE
  5
360
330
1F
100
AcDbEntity
  8
Default
100
AcDbLine
 10
151.3824856782733
 20
-63.79026415095848
 30
0.0
 11
147.2324856782736
 21
-63.79026415095848
 31
0.0
  0
LINE
  5
361
330
1F
100
AcDbEntity
  8
Default
100
AcDbLine
 10
143.7324856782733
 20
-64.79026415095836
 30
0.0
 11
142.7324856782732
 21
-63.79026415095836
 31
0.0
  0
LINE
  5
362
330
1F
100
AcDbEntity
  8
Default
100
AcDbLine
 10
142.5824856782725
 20
-63.79026415095836
 30
0.0
 11
113.4324856782737
 21
-63.79026415095836
 31
0.0
  0
LINE
  5
363
330
1F
100
AcDbEntity
  8
Default
100
AcDbLine
 10
142.732485678272
 20
-63.79026415095836
 30
0.0
 11
142.5824856782725
 21
-63.79026415095836
 31
0.0
  0
LINE
  5
364
330
1F
100
AcDbEntity
  8
Default
100
AcDbLine
 10
142.7324856782752
 20
-75.79026415095825
 30
0.0
 11
143.7324856782733
 21
-74.79026415095848
 31
0.0
  0
LINE
  5
365
330
1F
100
AcDbEntity
  8
Default
100
AcDbLine
 10
142.5824856782741
 20
-75.79026415095825
 30
0.0
 11
142.7324856782752
 21
-75.79026415095825
 31
0.0
  0
LINE
  5
366
330
1F
100
AcDbEntity
  8
Default
100
AcDbLine
 10
112.432485678274
 20
-74.79026415095814
 30
0.0
 11
113.4324856782741
 21
-75.79026415095814
 31
0.0
  0
LINE
  5
367
330
1F
100
AcDbEntity
  8
Default
100
AcDbLine
 10
108.9324856782737
 20
-75.79026415095814
 30
0.0
 11
109.932485678274
 21
-74.79026415095825
 31
0.0
  0
LINE
  5
368
330
1F
100
AcDbEntity
  8
Default
100
AcDbLine
 10
104.782485678274
 20
-75.79026415095814
 30
0.0
 11
108.9324856782737
 21
-75.79026415095814
 31
0.0
  0
LINE
  5
369
330
1F
100
AcDbEntity
  8
Default
100
AcDbLine
 10
103.782485678274
 20
-69.79026415095802
 30
0.0
 11
103.782485678274
 21
-74.79026415095814
 31
0.0
  0
LINE
  5
36A
330
1F
100
AcDbEntity
  8
Default
100
AcDbLine
 10
108.7824856782741
 20
-63.79026415095814
 30
0.0
 11
104.7824856782741
 21
-63.79026415095814
 31
0.0
  0
LINE
  5
36B
330
1F
100
AcDbEntity
  8
Default
100
AcDbLine
 10
108.9324856782737
 20
-63.79026415095814
 30
0.0
 11
108.7824856782741
 21
-63.79026415095814
 31
0.0
  0
LINE
  5
36C
330
1F
100
AcDbEntity
  8
Default
100
AcDbLine
 10
112.432485678274
 20
-66.64026415095918
 30
0.0
 11
109.9324856782741
 21
-66.64026415095907
 31
0.0
  0
LINE
  5
36D
330
1F
100
AcDbEntity
  8
Default
100
AcDbLine
 10
112.432485678274
 20
-64.79026415095825
 30
0.0
 11
112.432485678274
 21
-66.64026415095918
 31
0.0
  0
LINE
  5
36E
330
1F
100
AcDbEntity
  8
Default
100
AcDbLine
 10
177.3324856782735
 20
-51.79026415095848
 30
0.0
 11
176.3324856782734
 21
-50.79026415095848
 31
0.0
  0
LINE
  5
36F
330
1F
100
AcDbEntity
  8
Default
100
AcDbLine
 10
177.3324856782735
 20
-53.64026415095918
 30
0.0
 11
177.3324856782735
 21
-51.79026415095848
 31
0.0
  0
LINE
  5
370
330
1F
100
AcDbEntity
  8
Default
100
AcDbLine
 10
179.8324856782735
 20
-53.6402641509593
 30
0.0
 11
177.3324856782735
 21
-53.64026415095918
 31
0.0
  0
LINE
  5
371
330
1F
100
AcDbEntity
  8
Default
100
AcDbLine
 10
179.8324856782735
 20
-51.79026415095848
 30
0.0
 11
179.8324856782735
 21
-53.6402641509593
 31
0.0
  0
LINE
  5
372
330
1F
100
AcDbEntity
  8
Default
100
AcDbLine
 10
180.8324856782739
 20
-50.79026415095848
 30
0.0
 11
179.8324856782735
 21
-51.79026415095848
 31
0.0
  0
LINE
  5
373
330
1F
100
AcDbEntity
  8
Default
100
AcDbLine
 10
184.9824856782735
 20
-50.79026415095848
 30
0.0
 11
180.8324856782739
 21
-50.79026415095848
 31
0.0
  0
ARC
  5
374
330
1F
100
AcDbEntity
  8
Default
100
AcDbCircle
 10
184.9824856782735
 20
-51.79026415095848
 30
0.0
 40
1.0
100
AcDbArc
 50
0.0
 51
90.0
  0
LINE
  5
375
330
1F
100
AcDbEntity
  8
Default
100
AcDbLine
 10
185.9824856782735
 20
-56.79026415095848
 30
0.0
 11
185.9824856782735
 21
-51.79026415095848
 31
0.0
  0
LINE
  5
376
330
1F
100
AcDbEntity
  8
Default
100
AcDbLine
 10
185.9824856782735
 20
-61.79026415095848
 30
0.0
 11
185.9824856782735
 21
-56.79026415095848
 31
0.0
  0
ARC
  5
377
330
1F
100
AcDbEntity
  8
Default
100
AcDbCircle
 10
184.9824856782735
 20
-61.79026415095848
 30
0.0
 40
1.0
100
AcDbArc
 50
270.0
 51
0.0
  0
LINE
  5
378
330
1F
100
AcDbEntity
  8
Default
100
AcDbLine
 10
180.9824856782735
 20
-62.79026415095848
 30
0.0
 11
184.9824856782735
 21
-62.79026415095848
 31
0.0
  0
LINE
  5
379
330
1F
100
AcDbEntity
  8
Default
100
AcDbLine
 10
180.8324856782739
 20
-62.79026415095848
 30
0.0
 11
180.9824856782735
 21
-62.79026415095848
 31
0.0
  0
LINE
  5
37A
330
1F
100
AcDbEntity
  8
Default
100
AcDbLine
 10
179.8324856782735
 20
-61.79026415095848
 30
0.0
 11
180.8324856782739
 21
-62.79026415095848
 31
0.0
  0
LINE
  5
37B
330
1F
100
AcDbEntity
  8
Default
100
AcDbLine
 10
179.8324856782733
 20
-59.94026415095766
 30
0.0
 11
179.8324856782735
 21
-61.79026415095848
 31
0.0
  0
LINE
  5
37C
330
1F
100
AcDbEntity
  8
Default
100
AcDbLine
 10
177.3324856782734
 20
-59.94026415095766
 30
0.0
 11
179.8324856782733
 21
-59.94026415095766
 31
0.0
  0
LINE
  5
37D
330
1F
100
AcDbEntity
  8
Default
100
AcDbLine
 10
177.3324856782735
 20
-61.79026415095848
 30
0.0
 11
177.3324856782734
 21
-59.94026415095766
 31
0.0
  0
LINE
  5
37E
330
1F
100
AcDbEntity
  8
Default
100
AcDbLine
 10
176.3324856782734
 20
-62.79026415095848
 30
0.0
 11
177.3324856782735
 21
-61.79026415095848
 31
0.0
  0
LINE
  5
37F
330
1F
100
AcDbEntity
  8
Default
100
AcDbLine
 10
147.1824856782746
 20
-62.79026415095848
 30
0.0
 11
176.3324856782734
 21
-62.79026415095848
 31
0.0
  0
LINE
  5
380
330
1F
100
AcDbEntity
  8
Default
100
AcDbLine
 10
147.0324856782751
 20
-62.79026415095848
 30
0.0
 11
147.1824856782746
 21
-62.79026415095848
 31
0.0
  0
LINE
  5
381
330
1F
100
AcDbEntity
  8
Default
100
AcDbLine
 10
146.0324856782738
 20
-61.79026415095848
 30
0.0
 11
147.0324856782751
 21
-62.79026415095848
 31
0.0
  0
LINE
  5
382
330
1F
100
AcDbEntity
  8
Default
100
AcDbLine
 10
146.0324856782736
 20
-59.94026415095789
 30
0.0
 11
146.0324856782738
 21
-61.79026415095848
 31
0.0
  0
LINE
  5
383
330
1F
100
AcDbEntity
  8
Default
100
AcDbLine
 10
143.5324856782737
 20
-59.94026415095789
 30
0.0
 11
146.0324856782736
 21
-59.94026415095789
 31
0.0
  0
LINE
  5
384
330
1F
100
AcDbEntity
  8
Default
100
AcDbLine
 10
143.5324856782738
 20
-61.79026415095871
 30
0.0
 11
143.5324856782737
 21
-59.94026415095789
 31
0.0
  0
LINE
  5
385
330
1F
100
AcDbEntity
  8
Default
100
AcDbLine
 10
142.5324856782758
 20
-62.79026415095848
 30
0.0
 11
143.5324856782738
 21
-61.79026415095871
 31
0.0
  0
LINE
  5
386
330
1F
100
AcDbEntity
  8
Default
100
AcDbLine
 10
142.3824856782746
 20
-62.79026415095848
 30
0.0
 11
142.5324856782758
 21
-62.79026415095848
 31
0.0
  0
LINE
  5
387
330
1F
100
AcDbEntity
  8
Default
100
AcDbLine
 10
113.2324856782747
 20
-62.79026415095836
 30
0.0
 11
142.3824856782746
 21
-62.79026415095848
 31
0.0
  0
LINE
  5
388
330
1F
100
AcDbEntity
  8
Default
100
AcDbLine
 10
112.2324856782745
 20
-61.79026415095836
 30
0.0
 11
113.2324856782747
 21
-62.79026415095836
 31
0.0
  0
LINE
  5
389
330
1F
100
AcDbEntity
  8
Default
100
AcDbLine
 10
112.2324856782744
 20
-59.94026415095777
 30
0.0
 11
112.2324856782745
 21
-61.79026415095836
 31
0.0
  0
LINE
  5
38A
330
1F
100
AcDbEntity
  8
Default
100
AcDbLine
 10
109.7324856782744
 20
-59.94026415095777
 30
0.0
 11
112.2324856782744
 21
-59.94026415095777
 31
0.0
  0
LINE
  5
38B
330
1F
100
AcDbEntity
  8
Default
100
AcDbLine
 10
109.7324856782745
 20
-61.79026415095848
 30
0.0
 11
109.7324856782744
 21
-59.94026415095777
 31
0.0
  0
LINE
  5
38C
330
1F
100
AcDbEntity
  8
Default
100
AcDbLine
 10
108.7324856782742
 20
-62.79026415095836
 30
0.0
 11
109.7324856782745
 21
-61.79026415095848
 31
0.0
  0
LINE
  5
38D
330
1F
100
AcDbEntity
  8
Default
100
AcDbLine
 10
104.5824856782746
 20
-62.79026415095836
 30
0.0
 11
108.7324856782742
 21
-62.79026415095836
 31
0.0
  0
ARC
  5
38E
330
1F
100
AcDbEntity
  8
Default
100
AcDbCircle
 10
104.5824856782746
 20
-61.79026415095836
 30
0.0
 40
1.0
100
AcDbArc
 50
180.0
 51
270.0
  0
LINE
  5
38F
330
1F
100
AcDbEntity
  8
Default
100
AcDbLine
 10
103.5824856782746
 20
-56.79026415095825
 30
0.0
 11
103.5824856782746
 21
-61.79026415095836
 31
0.0
  0
LINE
  5
390
330
1F
100
AcDbEntity
  8
Default
100
AcDbLine
 10
103.5824856782746
 20
-51.79026415095836
 30
0.0
 11
103.5824856782746
 21
-56.79026415095825
 31
0.0
  0
ARC
  5
391
330
1F
100
AcDbEntity
  8
Default
100
AcDbCircle
 10
104.5824856782746
 20
-51.79026415095836
 30
0.0
 40
1.0
100
AcDbArc
 50
90.0
 51
180.0
  0
LINE
  5
392
330
1F
100
AcDbEntity
  8
Default
100
AcDbLine
 10
108.5824856782746
 20
-50.79026415095836
 30
0.0
 11
104.5824856782746
 21
-50.79026415095836
 31
0.0
  0
LINE
  5
393
330
1F
100
AcDbEntity
  8
Default
100
AcDbLine
 10
108.7324856782742
 20
-50.79026415095836
 30
0.0
 11
108.5824856782746
 21
-50.79026415095836
 31
0.0
  0
LINE
  5
394
330
1F
100
AcDbEntity
  8
Default
100
AcDbLine
 10
109.7324856782746
 20
-51.79026415095848
 30
0.0
 11
108.7324856782742
 21
-50.79026415095836
 31
0.0
  0
LINE
  5
395
330
1F
100
AcDbEntity
  8
Default
100
AcDbLine
 10
109.7324856782746
 20
-53.6402641509593
 30
0.0
 11
109.7324856782746
 21
-51.79026415095848
 31
0.0
  0
LINE
  5
396
330
1F
100
AcDbEntity
  8
Default
100
AcDbLine
 10
112.2324856782745
 20
-53.64026415095941
 30
0.0
 11
109.7324856782746
 21
-53.6402641509593
 31
0.0
  0
LINE
  5
397
330
1F
100
AcDbEntity
  8
Default
100
AcDbLine
 10
112.2324856782746
 20
-51.79026415095848
 30
0.0
 11
112.2324856782745
 21
-53.64026415095941
 31
0.0
  0
LINE
  5
398
330
1F
100
AcDbEntity
  8
Default
100
AcDbLine
 10
113.2324856782747
 20
-50.79026415095836
 30
0.0
 11
112.2324856782746
 21
-51.79026415095848
 31
0.0
  0
LINE
  5
399
330
1F
100
AcDbEntity
  8
Default
100
AcDbLine
 10
113.3824856782746
 20
-50.79026415095836
 30
0.0
 11
113.2324856782747
 21
-50.79026415095836
 31
0.0
  0
LINE
  5
39A
330
1F
100
AcDbEntity
  8
Default
100
AcDbLine
 10
142.5324856782735
 20
-50.79026415095848
 30
0.0
 11
113.3824856782746
 21
-50.79026415095836
 31
0.0
  0
LINE
  5
39B
330
1F
100
AcDbEntity
  8
Default
100
AcDbLine
 10
143.5324856782738
 20
-51.79026415095859
 30
0.0
 11
142.5324856782735
 21
-50.79026415095848
 31
0.0
  0
LINE
  5
39C
330
1F
100
AcDbEntity
  8
Default
100
AcDbLine
 10
143.5324856782738
 20
-53.64026415095941
 30
0.0
 11
143.5324856782738
 21
-51.79026415095859
 31
0.0
  0
LINE
  5
39D
330
1F
100
AcDbEntity
  8
Default
100
AcDbLine
 10
146.0324856782738
 20
-53.64026415095952
 30
0.0
 11
143.5324856782738
 21
-53.64026415095941
 31
0.0
  0
LINE
  5
39E
330
1F
100
AcDbEntity
  8
Default
100
AcDbLine
 10
146.0324856782738
 20
-51.79026415095848
 30
0.0
 11
146.0324856782738
 21
-53.64026415095952
 31
0.0
  0
LINE
  5
39F
330
1F
100
AcDbEntity
  8
Default
100
AcDbLine
 10
147.0324856782739
 20
-50.79026415095848
 30
0.0
 11
146.0324856782738
 21
-51.79026415095848
 31
0.0
  0
LINE
  5
3A0
330
1F
100
AcDbEntity
  8
Default
100
AcDbLine
 10
176.3324856782734
 20
-50.79026415095848
 30
0.0
 11
147.0324856782739
 21
-50.79026415095848
 31
0.0
  0
LINE
  5
3A1
330
1F
100
AcDbEntity
  8
Default
100
AcDbLine
 10
143.7324856782733
 20
-38.79026415095836
 30
0.0
 11
142.7324856782732
 21
-37.79026415095836
 31
0.0
  0
LINE
  5
3A2
330
1F
100
AcDbEntity
  8
Default
100
AcDbLine
 10
113.4324856782737
 20
-37.79026415095836
 30
0.0
 11
112.4324856782733
 21
-38.79026415095848
 31
0.0
  0
LINE
  5
3A3
330
1F
100
AcDbEntity
  8
Default
100
AcDbLine
 10
142.5824856782725
 20
-37.79026415095836
 30
0.0
 11
113.4324856782737
 21
-37.79026415095836
 31
0.0
  0
LINE
  5
3A4
330
1F
100
AcDbEntity
  8
Default
100
AcDbLine
 10
142.732485678272
 20
-37.79026415095836
 30
0.0
 11
142.5824856782725
 21
-37.79026415095836
 31
0.0
  0
LINE
  5
3A5
330
1F
100
AcDbEntity
  8
Default
100
AcDbLine
 10
211.3324856782748
 20
-38.79026415095848
 30
0.0
 11
210.3324856782747
 21
-37.79026415095848
 31
0.0
  0
LINE
  5
3A6
330
1F
100
AcDbEntity
  8
Default
100
AcDbLine
 10
211.3324856782748
 20
-40.64026415095913
 30
0.0
 11
211.3324856782748
 21
-38.79026415095848
 31
0.0
  0
LINE
  5
3A7
330
1F
100
AcDbEntity
  8
Default
100
AcDbLine
 10
213.8324856782748
 20
-40.64026415095924
 30
0.0
 11
211.3324856782748
 21
-40.64026415095913
 31
0.0
  0
LINE
  5
3A8
330
1F
100
AcDbEntity
  8
Default
100
AcDbLine
 10
213.8324856782748
 20
-38.79026415095836
 30
0.0
 11
213.8324856782748
 21
-40.64026415095924
 31
0.0
  0
LINE
  5
3A9
330
1F
100
AcDbEntity
  8
Default
100
AcDbLine
 10
214.8324856782751
 20
-37.79026415095848
 30
0.0
 11
213.8324856782748
 21
-38.79026415095836
 31
0.0
  0
LINE
  5
3AA
330
1F
100
AcDbEntity
  8
Default
100
AcDbLine
 10
218.9824856782748
 20
-37.79026415095848
 30
0.0
 11
214.8324856782751
 21
-37.79026415095848
 31
0.0
  0
ARC
  5
3AB
330
1F
100
AcDbEntity
  8
Default
100
AcDbCircle
 10
218.9824856782748
 20
-38.79026415095848
 30
0.0
 40
1.0
100
AcDbArc
 50
0.0
 51
90.0
  0
LINE
  5
3AC
330
1F
100
AcDbEntity
  8
Default
100
AcDbLine
 10
219.9824856782748
 20
-43.79026415095848
 30
0.0
 11
219.9824856782748
 21
-38.79026415095848
 31
0.0
  0
LINE
  5
3AD
330
1F
100
AcDbEntity
  8
Default
100
AcDbLine
 10
219.9824856782748
 20
-48.79026415095848
 30
0.0
 11
219.9824856782748
 21
-43.79026415095848
 31
0.0
  0
ARC
  5
3AE
330
1F
100
AcDbEntity
  8
Default
100
AcDbCircle
 10
218.9824856782748
 20
-48.79026415095848
 30
0.0
 40
1.0
100
AcDbArc
 50
270.0
 51
0.0
  0
LINE
  5
3AF
330
1F
100
AcDbEntity
  8
Default
100
AcDbLine
 10
214.9824856782748
 20
-49.79026415095848
 30
0.0
 11
218.9824856782748
 21
-49.79026415095848
 31
0.0
  0
LINE
  5
3B0
330
1F
100
AcDbEntity
  8
Default
100
AcDbLine
 10
214.8324856782751
 20
-49.79026415095848
 30
0.0
 11
214.9824856782748
 21
-49.79026415095848
 31
0.0
  0
LINE
  5
3B1
330
1F
100
AcDbEntity
  8
Default
100
AcDbLine
 10
213.8324856782748
 20
-48.79026415095836
 30
0.0
 11
214.8324856782751
 21
-49.79026415095848
 31
0.0
  0
LINE
  5
3B2
330
1F
100
AcDbEntity
  8
Default
100
AcDbLine
 10
213.8324856782746
 20
-46.94026415095755
 30
0.0
 11
213.8324856782748
 21
-48.79026415095836
 31
0.0
  0
LINE
  5
3B3
330
1F
100
AcDbEntity
  8
Default
100
AcDbLine
 10
211.3324856782746
 20
-46.9402641509576
 30
0.0
 11
213.8324856782746
 21
-46.94026415095755
 31
0.0
  0
LINE
  5
3B4
330
1F
100
AcDbEntity
  8
Default
100
AcDbLine
 10
211.3324856782748
 20
-48.79026415095848
 30
0.0
 11
211.3324856782746
 21
-46.9402641509576
 31
0.0
  0
LINE
  5
3B5
330
1F
100
AcDbEntity
  8
Default
100
AcDbLine
 10
210.3324856782747
 20
-49.79026415095848
 30
0.0
 11
211.3324856782748
 21
-48.79026415095848
 31
0.0
  0
LINE
  5
3B6
330
1F
100
AcDbEntity
  8
Default
100
AcDbLine
 10
181.0324856782752
 20
-49.79026415095848
 30
0.0
 11
210.3324856782747
 21
-49.79026415095848
 31
0.0
  0
LINE
  5
3B7
330
1F
100
AcDbEntity
  8
Default
100
AcDbLine
 10
180.0324856782748
 20
-48.79026415095854
 30
0.0
 11
181.0324856782752
 21
-49.79026415095848
 31
0.0
  0
LINE
  5
3B8
330
1F
100
AcDbEntity
  8
Default
100
AcDbLine
 10
180.0324856782746
 20
-46.94026415095794
 30
0.0
 11
180.0324856782748
 21
-48.79026415095854
 31
0.0
  0
LINE
  5
3B9
330
1F
100
AcDbEntity
  8
Default
100
AcDbLine
 10
177.5324856782746
 20
-46.940264150958
 30
0.0
 11
180.0324856782746
 21
-46.94026415095794
 31
0.0
  0
LINE
  5
3BA
330
1F
100
AcDbEntity
  8
Default
100
AcDbLine
 10
177.532485678274
 20
-48.79026415095859
 30
0.0
 11
177.5324856782746
 21
-46.940264150958
 31
0.0
  0
LINE
  5
3BB
330
1F
100
AcDbEntity
  8
Default
100
AcDbLine
 10
176.5324856782729
 20
-49.79026415095825
 30
0.0
 11
177.532485678274
 21
-48.79026415095859
 31
0.0
  0
LINE
  5
3BC
330
1F
100
AcDbEntity
  8
Default
100
AcDbLine
 10
147.3824856782741
 20
-49.79026415095825
 30
0.0
 11
176.5324856782729
 21
-49.79026415095825
 31
0.0
  0
LINE
  5
3BD
330
1F
100
AcDbEntity
  8
Default
100
AcDbLine
 10
147.2324856782745
 20
-49.79026415095825
 30
0.0
 11
147.3824856782741
 21
-49.79026415095825
 31
0.0
  0
LINE
  5
3BE
330
1F
100
AcDbEntity
  8
Default
100
AcDbLine
 10
146.2324856782733
 20
-48.79026415095819
 30
0.0
 11
147.2324856782745
 21
-49.79026415095825
 31
0.0
  0
LINE
  5
3BF
330
1F
100
AcDbEntity
  8
Default
100
AcDbLine
 10
146.2324856782731
 20
-46.9402641509576
 30
0.0
 11
146.2324856782733
 21
-48.79026415095819
 31
0.0
  0
LINE
  5
3C0
330
1F
100
AcDbEntity
  8
Default
100
AcDbLine
 10
143.7324856782731
 20
-46.94026415095766
 30
0.0
 11
146.2324856782731
 21
-46.9402641509576
 31
0.0
  0
LINE
  5
3C1
330
1F
100
AcDbEntity
  8
Default
100
AcDbLine
 10
143.7324856782733
 20
-48.79026415095842
 30
0.0
 11
143.7324856782731
 21
-46.94026415095766
 31
0.0
  0
LINE
  5
3C2
330
1F
100
AcDbEntity
  8
Default
100
AcDbLine
 10
142.7324856782752
 20
-49.79026415095825
 30
0.0
 11
143.7324856782733
 21
-48.79026415095842
 31
0.0
  0
LINE
  5
3C3
330
1F
100
AcDbEntity
  8
Default
100
AcDbLine
 10
142.5824856782741
 20
-49.79026415095825
 30
0.0
 11
142.7324856782752
 21
-49.79026415095825
 31
0.0
  0
LINE
  5
3C4
330
1F
100
AcDbEntity
  8
Default
100
AcDbLine
 10
113.4324856782741
 20
-49.79026415095814
 30
0.0
 11
142.5824856782741
 21
-49.79026415095825
 31
0.0
  0
LINE
  5
3C5
330
1F
100
AcDbEntity
  8
Default
100
AcDbLine
 10
112.432485678274
 20
-48.79026415095814
 30
0.0
 11
113.4324856782741
 21
-49.79026415095814
 31
0.0
  0
LINE
  5
3C6
330
1F
100
AcDbEntity
  8
Default
100
AcDbLine
 10
112.4324856782738
 20
-46.94026415095755
 30
0.0
 11
112.432485678274
 21
-48.79026415095814
 31
0.0
  0
LINE
  5
3C7
330
1F
100
AcDbEntity
  8
Default
100
AcDbLine
 10
109.9324856782739
 20
-46.94026415095755
 30
0.0
 11
112.4324856782738
 21
-46.94026415095755
 31
0.0
  0
LINE
  5
3C8
330
1F
100
AcDbEntity
  8
Default
100
AcDbLine
 10
109.932485678274
 20
-48.79026415095831
 30
0.0
 11
109.9324856782739
 21
-46.94026415095755
 31
0.0
  0
LINE
  5
3C9
330
1F
100
AcDbEntity
  8
Default
100
AcDbLine
 10
108.9324856782737
 20
-49.79026415095814
 30
0.0
 11
109.932485678274
 21
-48.79026415095831
 31
0.0
  0
LINE
  5
3CA
330
1F
100
AcDbEntity
  8
Default
100
AcDbLine
 10
104.782485678274
 20
-49.79026415095814
 30
0.0
 11
108.9324856782737
 21
-49.79026415095814
 31
0.0
  0
ARC
  5
3CB
330
1F
100
AcDbEntity
  8
Default
100
AcDbCircle
 10
104.782485678274
 20
-48.79026415095814
 30
0.0
 40
1.0
100
AcDbArc
 50
180.0
 51
270.0
  0
LINE
  5
3CC
330
1F
100
AcDbEntity
  8
Default
100
AcDbLine
 10
103.782485678274
 20
-43.79026415095808
 30
0.0
 11
103.782485678274
 21
-48.79026415095814
 31
0.0
  0
LINE
  5
3CD
330
1F
100
AcDbEntity
  8
Default
100
AcDbLine
 10
103.7824856782741
 20
-38.79026415095814
 30
0.0
 11
103.782485678274
 21
-43.79026415095808
 31
0.0
  0
ARC
  5
3CE
330
1F
100
AcDbEntity
  8
Default
100
AcDbCircle
 10
104.7824856782741
 20
-38.79026415095814
 30
0.0
 40
1.0
100
AcDbArc
 50
90.0
 51
180.0
  0
LINE
  5
3CF
330
1F
100
AcDbEntity
  8
Default
100
AcDbLine
 10
108.7824856782741
 20
-37.79026415095814
 30
0.0
 11
104.7824856782741
 21
-37.79026415095814
 31
0.0
  0
LINE
  5
3D0
330
1F
100
AcDbEntity
  8
Default
100
AcDbLine
 10
108.9324856782737
 20
-37.79026415095814
 30
0.0
 11
108.7824856782741
 21
-37.79026415095814
 31
0.0
  0
LINE
  5
3D1
330
1F
100
AcDbEntity
  8
Default
100
AcDbLine
 10
109.932485678274
 20
-38.79026415095825
 30
0.0
 11
108.9324856782737
 21
-37.79026415095814
 31
0.0
  0
LINE
  5
3D2
330
1F
100
AcDbEntity
  8
Default
100
AcDbLine
 10
109.9324856782741
 20
-40.64026415095907
 30
0.0
 11
109.932485678274
 21
-38.79026415095825
 31
0.0
  0
LINE
  5
3D3
330
1F
100
AcDbEntity
  8
Default
100
AcDbLine
 10
112.432485678274
 20
-40.64026415095918
 30
0.0
 11
109.9324856782741
 21
-40.64026415095907
 31
0.0
  0
LINE
  5
3D4
330
1F
100
AcDbEntity
  8
Default
100
AcDbLine
 10
112.432485678274
 20
-38.79026415095825
 30
0.0
 11
112.432485678274
 21
-40.64026415095918
 31
0.0
  0
LINE
  5
3D5
330
1F
100
AcDbEntity
  8
Default
100
AcDbLine
 10
143.7324856782733
 20
-40.64026415095918
 30
0.0
 11
143.7324856782733
 21
-38.79026415095836
 31
0.0
  0
LINE
  5
3D6
330
1F
100
AcDbEntity
  8
Default
100
AcDbLine
 10
146.2324856782732
 20
-40.6402641509593
 30
0.0
 11
143.7324856782733
 21
-40.64026415095918
 31
0.0
  0
LINE
  5
3D7
330
1F
100
AcDbEntity
  8
Default
100
AcDbLine
 10
146.2324856782733
 20
-38.79026415095831
 30
0.0
 11
146.2324856782732
 21
-40.6402641509593
 31
0.0
  0
LINE
  5
3D8
330
1F
100
AcDbEntity
  8
Default
100
AcDbLine
 10
147.2324856782734
 20
-37.79026415095825
 30
0.0
 11
146.2324856782733
 21
-38.79026415095831
 31
0.0
  0
LINE
  5
3D9
330
1F
100
AcDbEntity
  8
Default
100
AcDbLine
 10
176.5324856782729
 20
-37.79026415095831
 30
0.0
 11
147.2324856782734
 21
-37.79026415095825
 31
0.0
  0
LINE
  5
3DA
330
1F
100
AcDbEntity
  8
Default
100
AcDbLine
 10
177.532485678274
 20
-38.79026415095859
 30
0.0
 11
176.5324856782729
 21
-37.79026415095831
 31
0.0
  0
LINE
  5
3DB
330
1F
100
AcDbEntity
  8
Default
100
AcDbLine
 10
177.5324856782748
 20
-40.64026415095952
 30
0.0
 11
177.532485678274
 21
-38.79026415095859
 31
0.0
  0
LINE
  5
3DC
330
1F
100
AcDbEntity
  8
Default
100
AcDbLine
 10
180.0324856782747
 20
-40.64026415095964
 30
0.0
 11
177.5324856782748
 21
-40.64026415095952
 31
0.0
  0
LINE
  5
3DD
330
1F
100
AcDbEntity
  8
Default
100
AcDbLine
 10
180.0324856782748
 20
-38.79026415095859
 30
0.0
 11
180.0324856782747
 21
-40.64026415095964
 31
0.0
  0
LINE
  5
3DE
330
1F
100
AcDbEntity
  8
Default
100
AcDbLine
 10
181.0324856782752
 20
-37.79026415095848
 30
0.0
 11
180.0324856782748
 21
-38.79026415095859
 31
0.0
  0
LINE
  5
3DF
330
1F
100
AcDbEntity
  8
Default
100
AcDbLine
 10
210.182485678274
 20
-37.79026415095848
 30
0.0
 11
181.0324856782752
 21
-37.79026415095848
 31
0.0
  0
LINE
  5
3E0
330
1F
100
AcDbEntity
  8
Default
100
AcDbLine
 10
210.3324856782735
 20
-37.79026415095848
 30
0.0
 11
210.182485678274
 21
-37.79026415095848
 31
0.0
  0
ENDSEC
  0
SECTION
  2
OBJECTS
  0
DICTIONARY
  5
C
330
0
100
AcDbDictionary
281
     1
  3
ACAD_DETAILVIEWSTYLE
350
41C
  3
ACAD_GROUP
350
D
  3
ACAD_LAYOUT
350
1A
  3
ACAD_MATERIAL
350
43
  3
ACAD_MLEADERSTYLE
350
6B
  3
ACAD_MLINESTYLE
350
17
  3
ACAD_PLOTSETTINGS
350
19
  3
ACAD_PLOTSTYLENAME
350
E
  3
ACAD_SCALELIST
350
47
  3
ACAD_SECTIONVIEWSTYLE
350
41D
  3
ACAD_TABLESTYLE
350
69
  3
ACAD_VISUALSTYLE
350
2A
  3
ACDB_RECOMPOSE_DATA
350
419
  3
AcDbVariableDictionary
350
3E1
  0
SUN
  5
6D
330
29
100
AcDbSun
 90
        1
290
     0
 63
     7
421
 16777215
 40
1.0
291
     1
 91
  2455826
 92
 54000000
292
     0
 70
     2
 71
   256
280
     1
  0
DICTIONARY
  5
41C
102
{ACAD_REACTORS
330
C
102
}
330
C
100
AcDbDictionary
281
     1
  0
DICTIONARY
  5
D
102
{ACAD_REACTORS
330
C
102
}
330
C
100
AcDbDictionary
281
     1
  0
DICTIONARY
  5
1A
102
{ACAD_REACTORS
330
C
102
}
330
C
100
AcDbDictionary
281
     1
  3
Layout1
350
1E
  3
Layout2
350
26
  3
Model
350
22
  0
DICTIONARY
  5
43
102
{ACAD_REACTORS
330
C
102
}
330
C
100
AcDbDictionary
281
     1
  3
ByBlock
350
45
  3
ByLayer
350
44
  3
Global
350
46
  0
DICTIONARY
  5
6B
102
{ACAD_REACTORS
330
C
102
}
330
C
100
AcDbDictionary
281
     1
  3
Standard
350
6C
  0
DICTIONARY
  5
17
102
{ACAD_REACTORS
330
C
102
}
330
C
100
AcDbDictionary
281
     1
  3
Standard
350
18
  0
DICTIONARY
  5
19
102
{ACAD_REACTORS
330
C
102
}
330
C
100
AcDbDictionary
281
     1
  0
ACDBDICTIONARYWDFLT
  5
E
102
{ACAD_REACTORS
330
C
102
}
330
C
100
AcDbDictionary
281
     1
  3
Normal
350
F
100
AcDbDictionaryWithDefault
340
F
  0
DICTIONARY
  5
47
102
{ACAD_REACTORS
330
C
102
}
330
C
100
AcDbDictionary
281
     1
  3
A0
350
48
  3
A1
350
49
  3
A2
350
4A
  3
A3
350
4B
  3
A4
350
4C
  3
A5
350
4D
  3
A6
350
4E
  3
A7
350
4F
  3
A8
350
50
  3
A9
350
51
  3
B0
350
52
  3
B1
350
53
  3
B2
350
54
  3
B3
350
55
  3
B4
350
56
  3
B5
350
57
  3
B6
350
58
  3
B7
350
59
  3
B8
350
5A
  3
B9
350
5B
  3
C0
350
5C
  3
C1
350
5D
  3
C2
350
5E
  3
C3
350
5F
  3
C4
350
60
  3
C5
350
61
  3
C6
350
62
  3
C7
350
63
  3
C8
350
64
  3
C9
350
65
  3
D0
350
66
  3
D1
350
67
  3
D2
350
68
  0
DICTIONARY
  5
41D
102
{ACAD_REACTORS
330
C
102
}
330
C
100
AcDbDictionary
281
     1
  0
DICTIONARY
  5
69
102
{ACAD_REACTORS
330
C
102
}
330
C
100
AcDbDictionary
281
     1
  3
Standard
350
6A
  0
DICTIONARY
  5
2A
102
{ACAD_REACTORS
330
C
102
}
330
C
100
AcDbDictionary
281
     1
  3
2dWireframe
350
2F
  3
Basic
350
32
  3
Brighten
350
36
  3
ColorChange
350
3A
  3
Conceptual
350
34
  3
Dim
350
35
  3
EdgeColorOff
350
3D
  3
Facepattern
350
39
  3
Flat
350
2B
  3
FlatWithEdges
350
2C
  3
Gouraud
350
2D
  3
GouraudWithEdges
350
2E
  3
Hidden
350
31
  3
JitterOff
350
3B
  3
Linepattern
350
38
  3
OverhangOff
350
3C
  3
Realistic
350
33
  3
Shaded
350
42
  3
Shaded with edges
350
41
  3
Shades of Gray
350
3E
  3
Sketchy
350
3F
  3
Thicken
350
37
  3
Wireframe
350
30
  3
X-Ray
350
40
  0
XRECORD
  5
419
102
{ACAD_REACTORS
330
C
102
}
330
C
100
AcDbXrecord
280
     1
 90
        1
330
6A
  0
DICTIONARY
  5
3E1
102
{ACAD_REACTORS
330
C
102
}
330
C
100
AcDbDictionary
281
     1
  3
CANNOSCALE
350
3E2
  3
CMLEADERSTYLE
350
41B
  3
CTABLESTYLE
350
41A
  3
XCLIPFRAME
350
3E3
  0
LAYOUT
  5
1E
102
{ACAD_REACTORS
330
1A
102
}
330
1A
100
AcDbPlotSettings
  1

  2
none_device
  4

  6

 40
0.0
 41
0.0
 42
0.0
 43
0.0
 44
0.0
 45
0.0
 46
0.0
 47
0.0
 48
0.0
 49
0.0
140
0.0
141
0.0
142
1.0
143
1.0
 70
   688
 72
     0
 73
     0
 74
     5
  7

 75
    16
 76
     0
 77
     2
 78
   300
147
1.0
148
0.0
149
0.0
100
AcDbLayout
  1
Layout1
 70
     1
 71
     1
 10
0.0
 20
0.0
 11
12.0
 21
9.0
 12
0.0
 22
0.0
 32
0.0
 14
1.000000000000000E+20
 24
1.000000000000000E+20
 34
1.000000000000000E+20
 15
-1.000000000000000E+20
 25
-1.000000000000000E+20
 35
-1.000000000000000E+20
146
0.0
 13
0.0
 23
0.0
 33
0.0
 16
1.0
 26
0.0
 36
0.0
 17
0.0
 27
1.0
 37
0.0
 76
     0
330
1B
  0
LAYOUT
  5
26
102
{ACAD_REACTORS
330
1A
102
}
330
1A
100
AcDbPlotSettings
  1

  2
none_device
  4

  6

 40
0.0
 41
0.0
 42
0.0
 43
0.0
 44
0.0
 45
0.0
 46
0.0
 47
0.0
 48
0.0
 49
0.0
140
0.0
141
0.0
142
1.0
143
1.0
 70
   688
 72
     0
 73
     0
 74
     5
  7

 75
    16
 76
     0
 77
     2
 78
   300
147
1.0
148
0.0
149
0.0
100
AcDbLayout
  1
Layout2
 70
     1
 71
     2
 10
0.0
 20
0.0
 11
0.0
 21
0.0
 12
0.0
 22
0.0
 32
0.0
 14
0.0
 24
0.0
 34
0.0
 15
0.0
 25
0.0
 35
0.0
146
0.0
 13
0.0
 23
0.0
 33
0.0
 16
1.0
 26
0.0
 36
0.0
 17
0.0
 27
1.0
 37
0.0
 76
     0
330
23
  0
LAYOUT
  5
22
102
{ACAD_REACTORS
330
1A
102
}
330
1A
100
AcDbPlotSettings
  1

  2
none_device
  4
Letter_(8.50_x_11.00_Inches)
  6

 40
6.35
 41
6.35
 42
6.35000508
 43
6.35000508
 44
215.9
 45
279.4
 46
0.0
 47
0.0
 48
0.0
 49
0.0
140
0.0
141
0.0
142
1.0
143
1.0
 70
  1712
 72
     0
 73
     0
 74
     0
  7

 75
     0
 76
     0
 77
     2
 78
   300
147
1.0
148
0.0
149
0.0
100
AcDbLayout
  1
Model
 70
     1
 71
     0
 10
0.0
 20
0.0
 11
12.0
 21
9.0
 12
0.0
 22
0.0
 32
0.0
 14
1.000000000000000E+20
 24
1.000000000000000E+20
 34
1.000000000000000E+20
 15
-1.000000000000000E+20
 25
-1.000000000000000E+20
 35
-1.000000000000000E+20
146
0.0
 13
0.0
 23
0.0
 33
0.0
 16
1.0
 26
0.0
 36
0.0
 17
0.0
 27
1.0
 37
0.0
 76
     0
330
1F
331
29
  0
MATERIAL
  5
45
102
{ACAD_REACTORS
330
43
102
}
330
43
100
AcDbMaterial
  1
ByBlock
 72
     1
 94
      127
  0
MATERIAL
  5
44
102
{ACAD_REACTORS
330
43
102
}
330
43
100
AcDbMaterial
  1
ByLayer
 72
     1
 94
      127
  0
MATERIAL
  5
46
102
{ACAD_REACTORS
330
43
102
}
330
43
100
AcDbMaterial
  1
Global
 72
     1
 94
      127
  0
MLEADERSTYLE
  5
6C
102
{ACAD_REACTORS
330
6B
102
}
102
{ACAD_XDICTIONARY
360
417
102
}
330
6B
100
AcDbMLeaderStyle
170
     2
171
     1
172
     0
 90
        2
 40
0.0
 41
0.0
173
     1
 91
-1056964608
340
14
 92
       -2
290
     1
 42
0.09
291
     1
 43
0.36
  3
Standard
341
0
 44
0.18
300

342
11
174
     1
178
     6
175
     1
176
     0
 93
-1056964608
 45
0.18
292
     0
297
     0
 46
0.18
343
0
 94
-1056964608
 47
1.0
 49
1.0
140
1.0
293
     1
141
0.0
294
     1
177
     0
142
1.0
295
     0
296
     0
143
0.125
1001
ACAD_MLEADERVER
1070
     2
  0
MLINESTYLE
  5
18
102
{ACAD_REACTORS
330
17
102
}
330
17
100
AcDbMlineStyle
  2
Standard
 70
     0
  3

 62
   256
 51
90.0
 52
90.0
 71
     2
 49
0.5
 62
   256
  6
BYLAYER
 49
-0.5
 62
   256
  6
BYLAYER
  0
ACDBPLACEHOLDER
  5
F
102
{ACAD_REACTORS
330
E
102
}
330
E
  0
SCALE
  5
48
102
{ACAD_REACTORS
330
47
102
}
330
47
100
AcDbScale
 70
     0
300
1:1
140
1.0
141
1.0
290
     1
  0
SCALE
  5
49
102
{ACAD_REACTORS
330
47
102
}
330
47
100
AcDbScale
 70
     0
300
1:2
140
1.0
141
2.0
290
     0
  0
SCALE
  5
4A
102
{ACAD_REACTORS
330
47
102
}
330
47
100
AcDbScale
 70
     0
300
1:4
140
1.0
141
4.0
290
     0
  0
SCALE
  5
4B
102
{ACAD_REACTORS
330
47
102
}
330
47
100
AcDbScale
 70
     0
300
1:5
140
1.0
141
5.0
290
     0
  0
SCALE
  5
4C
102
{ACAD_REACTORS
330
47
102
}
330
47
100
AcDbScale
 70
     0
300
1:8
140
1.0
141
8.0
290
     0
  0
SCALE
  5
4D
102
{ACAD_REACTORS
330
47
102
}
330
47
100
AcDbScale
 70
     0
300
1:10
140
1.0
141
10.0
290
     0
  0
SCALE
  5
4E
102
{ACAD_REACTORS
330
47
102
}
330
47
100
AcDbScale
 70
     0
300
1:16
140
1.0
141
16.0
290
     0
  0
SCALE
  5
4F
102
{ACAD_REACTORS
330
47
102
}
330
47
100
AcDbScale
 70
     0
300
1:20
140
1.0
141
20.0
290
     0
  0
SCALE
  5
50
102
{ACAD_REACTORS
330
47
102
}
330
47
100
AcDbScale
 70
     0
300
1:30
140
1.0
141
30.0
290
     0
  0
SCALE
  5
51
102
{ACAD_REACTORS
330
47
102
}
330
47
100
AcDbScale
 70
     0
300
1:40
140
1.0
141
40.0
290
     0
  0
SCALE
  5
52
102
{ACAD_REACTORS
330
47
102
}
330
47
100
AcDbScale
 70
     0
300
1:50
140
1.0
141
50.0
290
     0
  0
SCALE
  5
53
102
{ACAD_REACTORS
330
47
102
}
330
47
100
AcDbScale
 70
     0
300
1:100
140
1.0
141
100.0
290
     0
  0
SCALE
  5
54
102
{ACAD_REACTORS
330
47
102
}
330
47
100
AcDbScale
 70
     0
300
2:1
140
2.0
141
1.0
290
     0
  0
SCALE
  5
55
102
{ACAD_REACTORS
330
47
102
}
330
47
100
AcDbScale
 70
     0
300
4:1
140
4.0
141
1.0
290
     0
  0
SCALE
  5
56
102
{ACAD_REACTORS
330
47
102
}
330
47
100
AcDbScale
 70
     0
300
8:1
140
8.0
141
1.0
290
     0
  0
SCALE
  5
57
102
{ACAD_REACTORS
330
47
102
}
330
47
100
AcDbScale
 70
     0
300
10:1
140
10.0
141
1.0
290
     0
  0
SCALE
  5
58
102
{ACAD_REACTORS
330
47
102
}
330
47
100
AcDbScale
 70
     0
300
100:1
140
100.0
141
1.0
290
     0
  0
SCALE
  5
59
102
{ACAD_REACTORS
330
47
102
}
330
47
100
AcDbScale
 70
     0
300
1/128" = 1'-0"
140
0.0078125
141
12.0
290
     0
  0
SCALE
  5
5A
102
{ACAD_REACTORS
330
47
102
}
330
47
100
AcDbScale
 70
     0
300
1/64" = 1'-0"
140
0.015625
141
12.0
290
     0
  0
SCALE
  5
5B
102
{ACAD_REACTORS
330
47
102
}
330
47
100
AcDbScale
 70
     0
300
1/32" = 1'-0"
140
0.03125
141
12.0
290
     0
  0
SCALE
  5
5C
102
{ACAD_REACTORS
330
47
102
}
330
47
100
AcDbScale
 70
     0
300
1/16" = 1'-0"
140
0.0625
141
12.0
290
     0
  0
SCALE
  5
5D
102
{ACAD_REACTORS
330
47
102
}
330
47
100
AcDbScale
 70
     0
300
3/32" = 1'-0"
140
0.09375
141
12.0
290
     0
  0
SCALE
  5
5E
102
{ACAD_REACTORS
330
47
102
}
330
47
100
AcDbScale
 70
     0
300
1/8" = 1'-0"
140
0.125
141
12.0
290
     0
  0
SCALE
  5
5F
102
{ACAD_REACTORS
330
47
102
}
330
47
100
AcDbScale
 70
     0
300
3/16" = 1'-0"
140
0.1875
141
12.0
290
     0
  0
SCALE
  5
60
102
{ACAD_REACTORS
330
47
102
}
330
47
100
AcDbScale
 70
     0
300
1/4" = 1'-0"
140
0.25
141
12.0
290
     0
  0
SCALE
  5
61
102
{ACAD_REACTORS
330
47
102
}
330
47
100
AcDbScale
 70
     0
300
3/8" = 1'-0"
140
0.375
141
12.0
290
     0
  0
SCALE
  5
62
102
{ACAD_REACTORS
330
47
102
}
330
47
100
AcDbScale
 70
     0
300
1/2" = 1'-0"
140
0.5
141
12.0
290
     0
  0
SCALE
  5
63
102
{ACAD_REACTORS
330
47
102
}
330
47
100
AcDbScale
 70
     0
300
3/4" = 1'-0"
140
0.75
141
12.0
290
     0
  0
SCALE
  5
64
102
{ACAD_REACTORS
330
47
102
}
330
47
100
AcDbScale
 70
     0
300
1" = 1'-0"
140
1.0
141
12.0
290
     0
  0
SCALE
  5
65
102
{ACAD_REACTORS
330
47
102
}
330
47
100
AcDbScale
 70
     0
300
1-1/2" = 1'-0"
140
1.5
141
12.0
290
     0
  0
SCALE
  5
66
102
{ACAD_REACTORS
330
47
102
}
330
47
100
AcDbScale
 70
     0
300
3" = 1'-0"
140
3.0
141
12.0
290
     0
  0
SCALE
  5
67
102
{ACAD_REACTORS
330
47
102
}
330
47
100
AcDbScale
 70
     0
300
6" = 1'-0"
140
6.0
141
12.0
290
     0
  0
SCALE
  5
68
102
{ACAD_REACTORS
330
47
102
}
330
47
100
AcDbScale
 70
     0
300
1'-0" = 1'-0"
140
12.0
141
12.0
290
     0
  0
TABLESTYLE
  5
6A
102
{ACAD_REACTORS
330
69
102
}
102
{ACAD_XDICTIONARY
360
414
102
}
330
69
100
AcDbTableStyle
  3
Standard
 70
     0
 71
     0
 40
0.06
 41
0.06
280
     0
281
     0
  7
Standard
140
0.18
170
     2
 62
     0
 63
   257
283
     0
 90
        4
 91
        0
  1

274
    -2
284
     1
 64
     0
275
    -2
285
     1
 65
     0
276
    -2
286
     1
 66
     0
277
    -2
287
     1
 67
     0
278
    -2
288
     1
 68
     0
279
    -2
289
     1
 69
     0
  7
Standard
140
0.25
170
     5
 62
     0
 63
   257
283
     0
 90
        4
 91
        0
  1

274
    -2
284
     1
 64
     0
275
    -2
285
     1
 65
     0
276
    -2
286
     1
 66
     0
277
    -2
287
     1
 67
     0
278
    -2
288
     1
 68
     0
279
    -2
289
     1
 69
     0
  7
Standard
140
0.18
170
     5
 62
     0
 63
   257
283
     0
 90
        4
 91
        0
  1

274
    -2
284
     1
 64
     0
275
    -2
285
     1
 65
     0
276
    -2
286
     1
 66
     0
277
    -2
287
     1
 67
     0
278
    -2
288
     1
 68
     0
279
    -2
289
     1
 69
     0
  0
VISUALSTYLE
  5
2F
102
{ACAD_REACTORS
330
2A
102
}
102
{ACAD_XDICTIONARY
360
3EC
102
}
330
2A
100
AcDbVisualStyle
  2
2dWireframe
 70
     4
 71
     0
 72
     2
 73
     0
 90
        0
 40
0.6
 41
30.0
 62
     5
 63
     7
421
 16777215
 74
     1
 91
        4
 64
     7
 65
   257
 75
     1
175
     1
 42
1.0
 92
        0
 66
   257
 43
1.0
 76
     1
 77
     6
 78
     2
 67
     7
 79
     5
170
     0
171
     0
290
     0
174
     0
 93
        1
 44
0.0
173
     0
291
     0
 45
0.0
  0
VISUALSTYLE
  5
32
102
{ACAD_REACTORS
330
2A
102
}
102
{ACAD_XDICTIONARY
360
3F2
102
}
330
2A
100
AcDbVisualStyle
  2
Basic
 70
     7
 71
     1
 72
     0
 73
     1
 90
        0
 40
0.6
 41
30.0
 62
     5
 63
     7
421
 16777215
 74
     0
 91
        4
 64
     7
 65
   257
 75
     1
175
     1
 42
1.0
 92
        8
 66
     7
 43
1.0
 76
     1
 77
     6
 78
     2
 67
     7
 79
     5
170
     0
171
     0
290
     0
174
     0
 93
        1
 44
0.0
173
     0
291
     1
 45
0.0
  0
VISUALSTYLE
  5
36
102
{ACAD_REACTORS
330
2A
102
}
102
{ACAD_XDICTIONARY
360
3FA
102
}
330
2A
100
AcDbVisualStyle
  2
Brighten
 70
    12
 71
     2
 72
     2
 73
     0
 90
        0
 40
0.6
 41
30.0
 62
     5
 63
     7
421
 16777215
 74
     1
 91
        4
 64
     7
 65
   257
 75
     1
175
     1
 42
1.0
 92
        8
 66
     7
 43
1.0
 76
     1
 77
     6
 78
     2
 67
     7
 79
     5
170
     0
171
     0
290
     0
174
     0
 93
        1
 44
50.0
173
     0
291
     1
 45
0.0
  0
VISUALSTYLE
  5
3A
102
{ACAD_REACTORS
330
2A
102
}
102
{ACAD_XDICTIONARY
360
402
102
}
330
2A
100
AcDbVisualStyle
  2
ColorChange
 70
    16
 71
     2
 72
     2
 73
     3
 90
        0
 40
0.6
 41
30.0
 62
     5
 63
     8
421
  8421504
 74
     1
 91
        4
 64
     7
 65
   257
 75
     1
175
     1
 42
1.0
 92
        8
 66
     8
424
  8421504
 43
1.0
 76
     1
 77
     6
 78
     2
 67
     7
 79
     5
170
     0
171
     0
290
     0
174
     0
 93
        1
 44
0.0
173
     0
291
     1
 45
0.0
  0
VISUALSTYLE
  5
34
102
{ACAD_REACTORS
330
2A
102
}
102
{ACAD_XDICTIONARY
360
3F6
102
}
330
2A
100
AcDbVisualStyle
  2
Conceptual
 70
     9
 71
     3
 72
     2
 73
     0
 90
        0
 40
0.6
 41
30.0
 62
     5
 63
     7
421
 16777215
 74
     2
 91
        2
 64
     7
 65
   257
 75
     1
175
     1
 42
179.0
 92
        8
 66
     7
 43
1.0
 76
     1
 77
     6
 78
     2
 67
     7
 79
     3
170
     0
171
     0
290
     0
174
     0
 93
        1
 44
0.0
173
     0
291
     0
 45
0.0
  0
VISUALSTYLE
  5
35
102
{ACAD_REACTORS
330
2A
102
}
102
{ACAD_XDICTIONARY
360
3F8
102
}
330
2A
100
AcDbVisualStyle
  2
Dim
 70
    11
 71
     2
 72
     2
 73
     0
 90
        0
 40
0.6
 41
30.0
 62
     5
 63
     7
421
 16777215
 74
     1
 91
        4
 64
     7
 65
   257
 75
     1
175
     1
 42
1.0
 92
        8
 66
     7
 43
1.0
 76
     1
 77
     6
 78
     2
 67
     7
 79
     5
170
     0
171
     0
290
     0
174
     0
 93
        1
 44
-50.0
173
     0
291
     1
 45
0.0
  0
VISUALSTYLE
  5
3D
102
{ACAD_REACTORS
330
2A
102
}
102
{ACAD_XDICTIONARY
360
408
102
}
330
2A
100
AcDbVisualStyle
  2
EdgeColorOff
 70
    22
 71
     2
 72
     2
 73
     0
 90
        0
 40
0.6
 41
30.0
 62
     5
 63
     7
421
 16777215
 74
     1
 91
        4
 64
     7
 65
   257
 75
     1
175
     1
 42
1.0
 92
        8
 66
     7
 43
1.0
 76
     1
 77
     6
 78
     2
 67
     7
 79
     5
170
     0
171
     0
290
     0
174
     0
 93
        1
 44
0.0
173
     0
291
     1
 45
0.0
  0
VISUALSTYLE
  5
39
102
{ACAD_REACTORS
330
2A
102
}
102
{ACAD_XDICTIONARY
360
400
102
}
330
2A
100
AcDbVisualStyle
  2
Facepattern
 70
    15
 71
     2
 72
     2
 73
     0
 90
        0
 40
0.6
 41
30.0
 62
     5
 63
     7
421
 16777215
 74
     1
 91
        4
 64
     7
 65
   257
 75
     1
175
     1
 42
1.0
 92
        8
 66
     7
 43
1.0
 76
     1
 77
     6
 78
     2
 67
     7
 79
     5
170
     0
171
     0
290
     0
174
     0
 93
        1
 44
0.0
173
     0
291
     1
 45
0.0
  0
VISUALSTYLE
  5
2B
102
{ACAD_REACTORS
330
2A
102
}
102
{ACAD_XDICTIONARY
360
3E4
102
}
330
2A
100
AcDbVisualStyle
  2
Flat
 70
     0
 71
     2
 72
     1
 73
     1
 90
        2
 40
0.6
 41
30.0
 62
     5
 63
     7
421
 16777215
 74
     0
 91
        0
 64
     7
 65
   257
 75
     1
175
     1
 42
1.0
 92
        8
 66
     7
 43
1.0
 76
     1
 77
     6
 78
     2
 67
     7
 79
     5
170
     0
171
     0
290
     0
174
     0
 93
       13
 44
0.0
173
     0
291
     1
 45
0.0
  0
VISUALSTYLE
  5
2C
102
{ACAD_REACTORS
330
2A
102
}
102
{ACAD_XDICTIONARY
360
3E6
102
}
330
2A
100
AcDbVisualStyle
  2
FlatWithEdges
 70
     1
 71
     2
 72
     1
 73
     1
 90
        2
 40
0.6
 41
30.0
 62
     5
 63
     7
421
 16777215
 74
     1
 91
        0
 64
     7
 65
   257
 75
     1
175
     1
 42
1.0
 92
        0
 66
   257
 43
1.0
 76
     1
 77
     6
 78
     2
 67
     7
 79
     5
170
     0
171
     0
290
     0
174
     0
 93
       13
 44
0.0
173
     0
291
     1
 45
0.0
  0
VISUALSTYLE
  5
2D
102
{ACAD_REACTORS
330
2A
102
}
102
{ACAD_XDICTIONARY
360
3E8
102
}
330
2A
100
AcDbVisualStyle
  2
Gouraud
 70
     2
 71
     2
 72
     2
 73
     1
 90
        2
 40
0.6
 41
30.0
 62
     5
 63
     7
421
 16777215
 74
     0
 91
        0
 64
     7
 65
   257
 75
     1
175
     1
 42
1.0
 92
        0
 66
     7
 43
1.0
 76
     1
 77
     6
 78
     2
 67
     7
 79
     5
170
     0
171
     0
290
     0
174
     0
 93
       13
 44
0.0
173
     0
291
     1
 45
0.0
  0
VISUALSTYLE
  5
2E
102
{ACAD_REACTORS
330
2A
102
}
102
{ACAD_XDICTIONARY
360
3EA
102
}
330
2A
100
AcDbVisualStyle
  2
GouraudWithEdges
 70
     3
 71
     2
 72
     2
 73
     1
 90
        2
 40
0.6
 41
30.0
 62
     5
 63
     7
421
 16777215
 74
     1
 91
        0
 64
     7
 65
   257
 75
     1
175
     1
 42
1.0
 92
        0
 66
   257
 43
1.0
 76
     1
 77
     6
 78
     2
 67
     7
 79
     5
170
     0
171
     0
290
     0
174
     0
 93
       13
 44
0.0
173
     0
291
     1
 45
0.0
  0
VISUALSTYLE
  5
31
102
{ACAD_REACTORS
330
2A
102
}
102
{ACAD_XDICTIONARY
360
3F0
102
}
330
2A
100
AcDbVisualStyle
  2
Hidden
 70
     6
 71
     1
 72
     2
 73
     2
 90
        0
 40
0.6
 41
30.0
 62
     5
 63
     7
421
 16777215
 74
     2
 91
        2
 64
     7
 65
   257
 75
     2
175
     1
 42
40.0
 92
        0
 66
   257
 43
1.0
 76
     1
 77
     6
 78
     2
 67
     7
 79
     3
170
     0
171
     0
290
     0
174
     0
 93
        1
 44
0.0
173
     0
291
     0
 45
0.0
  0
VISUALSTYLE
  5
3B
102
{ACAD_REACTORS
330
2A
102
}
102
{ACAD_XDICTIONARY
360
404
102
}
330
2A
100
AcDbVisualStyle
  2
JitterOff
 70
    20
 71
     2
 72
     2
 73
     0
 90
        0
 40
0.6
 41
30.0
 62
     5
 63
     7
421
 16777215
 74
     1
 91
        4
 64
     7
 65
   257
 75
     1
175
     1
 42
1.0
 92
       10
 66
     7
 43
1.0
 76
     1
 77
     6
 78
     2
 67
     7
 79
     5
170
     0
171
     0
290
     0
174
     0
 93
        1
 44
0.0
173
     0
291
     1
 45
0.0
  0
VISUALSTYLE
  5
38
102
{ACAD_REACTORS
330
2A
102
}
102
{ACAD_XDICTIONARY
360
3FE
102
}
330
2A
100
AcDbVisualStyle
  2
Linepattern
 70
    14
 71
     2
 72
     2
 73
     0
 90
        0
 40
0.6
 41
30.0
 62
     5
 63
     7
421
 16777215
 74
     1
 91
        4
 64
     7
 65
   257
 75
     7
175
     7
 42
1.0
 92
        8
 66
     7
 43
1.0
 76
     1
 77
     6
 78
     2
 67
     7
 79
     5
170
     0
171
     0
290
     0
174
     0
 93
        1
 44
0.0
173
     0
291
     1
 45
0.0
  0
VISUALSTYLE
  5
3C
102
{ACAD_REACTORS
330
2A
102
}
102
{ACAD_XDICTIONARY
360
406
102
}
330
2A
100
AcDbVisualStyle
  2
OverhangOff
 70
    21
 71
     2
 72
     2
 73
     0
 90
        0
 40
0.6
 41
30.0
 62
     5
 63
     7
421
 16777215
 74
     1
 91
        4
 64
     7
 65
   257
 75
     1
175
     1
 42
1.0
 92
        9
 66
     7
 43
1.0
 76
     1
 77
     6
 78
     2
 67
     7
 79
     5
170
     0
171
     0
290
     0
174
     0
 93
        1
 44
0.0
173
     0
291
     1
 45
0.0
  0
VISUALSTYLE
  5
33
102
{ACAD_REACTORS
330
2A
102
}
102
{ACAD_XDICTIONARY
360
3F4
102
}
330
2A
100
AcDbVisualStyle
  2
Realistic
 70
     8
 71
     2
 72
     3
 73
     0
 90
        2
 40
0.6
 41
30.0
 62
     5
 63
     7
421
 16777215
 74
     0
 91
        0
 64
     7
 65
   257
 75
     1
175
     1
 42
1.0
 92
        8
 66
   257
 43
1.0
 76
     1
 77
     6
 78
     2
 67
     7
 79
     3
170
     0
171
     0
290
     0
174
     0
 93
       13
 44
0.0
173
     0
291
     0
 45
0.0
  0
VISUALSTYLE
  5
42
102
{ACAD_REACTORS
330
2A
102
}
102
{ACAD_XDICTIONARY
360
412
102
}
330
2A
100
AcDbVisualStyle
  2
Shaded
 70
    27
 71
     2
 72
     2
 73
     1
 90
        2
 40
0.6
 41
30.0
 62
     5
 63
     7
421
 16777215
 74
     0
 91
        4
 64
     7
 65
   257
 75
     1
175
     1
 42
1.0
 92
        8
 66
   257
 43
1.0
 76
     1
 77
     6
 78
     2
 67
     8
425
  7895160
 79
     3
170
     0
171
     0
290
     0
174
     0
 93
        5
 44
0.0
173
     0
291
     0
 45
0.0
  0
VISUALSTYLE
  5
41
102
{ACAD_REACTORS
330
2A
102
}
102
{ACAD_XDICTIONARY
360
410
102
}
330
2A
100
AcDbVisualStyle
  2
Shaded with edges
 70
    26
 71
     2
 72
     2
 73
     1
 90
        2
 40
0.6
 41
30.0
 62
     5
 63
     7
421
 16777215
 74
     1
 91
       10
 64
     7
 65
   257
 75
     2
175
     1
 42
1.0
 92
        8
 66
   257
 43
1.0
 76
     1
 77
     6
 78
     2
 67
     7
 79
     3
170
     0
171
     0
290
     0
174
     0
 93
        5
 44
0.0
173
     0
291
     0
 45
0.0
  0
VISUALSTYLE
  5
3E
102
{ACAD_REACTORS
330
2A
102
}
102
{ACAD_XDICTIONARY
360
40A
102
}
330
2A
100
AcDbVisualStyle
  2
Shades of Gray
 70
    23
 71
     2
 72
     2
 73
     3
 90
        0
 40
0.6
 41
30.0
 62
     5
 63
     7
421
 16777215
 74
     2
 91
        2
 64
     7
 65
     7
 75
     1
175
     1
 42
40.0
 92
        8
 66
     7
 43
1.0
 76
     1
 77
     6
 78
     2
 67
     7
 79
     3
170
     0
171
     0
290
     0
174
     0
 93
        1
 44
0.0
173
     0
291
     0
 45
0.0
  0
VISUALSTYLE
  5
3F
102
{ACAD_REACTORS
330
2A
102
}
102
{ACAD_XDICTIONARY
360
40C
102
}
330
2A
100
AcDbVisualStyle
  2
Sketchy
 70
    24
 71
     1
 72
     2
 73
     2
 90
        0
 40
0.6
 41
30.0
 62
     5
 63
     7
421
 16777215
 74
     2
 91
        2
 64
     7
 65
     7
 75
     1
175
     1
 42
40.0
 92
       11
 66
     7
 43
1.0
 76
     1
 77
     6
 78
     2
 67
     7
 79
     6
170
     0
171
     0
290
     0
174
     0
 93
        1
 44
0.0
173
     0
291
     0
 45
0.0
  0
VISUALSTYLE
  5
37
102
{ACAD_REACTORS
330
2A
102
}
102
{ACAD_XDICTIONARY
360
3FC
102
}
330
2A
100
AcDbVisualStyle
  2
Thicken
 70
    13
 71
     2
 72
     2
 73
     0
 90
        0
 40
0.6
 41
30.0
 62
     5
 63
     7
421
 16777215
 74
     1
 91
        4
 64
     7
 65
   257
 75
     1
175
     1
 42
1.0
 92
       12
 66
     7
 43
1.0
 76
     1
 77
     6
 78
     2
 67
     7
 79
     5
170
     0
171
     0
290
     0
174
     0
 93
        1
 44
0.0
173
     0
291
     1
 45
0.0
  0
VISUALSTYLE
  5
30
102
{ACAD_REACTORS
330
2A
102
}
102
{ACAD_XDICTIONARY
360
3EE
102
}
330
2A
100
AcDbVisualStyle
  2
Wireframe
 70
     5
 71
     0
 72
     2
 73
     0
 90
        0
 40
0.6
 41
30.0
 62
     5
 63
     7
421
 16777215
 74
     1
 91
        4
 64
     7
 65
   257
 75
     1
175
     1
 42
1.0
 92
        0
 66
   257
 43
1.0
 76
     1
 77
     6
 78
     2
 67
     7
 79
     3
170
     0
171
     0
290
     0
174
     0
 93
        1
 44
0.0
173
     0
291
     0
 45
0.0
  0
VISUALSTYLE
  5
40
102
{ACAD_REACTORS
330
2A
102
}
102
{ACAD_XDICTIONARY
360
40E
102
}
330
2A
100
AcDbVisualStyle
  2
X-Ray
 70
    25
 71
     2
 72
     2
 73
     1
 90
        1
 40
0.5
 41
30.0
 62
     5
 63
     7
421
 16777215
 74
     1
 91
        0
 64
     7
 65
   257
 75
     1
175
     1
 42
1.0
 92
        8
 66
     7
 43
1.0
 76
     1
 77
     6
 78
     2
 67
     7
 79
     3
170
     0
171
     0
290
     0
174
     0
 93
       13
 44
0.0
173
     0
291
     0
 45
0.0
  0
DICTIONARYVAR
  5
3E2
102
{ACAD_REACTORS
330
3E1
102
}
330
3E1
100
DictionaryVariables
280
     0
  1
1:1
  0
DICTIONARYVAR
  5
41B
102
{ACAD_REACTORS
330
3E1
102
}
330
3E1
100
DictionaryVariables
280
     0
  1
Standard
  0
DICTIONARYVAR
  5
41A
102
{ACAD_REACTORS
330
3E1
102
}
330
3E1
100
DictionaryVariables
280
     0
  1
Standard
  0
DICTIONARYVAR
  5
3E3
102
{ACAD_REACTORS
330
3E1
102
}
330
3E1
100
DictionaryVariables
280
     0
  1
2
  0
DICTIONARY
  5
417
330
6C
100
AcDbDictionary
280
     1
281
     1
  3
ACAD_XREC_ROUNDTRIP
360
418
  0
DICTIONARY
  5
414
330
6A
100
AcDbDictionary
280
     1
281
     1
  3
ACAD_ROUNDTRIP_2008_TABLESTYLE_CELLSTYLEMAP
360
415
  0
DICTIONARY
  5
3EC
330
2F
100
AcDbDictionary
280
     1
281
     1
  3
ACAD_XREC_ROUNDTRIP
360
3ED
  0
DICTIONARY
  5
3F2
330
32
100
AcDbDictionary
280
     1
281
     1
  3
ACAD_XREC_ROUNDTRIP
360
3F3
  0
DICTIONARY
  5
3FA
330
36
100
AcDbDictionary
280
     1
281
     1
  3
ACAD_XREC_ROUNDTRIP
360
3FB
  0
DICTIONARY
  5
402
330
3A
100
AcDbDictionary
280
     1
281
     1
  3
ACAD_XREC_ROUNDTRIP
360
403
  0
DICTIONARY
  5
3F6
330
34
100
AcDbDictionary
280
     1
281
     1
  3
ACAD_XREC_ROUNDTRIP
360
3F7
  0
DICTIONARY
  5
3F8
330
35
100
AcDbDictionary
280
     1
281
     1
  3
ACAD_XREC_ROUNDTRIP
360
3F9
  0
DICTIONARY
  5
408
330
3D
100
AcDbDictionary
280
     1
281
     1
  3
ACAD_XREC_ROUNDTRIP
360
409
  0
DICTIONARY
  5
400
330
39
100
AcDbDictionary
280
     1
281
     1
  3
ACAD_XREC_ROUNDTRIP
360
401
  0
DICTIONARY
  5
3E4
330
2B
100
AcDbDictionary
280
     1
281
     1
  3
ACAD_XREC_ROUNDTRIP
360
3E5
  0
DICTIONARY
  5
3E6
330
2C
100
AcDbDictionary
280
     1
281
     1
  3
ACAD_XREC_ROUNDTRIP
360
3E7
  0
DICTIONARY
  5
3E8
330
2D
100
AcDbDictionary
280
     1
281
     1
  3
ACAD_XREC_ROUNDTRIP
360
3E9
  0
DICTIONARY
  5
3EA
330
2E
100
AcDbDictionary
280
     1
281
     1
  3
ACAD_XREC_ROUNDTRIP
360
3EB
  0
DICTIONARY
  5
3F0
330
31
100
AcDbDictionary
280
     1
281
     1
  3
ACAD_XREC_ROUNDTRIP
360
3F1
  0
DICTIONARY
  5
404
330
3B
100
AcDbDictionary
280
     1
281
     1
  3
ACAD_XREC_ROUNDTRIP
360
405
  0
DICTIONARY
  5
3FE
330
38
100
AcDbDictionary
280
     1
281
     1
  3
ACAD_XREC_ROUNDTRIP
360
3FF
  0
DICTIONARY
  5
406
330
3C
100
AcDbDictionary
280
     1
281
     1
  3
ACAD_XREC_ROUNDTRIP
360
407
  0
DICTIONARY
  5
3F4
330
33
100
AcDbDictionary
280
     1
281
     1
  3
ACAD_XREC_ROUNDTRIP
360
3F5
  0
DICTIONARY
  5
412
330
42
100
AcDbDictionary
280
     1
281
     1
  3
ACAD_XREC_ROUNDTRIP
360
413
  0
DICTIONARY
  5
410
330
41
100
AcDbDictionary
280
     1
281
     1
  3
ACAD_XREC_ROUNDTRIP
360
411
  0
DICTIONARY
  5
40A
330
3E
100
AcDbDictionary
280
     1
281
     1
  3
ACAD_XREC_ROUNDTRIP
360
40B
  0
DICTIONARY
  5
40C
330
3F
100
AcDbDictionary
280
     1
281
     1
  3
ACAD_XREC_ROUNDTRIP
360
40D
  0
DICTIONARY
  5
3FC
330
37
100
AcDbDictionary
280
     1
281
     1
  3
ACAD_XREC_ROUNDTRIP
360
3FD
  0
DICTIONARY
  5
3EE
330
30
100
AcDbDictionary
280
     1
281
     1
  3
ACAD_XREC_ROUNDTRIP
360
3EF
  0
DICTIONARY
  5
40E
330
40
100
AcDbDictionary
280
     1
281
     1
  3
ACAD_XREC_ROUNDTRIP
360
40F
  0
XRECORD
  5
418
102
{ACAD_REACTORS
330
417
102
}
330
417
100
AcDbXrecord
280
     1
102
ACAD_ROUNDTRIP_2010_MLEADER_STYLE
  0
CELLSTYLEMAP
  5
415
102
{ACAD_REACTORS
330
414
102
}
330
414
100
AcDbCellStyleMap
 90
        3
300
CELLSTYLE
  1
TABLEFORMAT_BEGIN
 90
        5
170
     1
 91
        0
 92
    32768
 62
   257
 93
        1
300
CONTENTFORMAT
  1
CONTENTFORMAT_BEGIN
 90
        0
 91
        0
 92
        4
 93
        0
300

 40
0.0
140
1.0
 94
        5
 62
     0
340
11
144
0.25
309
CONTENTFORMAT_END
171
     1
301
MARGIN
  1
CELLMARGIN_BEGIN
 40
0.06
 40
0.06
 40
0.06
 40
0.06
 40
0.06
 40
0.06
309
CELLMARGIN_END
 94
        6
 95
        1
302
GRIDFORMAT
  1
GRIDFORMAT_BEGIN
 90
        0
 91
        1
 62
     0
 92
       -2
340
14
 93
        0
 40
0.045
309
GRIDFORMAT_END
 95
        2
302
GRIDFORMAT
  1
GRIDFORMAT_BEGIN
 90
        0
 91
        1
 62
     0
 92
       -2
340
14
 93
        0
 40
0.045
309
GRIDFORMAT_END
 95
        4
302
GRIDFORMAT
  1
GRIDFORMAT_BEGIN
 90
        0
 91
        1
 62
     0
 92
       -2
340
14
 93
        0
 40
0.045
309
GRIDFORMAT_END
 95
        8
302
GRIDFORMAT
  1
GRIDFORMAT_BEGIN
 90
        0
 91
        1
 62
     0
 92
       -2
340
14
 93
        0
 40
0.045
309
GRIDFORMAT_END
 95
       16
302
GRIDFORMAT
  1
GRIDFORMAT_BEGIN
 90
        0
 91
        1
 62
     0
 92
       -2
340
14
 93
        0
 40
0.045
309
GRIDFORMAT_END
 95
       32
302
GRIDFORMAT
  1
GRIDFORMAT_BEGIN
 90
        0
 91
        1
 62
     0
 92
       -2
340
14
 93
        0
 40
0.045
309
GRIDFORMAT_END
309
TABLEFORMAT_END
  1
CELLSTYLE_BEGIN
 90
        1
 91
        1
300
_TITLE
309
CELLSTYLE_END
300
CELLSTYLE
  1
TABLEFORMAT_BEGIN
 90
        5
170
     1
 91
        0
 92
        0
 62
   257
 93
        1
300
CONTENTFORMAT
  1
CONTENTFORMAT_BEGIN
 90
        0
 91
        0
 92
        4
 93
        0
300

 40
0.0
140
1.0
 94
        5
 62
     0
340
11
144
0.18
309
CONTENTFORMAT_END
171
     1
301
MARGIN
  1
CELLMARGIN_BEGIN
 40
0.06
 40
0.06
 40
0.06
 40
0.06
 40
0.06
 40
0.06
309
CELLMARGIN_END
 94
        6
 95
        1
302
GRIDFORMAT
  1
GRIDFORMAT_BEGIN
 90
        0
 91
        1
 62
     0
 92
       -2
340
14
 93
        0
 40
0.045
309
GRIDFORMAT_END
 95
        2
302
GRIDFORMAT
  1
GRIDFORMAT_BEGIN
 90
        0
 91
        1
 62
     0
 92
       -2
340
14
 93
        0
 40
0.045
309
GRIDFORMAT_END
 95
        4
302
GRIDFORMAT
  1
GRIDFORMAT_BEGIN
 90
        0
 91
        1
 62
     0
 92
       -2
340
14
 93
        0
 40
0.045
309
GRIDFORMAT_END
 95
        8
302
GRIDFORMAT
  1
GRIDFORMAT_BEGIN
 90
        0
 91
        1
 62
     0
 92
       -2
340
14
 93
        0
 40
0.045
309
GRIDFORMAT_END
 95
       16
302
GRIDFORMAT
  1
GRIDFORMAT_BEGIN
 90
        0
 91
        1
 62
     0
 92
       -2
340
14
 93
        0
 40
0.045
309
GRIDFORMAT_END
 95
       32
302
GRIDFORMAT
  1
GRIDFORMAT_BEGIN
 90
        0
 91
        1
 62
     0
 92
       -2
340
14
 93
        0
 40
0.045
309
GRIDFORMAT_END
309
TABLEFORMAT_END
  1
CELLSTYLE_BEGIN
 90
        2
 91
        1
300
_HEADER
309
CELLSTYLE_END
300
CELLSTYLE
  1
TABLEFORMAT_BEGIN
 90
        5
170
     1
 91
        0
 92
        0
 62
   257
 93
        1
300
CONTENTFORMAT
  1
CONTENTFORMAT_BEGIN
 90
        0
 91
        0
 92
        4
 93
        0
300

 40
0.0
140
1.0
 94
        2
 62
     0
340
11
144
0.18
309
CONTENTFORMAT_END
171
     1
301
MARGIN
  1
CELLMARGIN_BEGIN
 40
0.06
 40
0.06
 40
0.06
 40
0.06
 40
0.06
 40
0.06
309
CELLMARGIN_END
 94
        6
 95
        1
302
GRIDFORMAT
  1
GRIDFORMAT_BEGIN
 90
        0
 91
        1
 62
     0
 92
       -2
340
14
 93
        0
 40
0.045
309
GRIDFORMAT_END
 95
        2
302
GRIDFORMAT
  1
GRIDFORMAT_BEGIN
 90
        0
 91
        1
 62
     0
 92
       -2
340
14
 93
        0
 40
0.045
309
GRIDFORMAT_END
 95
        4
302
GRIDFORMAT
  1
GRIDFORMAT_BEGIN
 90
        0
 91
        1
 62
     0
 92
       -2
340
14
 93
        0
 40
0.045
309
GRIDFORMAT_END
 95
        8
302
GRIDFORMAT
  1
GRIDFORMAT_BEGIN
 90
        0
 91
        1
 62
     0
 92
       -2
340
14
 93
        0
 40
0.045
309
GRIDFORMAT_END
 95
       16
302
GRIDFORMAT
  1
GRIDFORMAT_BEGIN
 90
        0
 91
        1
 62
     0
 92
       -2
340
14
 93
        0
 40
0.045
309
GRIDFORMAT_END
 95
       32
302
GRIDFORMAT
  1
GRIDFORMAT_BEGIN
 90
        0
 91
        1
 62
     0
 92
       -2
340
14
 93
        0
 40
0.045
309
GRIDFORMAT_END
309
TABLEFORMAT_END
  1
CELLSTYLE_BEGIN
 90
        3
 91
        2
300
_DATA
309
CELLSTYLE_END
  0
XRECORD
  5
3ED
102
{ACAD_REACTORS
330
3EC
102
}
330
3EC
100
AcDbXrecord
280
     1
102
RTVSPropertyOp0
 70
     1
102
RTVSPropertyOp1
 70
     1
102
RTVSPropertyOp2
 70
     1
102
RTVSPropertyOp3
 70
     1
102
RTVSPropertyOp4
 70
     1
102
RTVSPropertyOp5
 70
     1
102
RTVSPropertyOp6
 70
     1
102
RTVSPropertyOp7
 70
     1
102
RTVSPropertyOp8
 70
     1
102
RTVSPropertyOp9
 70
     1
102
RTVSPropertyOp10
 70
     1
102
RTVSPropertyOp11
 70
     1
102
RTVSPropertyOp12
 70
     1
102
RTVSPropertyOp13
 70
     1
102
RTVSPropertyOp14
 70
     1
102
RTVSPropertyOp15
 70
     1
102
RTVSPropertyOp16
 70
     1
102
RTVSPropertyOp17
 70
     1
102
RTVSPropertyOp18
 70
     1
102
RTVSPropertyOp19
 70
     1
102
RTVSPropertyOp20
 70
     1
102
RTVSPropertyOp21
 70
     1
102
RTVSPropertyOp22
 70
     1
102
RTVSPropertyOp23
 70
     1
102
RTVSPropertyOp24
 70
     1
102
RTVSPropertyOp25
 70
     1
102
RTVSPropertyOp26
 70
     1
102
RTVSPropertyOp27
 70
     1
102
RTVSPropertyOp28
 70
     1
102
RTVSPropertyOp29
 70
     1
102
RTVSPropertyOp30
 70
     1
102
RTVSPropertyOp31
 70
     1
102
RTVSPropertyOp32
 70
     1
102
RTVSPropertyOp33
 70
     1
102
RTVSPropertyOp34
 70
     1
102
RTVSPropertyOp35
 70
     1
102
RTVSPropertyOp36
 70
     1
102
RTVSPropertyOp37
 70
     1
102
RTVSPropertyOp38
 70
     1
102
RTVSPropertyOp39
 70
     1
102
RTVSPropertyOp40
 70
     1
102
RTVSPropertyOp41
 70
     1
102
RTVSPropertyOp42
 70
     1
102
RTVSPropertyOp43
 70
     1
102
RTVSPropertyOp44
 70
     1
102
RTVSPropertyOp45
 70
     1
102
RTVSPropertyOp46
 70
     1
102
RTVSPropertyOp47
 70
     1
102
RTVSPropertyOp48
 70
     1
102
RTVSPropertyOp49
 70
     1
102
RTVSPropertyOp50
 70
     1
102
RTVSPropertyOp51
 70
     0
102
RTVSPropertyOp52
 70
     0
102
RTVSPropertyOp53
 70
     1
102
RTVSPropertyOp54
 70
     1
102
RTVSPropertyOp55
 70
     1
102
RTVSPropertyOp56
 70
     1
102
RTVSPropertyOp57
 70
     1
102
RTVSPost2010Prop28
280
     1
102
RTVSPost2010PropOp28
 70
     1
102
RTVSPost2010Prop29
280
     1
102
RTVSPost2010PropOp29
 70
     1
102
RTVSPost2010Prop30
280
     0
102
RTVSPost2010PropOp30
 70
     1
102
RTVSPost2010Prop31
280
     0
102
RTVSPost2010PropOp31
 70
     1
102
RTVSPost2010Prop32
280
     0
102
RTVSPost2010PropOp32
 70
     1
102
RTVSPost2010Prop33
280
     0
102
RTVSPost2010PropOp33
 70
     1
102
RTVSPost2010Prop34
280
     0
102
RTVSPost2010PropOp34
 70
     1
102
RTVSPost2010Prop35
280
     0
102
RTVSPost2010PropOp35
 70
     1
102
RTVSPost2010Prop36
280
     0
102
RTVSPost2010PropOp36
 70
     1
102
RTVSPost2010Prop37
 90
       50
102
RTVSPost2010PropOp37
 70
     1
102
RTVSPost2010Prop38
140
0.0
102
RTVSPost2010PropOp38
 70
     1
102
RTVSPost2010Prop39
140
1.0
102
RTVSPost2010PropOp39
 70
     1
102
RTVSPost2010Prop40
 90
        0
102
RTVSPost2010PropOp40
 70
     1
102
RTVSPost2010Prop41ColorIndex
 90
       18
102
RTVSPost2010Prop41ColorRGB
 90
        0
102
RTVSPost2010PropOp41
 70
     1
102
RTVSPost2010Prop42
 90
       50
102
RTVSPost2010PropOp42
 70
     1
102
RTVSPost2010Prop43
 90
        3
102
RTVSPost2010PropOp43
 70
     1
102
RTVSPost2010Prop44ColorIndex
 90
        5
102
RTVSPost2010Prop44ColorRGB
 90
      255
102
RTVSPost2010PropOp44
 70
     1
102
RTVSPost2010Prop45
280
     0
102
RTVSPost2010PropOp45
 70
     1
102
RTVSPost2010Prop46
 90
       50
102
RTVSPost2010PropOp46
 70
     1
102
RTVSPost2010Prop47
 90
       50
102
RTVSPost2010PropOp47
 70
     1
102
RTVSPost2010Prop48
 90
       50
102
RTVSPost2010PropOp48
 70
     1
102
RTVSPost2010Prop49
280
     0
102
RTVSPost2010PropOp49
 70
     1
102
RTVSPost2010Prop50
 90
       50
102
RTVSPost2010PropOp50
 70
     1
102
RTVSPost2010Prop51ColorIndex
 90
      256
102
RTVSPost2010Prop51ColorRGB
 90
-16777216
102
RTVSPost2010PropOp51
 70
     0
102
RTVSPost2010Prop52
140
1.0
102
RTVSPost2010PropOp52
 70
     0
102
RTVSPost2010Prop53
 90
        2
102
RTVSPost2010PropOp53
 70
     1
102
RTVSPost2010Prop54
  1
strokes_ogs.tif
102
RTVSPost2010PropOp54
 70
     1
102
RTVSPost2010Prop55
280
     0
102
RTVSPost2010PropOp55
 70
     1
102
RTVSPost2010Prop56
140
1.0
102
RTVSPost2010PropOp56
 70
     1
102
RTVSPost2010Prop57
140
1.0
102
RTVSPost2010PropOp57
 70
     1
  0
XRECORD
  5
3F3
102
{ACAD_REACTORS
330
3F2
102
}
330
3F2
100
AcDbXrecord
280
     1
102
RTVSPropertyOp0
 70
     1
102
RTVSPropertyOp1
 70
     1
102
RTVSPropertyOp2
 70
     1
102
RTVSPropertyOp3
 70
     1
102
RTVSPropertyOp4
 70
     1
102
RTVSPropertyOp5
 70
     1
102
RTVSPropertyOp6
 70
     1
102
RTVSPropertyOp7
 70
     1
102
RTVSPropertyOp8
 70
     1
102
RTVSPropertyOp9
 70
     1
102
RTVSPropertyOp10
 70
     1
102
RTVSPropertyOp11
 70
     1
102
RTVSPropertyOp12
 70
     1
102
RTVSPropertyOp13
 70
     1
102
RTVSPropertyOp14
 70
     1
102
RTVSPropertyOp15
 70
     1
102
RTVSPropertyOp16
 70
     1
102
RTVSPropertyOp17
 70
     1
102
RTVSPropertyOp18
 70
     1
102
RTVSPropertyOp19
 70
     1
102
RTVSPropertyOp20
 70
     1
102
RTVSPropertyOp21
 70
     1
102
RTVSPropertyOp22
 70
     1
102
RTVSPropertyOp23
 70
     1
102
RTVSPropertyOp24
 70
     1
102
RTVSPropertyOp25
 70
     1
102
RTVSPropertyOp26
 70
     1
102
RTVSPropertyOp27
 70
     1
102
RTVSPropertyOp28
 70
     1
102
RTVSPropertyOp29
 70
     1
102
RTVSPropertyOp30
 70
     1
102
RTVSPropertyOp31
 70
     1
102
RTVSPropertyOp32
 70
     1
102
RTVSPropertyOp33
 70
     1
102
RTVSPropertyOp34
 70
     1
102
RTVSPropertyOp35
 70
     1
102
RTVSPropertyOp36
 70
     1
102
RTVSPropertyOp37
 70
     1
102
RTVSPropertyOp38
 70
     1
102
RTVSPropertyOp39
 70
     1
102
RTVSPropertyOp40
 70
     1
102
RTVSPropertyOp41
 70
     1
102
RTVSPropertyOp42
 70
     1
102
RTVSPropertyOp43
 70
     1
102
RTVSPropertyOp44
 70
     1
102
RTVSPropertyOp45
 70
     1
102
RTVSPropertyOp46
 70
     1
102
RTVSPropertyOp47
 70
     1
102
RTVSPropertyOp48
 70
     1
102
RTVSPropertyOp49
 70
     1
102
RTVSPropertyOp50
 70
     1
102
RTVSPropertyOp51
 70
     0
102
RTVSPropertyOp52
 70
     0
102
RTVSPropertyOp53
 70
     1
102
RTVSPropertyOp54
 70
     1
102
RTVSPropertyOp55
 70
     1
102
RTVSPropertyOp56
 70
     1
102
RTVSPropertyOp57
 70
     1
102
RTVSPost2010Prop28
280
     0
102
RTVSPost2010PropOp28
 70
     1
102
RTVSPost2010Prop29
280
     1
102
RTVSPost2010PropOp29
 70
     1
102
RTVSPost2010Prop30
280
     1
102
RTVSPost2010PropOp30
 70
     1
102
RTVSPost2010Prop31
280
     0
102
RTVSPost2010PropOp31
 70
     1
102
RTVSPost2010Prop32
280
     0
102
RTVSPost2010PropOp32
 70
     1
102
RTVSPost2010Prop33
280
     0
102
RTVSPost2010PropOp33
 70
     1
102
RTVSPost2010Prop34
280
     0
102
RTVSPost2010PropOp34
 70
     1
102
RTVSPost2010Prop35
280
     0
102
RTVSPost2010PropOp35
 70
     1
102
RTVSPost2010Prop36
280
     0
102
RTVSPost2010PropOp36
 70
     1
102
RTVSPost2010Prop37
 90
       50
102
RTVSPost2010PropOp37
 70
     1
102
RTVSPost2010Prop38
140
0.0
102
RTVSPost2010PropOp38
 70
     1
102
RTVSPost2010Prop39
140
1.0
102
RTVSPost2010PropOp39
 70
     1
102
RTVSPost2010Prop40
 90
        0
102
RTVSPost2010PropOp40
 70
     1
102
RTVSPost2010Prop41ColorIndex
 90
       18
102
RTVSPost2010Prop41ColorRGB
 90
        0
102
RTVSPost2010PropOp41
 70
     1
102
RTVSPost2010Prop42
 90
       50
102
RTVSPost2010PropOp42
 70
     1
102
RTVSPost2010Prop43
 90
        3
102
RTVSPost2010PropOp43
 70
     1
102
RTVSPost2010Prop44ColorIndex
 90
        5
102
RTVSPost2010Prop44ColorRGB
 90
      255
102
RTVSPost2010PropOp44
 70
     1
102
RTVSPost2010Prop45
280
     0
102
RTVSPost2010PropOp45
 70
     1
102
RTVSPost2010Prop46
 90
       50
102
RTVSPost2010PropOp46
 70
     1
102
RTVSPost2010Prop47
 90
       50
102
RTVSPost2010PropOp47
 70
     1
102
RTVSPost2010Prop48
 90
       50
102
RTVSPost2010PropOp48
 70
     1
102
RTVSPost2010Prop49
280
     0
102
RTVSPost2010PropOp49
 70
     1
102
RTVSPost2010Prop50
 90
       50
102
RTVSPost2010PropOp50
 70
     1
102
RTVSPost2010Prop51ColorIndex
 90
      256
102
RTVSPost2010Prop51ColorRGB
 90
-16777216
102
RTVSPost2010PropOp51
 70
     0
102
RTVSPost2010Prop52
140
1.0
102
RTVSPost2010PropOp52
 70
     0
102
RTVSPost2010Prop53
 90
        2
102
RTVSPost2010PropOp53
 70
     1
102
RTVSPost2010Prop54
  1
strokes_ogs.tif
102
RTVSPost2010PropOp54
 70
     1
102
RTVSPost2010Prop55
280
     0
102
RTVSPost2010PropOp55
 70
     1
102
RTVSPost2010Prop56
140
1.0
102
RTVSPost2010PropOp56
 70
     1
102
RTVSPost2010Prop57
140
1.0
102
RTVSPost2010PropOp57
 70
     1
  0
XRECORD
  5
3FB
102
{ACAD_REACTORS
330
3FA
102
}
330
3FA
100
AcDbXrecord
280
     1
102
RTVSPropertyOp0
 70
     1
102
RTVSPropertyOp1
 70
     1
102
RTVSPropertyOp2
 70
     1
102
RTVSPropertyOp3
 70
     1
102
RTVSPropertyOp4
 70
     1
102
RTVSPropertyOp5
 70
     1
102
RTVSPropertyOp6
 70
     1
102
RTVSPropertyOp7
 70
     1
102
RTVSPropertyOp8
 70
     1
102
RTVSPropertyOp9
 70
     1
102
RTVSPropertyOp10
 70
     1
102
RTVSPropertyOp11
 70
     1
102
RTVSPropertyOp12
 70
     1
102
RTVSPropertyOp13
 70
     1
102
RTVSPropertyOp14
 70
     1
102
RTVSPropertyOp15
 70
     1
102
RTVSPropertyOp16
 70
     1
102
RTVSPropertyOp17
 70
     1
102
RTVSPropertyOp18
 70
     1
102
RTVSPropertyOp19
 70
     1
102
RTVSPropertyOp20
 70
     1
102
RTVSPropertyOp21
 70
     1
102
RTVSPropertyOp22
 70
     1
102
RTVSPropertyOp23
 70
     1
102
RTVSPropertyOp24
 70
     1
102
RTVSPropertyOp25
 70
     1
102
RTVSPropertyOp26
 70
     1
102
RTVSPropertyOp27
 70
     1
102
RTVSPropertyOp28
 70
     1
102
RTVSPropertyOp29
 70
     1
102
RTVSPropertyOp30
 70
     1
102
RTVSPropertyOp31
 70
     1
102
RTVSPropertyOp32
 70
     1
102
RTVSPropertyOp33
 70
     1
102
RTVSPropertyOp34
 70
     1
102
RTVSPropertyOp35
 70
     1
102
RTVSPropertyOp36
 70
     1
102
RTVSPropertyOp37
 70
     1
102
RTVSPropertyOp38
 70
     1
102
RTVSPropertyOp39
 70
     1
102
RTVSPropertyOp40
 70
     1
102
RTVSPropertyOp41
 70
     1
102
RTVSPropertyOp42
 70
     1
102
RTVSPropertyOp43
 70
     1
102
RTVSPropertyOp44
 70
     1
102
RTVSPropertyOp45
 70
     1
102
RTVSPropertyOp46
 70
     1
102
RTVSPropertyOp47
 70
     1
102
RTVSPropertyOp48
 70
     1
102
RTVSPropertyOp49
 70
     1
102
RTVSPropertyOp50
 70
     1
102
RTVSPropertyOp51
 70
     0
102
RTVSPropertyOp52
 70
     0
102
RTVSPropertyOp53
 70
     1
102
RTVSPropertyOp54
 70
     1
102
RTVSPropertyOp55
 70
     1
102
RTVSPropertyOp56
 70
     1
102
RTVSPropertyOp57
 70
     1
102
RTVSPost2010Prop28
280
     0
102
RTVSPost2010PropOp28
 70
     1
102
RTVSPost2010Prop29
280
     1
102
RTVSPost2010PropOp29
 70
     1
102
RTVSPost2010Prop30
280
     1
102
RTVSPost2010PropOp30
 70
     1
102
RTVSPost2010Prop31
280
     0
102
RTVSPost2010PropOp31
 70
     1
102
RTVSPost2010Prop32
280
     0
102
RTVSPost2010PropOp32
 70
     1
102
RTVSPost2010Prop33
280
     0
102
RTVSPost2010PropOp33
 70
     1
102
RTVSPost2010Prop34
280
     0
102
RTVSPost2010PropOp34
 70
     1
102
RTVSPost2010Prop35
280
     0
102
RTVSPost2010PropOp35
 70
     1
102
RTVSPost2010Prop36
280
     0
102
RTVSPost2010PropOp36
 70
     1
102
RTVSPost2010Prop37
 90
       50
102
RTVSPost2010PropOp37
 70
     1
102
RTVSPost2010Prop38
140
0.0
102
RTVSPost2010PropOp38
 70
     1
102
RTVSPost2010Prop39
140
1.0
102
RTVSPost2010PropOp39
 70
     1
102
RTVSPost2010Prop40
 90
        0
102
RTVSPost2010PropOp40
 70
     1
102
RTVSPost2010Prop41ColorIndex
 90
       18
102
RTVSPost2010Prop41ColorRGB
 90
        0
102
RTVSPost2010PropOp41
 70
     1
102
RTVSPost2010Prop42
 90
       50
102
RTVSPost2010PropOp42
 70
     1
102
RTVSPost2010Prop43
 90
        3
102
RTVSPost2010PropOp43
 70
     1
102
RTVSPost2010Prop44ColorIndex
 90
        5
102
RTVSPost2010Prop44ColorRGB
 90
      255
102
RTVSPost2010PropOp44
 70
     1
102
RTVSPost2010Prop45
280
     0
102
RTVSPost2010PropOp45
 70
     1
102
RTVSPost2010Prop46
 90
       50
102
RTVSPost2010PropOp46
 70
     1
102
RTVSPost2010Prop47
 90
       50
102
RTVSPost2010PropOp47
 70
     1
102
RTVSPost2010Prop48
 90
       50
102
RTVSPost2010PropOp48
 70
     1
102
RTVSPost2010Prop49
280
     0
102
RTVSPost2010PropOp49
 70
     1
102
RTVSPost2010Prop50
 90
       50
102
RTVSPost2010PropOp50
 70
     1
102
RTVSPost2010Prop51ColorIndex
 90
      256
102
RTVSPost2010Prop51ColorRGB
 90
-16777216
102
RTVSPost2010PropOp51
 70
     0
102
RTVSPost2010Prop52
140
1.0
102
RTVSPost2010PropOp52
 70
     0
102
RTVSPost2010Prop53
 90
        2
102
RTVSPost2010PropOp53
 70
     1
102
RTVSPost2010Prop54
  1
strokes_ogs.tif
102
RTVSPost2010PropOp54
 70
     1
102
RTVSPost2010Prop55
280
     0
102
RTVSPost2010PropOp55
 70
     1
102
RTVSPost2010Prop56
140
1.0
102
RTVSPost2010PropOp56
 70
     1
102
RTVSPost2010Prop57
140
1.0
102
RTVSPost2010PropOp57
 70
     1
  0
XRECORD
  5
403
102
{ACAD_REACTORS
330
402
102
}
330
402
100
AcDbXrecord
280
     1
102
RTVSPropertyOp0
 70
     1
102
RTVSPropertyOp1
 70
     1
102
RTVSPropertyOp2
 70
     1
102
RTVSPropertyOp3
 70
     1
102
RTVSPropertyOp4
 70
     1
102
RTVSPropertyOp5
 70
     1
102
RTVSPropertyOp6
 70
     1
102
RTVSPropertyOp7
 70
     1
102
RTVSPropertyOp8
 70
     1
102
RTVSPropertyOp9
 70
     1
102
RTVSPropertyOp10
 70
     1
102
RTVSPropertyOp11
 70
     1
102
RTVSPropertyOp12
 70
     1
102
RTVSPropertyOp13
 70
     1
102
RTVSPropertyOp14
 70
     1
102
RTVSPropertyOp15
 70
     1
102
RTVSPropertyOp16
 70
     1
102
RTVSPropertyOp17
 70
     1
102
RTVSPropertyOp18
 70
     1
102
RTVSPropertyOp19
 70
     1
102
RTVSPropertyOp20
 70
     1
102
RTVSPropertyOp21
 70
     1
102
RTVSPropertyOp22
 70
     1
102
RTVSPropertyOp23
 70
     1
102
RTVSPropertyOp24
 70
     1
102
RTVSPropertyOp25
 70
     1
102
RTVSPropertyOp26
 70
     1
102
RTVSPropertyOp27
 70
     1
102
RTVSPropertyOp28
 70
     1
102
RTVSPropertyOp29
 70
     1
102
RTVSPropertyOp30
 70
     1
102
RTVSPropertyOp31
 70
     1
102
RTVSPropertyOp32
 70
     1
102
RTVSPropertyOp33
 70
     1
102
RTVSPropertyOp34
 70
     1
102
RTVSPropertyOp35
 70
     1
102
RTVSPropertyOp36
 70
     1
102
RTVSPropertyOp37
 70
     1
102
RTVSPropertyOp38
 70
     1
102
RTVSPropertyOp39
 70
     1
102
RTVSPropertyOp40
 70
     1
102
RTVSPropertyOp41
 70
     1
102
RTVSPropertyOp42
 70
     1
102
RTVSPropertyOp43
 70
     1
102
RTVSPropertyOp44
 70
     1
102
RTVSPropertyOp45
 70
     1
102
RTVSPropertyOp46
 70
     1
102
RTVSPropertyOp47
 70
     1
102
RTVSPropertyOp48
 70
     1
102
RTVSPropertyOp49
 70
     1
102
RTVSPropertyOp50
 70
     1
102
RTVSPropertyOp51
 70
     0
102
RTVSPropertyOp52
 70
     0
102
RTVSPropertyOp53
 70
     1
102
RTVSPropertyOp54
 70
     1
102
RTVSPropertyOp55
 70
     1
102
RTVSPropertyOp56
 70
     1
102
RTVSPropertyOp57
 70
     1
102
RTVSPost2010Prop28
280
     0
102
RTVSPost2010PropOp28
 70
     1
102
RTVSPost2010Prop29
280
     1
102
RTVSPost2010PropOp29
 70
     1
102
RTVSPost2010Prop30
280
     1
102
RTVSPost2010PropOp30
 70
     1
102
RTVSPost2010Prop31
280
     0
102
RTVSPost2010PropOp31
 70
     1
102
RTVSPost2010Prop32
280
     0
102
RTVSPost2010PropOp32
 70
     1
102
RTVSPost2010Prop33
280
     0
102
RTVSPost2010PropOp33
 70
     1
102
RTVSPost2010Prop34
280
     0
102
RTVSPost2010PropOp34
 70
     1
102
RTVSPost2010Prop35
280
     0
102
RTVSPost2010PropOp35
 70
     1
102
RTVSPost2010Prop36
280
     0
102
RTVSPost2010PropOp36
 70
     1
102
RTVSPost2010Prop37
 90
       50
102
RTVSPost2010PropOp37
 70
     1
102
RTVSPost2010Prop38
140
0.0
102
RTVSPost2010PropOp38
 70
     1
102
RTVSPost2010Prop39
140
1.0
102
RTVSPost2010PropOp39
 70
     1
102
RTVSPost2010Prop40
 90
        0
102
RTVSPost2010PropOp40
 70
     1
102
RTVSPost2010Prop41ColorIndex
 90
       18
102
RTVSPost2010Prop41ColorRGB
 90
        0
102
RTVSPost2010PropOp41
 70
     1
102
RTVSPost2010Prop42
 90
       50
102
RTVSPost2010PropOp42
 70
     1
102
RTVSPost2010Prop43
 90
        3
102
RTVSPost2010PropOp43
 70
     1
102
RTVSPost2010Prop44ColorIndex
 90
        5
102
RTVSPost2010Prop44ColorRGB
 90
      255
102
RTVSPost2010PropOp44
 70
     1
102
RTVSPost2010Prop45
280
     0
102
RTVSPost2010PropOp45
 70
     1
102
RTVSPost2010Prop46
 90
       50
102
RTVSPost2010PropOp46
 70
     1
102
RTVSPost2010Prop47
 90
       50
102
RTVSPost2010PropOp47
 70
     1
102
RTVSPost2010Prop48
 90
       50
102
RTVSPost2010PropOp48
 70
     1
102
RTVSPost2010Prop49
280
     0
102
RTVSPost2010PropOp49
 70
     1
102
RTVSPost2010Prop50
 90
       50
102
RTVSPost2010PropOp50
 70
     1
102
RTVSPost2010Prop51ColorIndex
 90
      256
102
RTVSPost2010Prop51ColorRGB
 90
-16777216
102
RTVSPost2010PropOp51
 70
     0
102
RTVSPost2010Prop52
140
1.0
102
RTVSPost2010PropOp52
 70
     0
102
RTVSPost2010Prop53
 90
        2
102
RTVSPost2010PropOp53
 70
     1
102
RTVSPost2010Prop54
  1
strokes_ogs.tif
102
RTVSPost2010PropOp54
 70
     1
102
RTVSPost2010Prop55
280
     0
102
RTVSPost2010PropOp55
 70
     1
102
RTVSPost2010Prop56
140
1.0
102
RTVSPost2010PropOp56
 70
     1
102
RTVSPost2010Prop57
140
1.0
102
RTVSPost2010PropOp57
 70
     1
  0
XRECORD
  5
3F7
102
{ACAD_REACTORS
330
3F6
102
}
330
3F6
100
AcDbXrecord
280
     1
102
RTVSPropertyOp0
 70
     1
102
RTVSPropertyOp1
 70
     1
102
RTVSPropertyOp2
 70
     1
102
RTVSPropertyOp3
 70
     1
102
RTVSPropertyOp4
 70
     1
102
RTVSPropertyOp5
 70
     1
102
RTVSPropertyOp6
 70
     1
102
RTVSPropertyOp7
 70
     1
102
RTVSPropertyOp8
 70
     1
102
RTVSPropertyOp9
 70
     1
102
RTVSPropertyOp10
 70
     1
102
RTVSPropertyOp11
 70
     1
102
RTVSPropertyOp12
 70
     1
102
RTVSPropertyOp13
 70
     1
102
RTVSPropertyOp14
 70
     1
102
RTVSPropertyOp15
 70
     1
102
RTVSPropertyOp16
 70
     1
102
RTVSPropertyOp17
 70
     1
102
RTVSPropertyOp18
 70
     1
102
RTVSPropertyOp19
 70
     1
102
RTVSPropertyOp20
 70
     1
102
RTVSPropertyOp21
 70
     1
102
RTVSPropertyOp22
 70
     1
102
RTVSPropertyOp23
 70
     1
102
RTVSPropertyOp24
 70
     1
102
RTVSPropertyOp25
 70
     1
102
RTVSPropertyOp26
 70
     1
102
RTVSPropertyOp27
 70
     1
102
RTVSPropertyOp28
 70
     1
102
RTVSPropertyOp29
 70
     1
102
RTVSPropertyOp30
 70
     1
102
RTVSPropertyOp31
 70
     1
102
RTVSPropertyOp32
 70
     1
102
RTVSPropertyOp33
 70
     1
102
RTVSPropertyOp34
 70
     1
102
RTVSPropertyOp35
 70
     1
102
RTVSPropertyOp36
 70
     1
102
RTVSPropertyOp37
 70
     1
102
RTVSPropertyOp38
 70
     1
102
RTVSPropertyOp39
 70
     1
102
RTVSPropertyOp40
 70
     1
102
RTVSPropertyOp41
 70
     1
102
RTVSPropertyOp42
 70
     1
102
RTVSPropertyOp43
 70
     1
102
RTVSPropertyOp44
 70
     1
102
RTVSPropertyOp45
 70
     1
102
RTVSPropertyOp46
 70
     1
102
RTVSPropertyOp47
 70
     1
102
RTVSPropertyOp48
 70
     1
102
RTVSPropertyOp49
 70
     1
102
RTVSPropertyOp50
 70
     1
102
RTVSPropertyOp51
 70
     0
102
RTVSPropertyOp52
 70
     0
102
RTVSPropertyOp53
 70
     1
102
RTVSPropertyOp54
 70
     1
102
RTVSPropertyOp55
 70
     1
102
RTVSPropertyOp56
 70
     1
102
RTVSPropertyOp57
 70
     1
102
RTVSPost2010Prop28
280
     0
102
RTVSPost2010PropOp28
 70
     1
102
RTVSPost2010Prop29
280
     1
102
RTVSPost2010PropOp29
 70
     1
102
RTVSPost2010Prop30
280
     1
102
RTVSPost2010PropOp30
 70
     1
102
RTVSPost2010Prop31
280
     0
102
RTVSPost2010PropOp31
 70
     1
102
RTVSPost2010Prop32
280
     0
102
RTVSPost2010PropOp32
 70
     1
102
RTVSPost2010Prop33
280
     0
102
RTVSPost2010PropOp33
 70
     1
102
RTVSPost2010Prop34
280
     0
102
RTVSPost2010PropOp34
 70
     1
102
RTVSPost2010Prop35
280
     0
102
RTVSPost2010PropOp35
 70
     1
102
RTVSPost2010Prop36
280
     0
102
RTVSPost2010PropOp36
 70
     1
102
RTVSPost2010Prop37
 90
       50
102
RTVSPost2010PropOp37
 70
     1
102
RTVSPost2010Prop38
140
0.0
102
RTVSPost2010PropOp38
 70
     1
102
RTVSPost2010Prop39
140
1.0
102
RTVSPost2010PropOp39
 70
     1
102
RTVSPost2010Prop40
 90
        0
102
RTVSPost2010PropOp40
 70
     1
102
RTVSPost2010Prop41ColorIndex
 90
       18
102
RTVSPost2010Prop41ColorRGB
 90
        0
102
RTVSPost2010PropOp41
 70
     1
102
RTVSPost2010Prop42
 90
       50
102
RTVSPost2010PropOp42
 70
     1
102
RTVSPost2010Prop43
 90
        3
102
RTVSPost2010PropOp43
 70
     1
102
RTVSPost2010Prop44ColorIndex
 90
        5
102
RTVSPost2010Prop44ColorRGB
 90
      255
102
RTVSPost2010PropOp44
 70
     1
102
RTVSPost2010Prop45
280
     0
102
RTVSPost2010PropOp45
 70
     1
102
RTVSPost2010Prop46
 90
       50
102
RTVSPost2010PropOp46
 70
     1
102
RTVSPost2010Prop47
 90
       50
102
RTVSPost2010PropOp47
 70
     1
102
RTVSPost2010Prop48
 90
       50
102
RTVSPost2010PropOp48
 70
     1
102
RTVSPost2010Prop49
280
     0
102
RTVSPost2010PropOp49
 70
     1
102
RTVSPost2010Prop50
 90
       50
102
RTVSPost2010PropOp50
 70
     1
102
RTVSPost2010Prop51ColorIndex
 90
      256
102
RTVSPost2010Prop51ColorRGB
 90
-16777216
102
RTVSPost2010PropOp51
 70
     0
102
RTVSPost2010Prop52
140
1.0
102
RTVSPost2010PropOp52
 70
     0
102
RTVSPost2010Prop53
 90
        2
102
RTVSPost2010PropOp53
 70
     1
102
RTVSPost2010Prop54
  1
strokes_ogs.tif
102
RTVSPost2010PropOp54
 70
     1
102
RTVSPost2010Prop55
280
     0
102
RTVSPost2010PropOp55
 70
     1
102
RTVSPost2010Prop56
140
1.0
102
RTVSPost2010PropOp56
 70
     1
102
RTVSPost2010Prop57
140
1.0
102
RTVSPost2010PropOp57
 70
     1
  0
XRECORD
  5
3F9
102
{ACAD_REACTORS
330
3F8
102
}
330
3F8
100
AcDbXrecord
280
     1
102
RTVSPropertyOp0
 70
     1
102
RTVSPropertyOp1
 70
     1
102
RTVSPropertyOp2
 70
     1
102
RTVSPropertyOp3
 70
     1
102
RTVSPropertyOp4
 70
     1
102
RTVSPropertyOp5
 70
     1
102
RTVSPropertyOp6
 70
     1
102
RTVSPropertyOp7
 70
     1
102
RTVSPropertyOp8
 70
     1
102
RTVSPropertyOp9
 70
     1
102
RTVSPropertyOp10
 70
     1
102
RTVSPropertyOp11
 70
     1
102
RTVSPropertyOp12
 70
     1
102
RTVSPropertyOp13
 70
     1
102
RTVSPropertyOp14
 70
     1
102
RTVSPropertyOp15
 70
     1
102
RTVSPropertyOp16
 70
     1
102
RTVSPropertyOp17
 70
     1
102
RTVSPropertyOp18
 70
     1
102
RTVSPropertyOp19
 70
     1
102
RTVSPropertyOp20
 70
     1
102
RTVSPropertyOp21
 70
     1
102
RTVSPropertyOp22
 70
     1
102
RTVSPropertyOp23
 70
     1
102
RTVSPropertyOp24
 70
     1
102
RTVSPropertyOp25
 70
     1
102
RTVSPropertyOp26
 70
     1
102
RTVSPropertyOp27
 70
     1
102
RTVSPropertyOp28
 70
     1
102
RTVSPropertyOp29
 70
     1
102
RTVSPropertyOp30
 70
     1
102
RTVSPropertyOp31
 70
     1
102
RTVSPropertyOp32
 70
     1
102
RTVSPropertyOp33
 70
     1
102
RTVSPropertyOp34
 70
     1
102
RTVSPropertyOp35
 70
     1
102
RTVSPropertyOp36
 70
     1
102
RTVSPropertyOp37
 70
     1
102
RTVSPropertyOp38
 70
     1
102
RTVSPropertyOp39
 70
     1
102
RTVSPropertyOp40
 70
     1
102
RTVSPropertyOp41
 70
     1
102
RTVSPropertyOp42
 70
     1
102
RTVSPropertyOp43
 70
     1
102
RTVSPropertyOp44
 70
     1
102
RTVSPropertyOp45
 70
     1
102
RTVSPropertyOp46
 70
     1
102
RTVSPropertyOp47
 70
     1
102
RTVSPropertyOp48
 70
     1
102
RTVSPropertyOp49
 70
     1
102
RTVSPropertyOp50
 70
     1
102
RTVSPropertyOp51
 70
     0
102
RTVSPropertyOp52
 70
     0
102
RTVSPropertyOp53
 70
     1
102
RTVSPropertyOp54
 70
     1
102
RTVSPropertyOp55
 70
     1
102
RTVSPropertyOp56
 70
     1
102
RTVSPropertyOp57
 70
     1
102
RTVSPost2010Prop28
280
     0
102
RTVSPost2010PropOp28
 70
     1
102
RTVSPost2010Prop29
280
     1
102
RTVSPost2010PropOp29
 70
     1
102
RTVSPost2010Prop30
280
     1
102
RTVSPost2010PropOp30
 70
     1
102
RTVSPost2010Prop31
280
     0
102
RTVSPost2010PropOp31
 70
     1
102
RTVSPost2010Prop32
280
     0
102
RTVSPost2010PropOp32
 70
     1
102
RTVSPost2010Prop33
280
     0
102
RTVSPost2010PropOp33
 70
     1
102
RTVSPost2010Prop34
280
     0
102
RTVSPost2010PropOp34
 70
     1
102
RTVSPost2010Prop35
280
     0
102
RTVSPost2010PropOp35
 70
     1
102
RTVSPost2010Prop36
280
     0
102
RTVSPost2010PropOp36
 70
     1
102
RTVSPost2010Prop37
 90
       50
102
RTVSPost2010PropOp37
 70
     1
102
RTVSPost2010Prop38
140
0.0
102
RTVSPost2010PropOp38
 70
     1
102
RTVSPost2010Prop39
140
1.0
102
RTVSPost2010PropOp39
 70
     1
102
RTVSPost2010Prop40
 90
        0
102
RTVSPost2010PropOp40
 70
     1
102
RTVSPost2010Prop41ColorIndex
 90
       18
102
RTVSPost2010Prop41ColorRGB
 90
        0
102
RTVSPost2010PropOp41
 70
     1
102
RTVSPost2010Prop42
 90
       50
102
RTVSPost2010PropOp42
 70
     1
102
RTVSPost2010Prop43
 90
        3
102
RTVSPost2010PropOp43
 70
     1
102
RTVSPost2010Prop44ColorIndex
 90
        5
102
RTVSPost2010Prop44ColorRGB
 90
      255
102
RTVSPost2010PropOp44
 70
     1
102
RTVSPost2010Prop45
280
     0
102
RTVSPost2010PropOp45
 70
     1
102
RTVSPost2010Prop46
 90
       50
102
RTVSPost2010PropOp46
 70
     1
102
RTVSPost2010Prop47
 90
       50
102
RTVSPost2010PropOp47
 70
     1
102
RTVSPost2010Prop48
 90
       50
102
RTVSPost2010PropOp48
 70
     1
102
RTVSPost2010Prop49
280
     0
102
RTVSPost2010PropOp49
 70
     1
102
RTVSPost2010Prop50
 90
       50
102
RTVSPost2010PropOp50
 70
     1
102
RTVSPost2010Prop51ColorIndex
 90
      256
102
RTVSPost2010Prop51ColorRGB
 90
-16777216
102
RTVSPost2010PropOp51
 70
     0
102
RTVSPost2010Prop52
140
1.0
102
RTVSPost2010PropOp52
 70
     0
102
RTVSPost2010Prop53
 90
        2
102
RTVSPost2010PropOp53
 70
     1
102
RTVSPost2010Prop54
  1
strokes_ogs.tif
102
RTVSPost2010PropOp54
 70
     1
102
RTVSPost2010Prop55
280
     0
102
RTVSPost2010PropOp55
 70
     1
102
RTVSPost2010Prop56
140
1.0
102
RTVSPost2010PropOp56
 70
     1
102
RTVSPost2010Prop57
140
1.0
102
RTVSPost2010PropOp57
 70
     1
  0
XRECORD
  5
409
102
{ACAD_REACTORS
330
408
102
}
330
408
100
AcDbXrecord
280
     1
102
RTVSPropertyOp0
 70
     0
102
RTVSPropertyOp1
 70
     0
102
RTVSPropertyOp2
 70
     0
102
RTVSPropertyOp3
 70
     0
102
RTVSPropertyOp4
 70
     0
102
RTVSPropertyOp5
 70
     0
102
RTVSPropertyOp6
 70
     0
102
RTVSPropertyOp7
 70
     0
102
RTVSPropertyOp8
 70
     0
102
RTVSPropertyOp9
 70
     0
102
RTVSPropertyOp10
 70
     0
102
RTVSPropertyOp11
 70
     0
102
RTVSPropertyOp12
 70
     0
102
RTVSPropertyOp13
 70
     0
102
RTVSPropertyOp14
 70
     2
102
RTVSPropertyOp15
 70
     0
102
RTVSPropertyOp16
 70
     0
102
RTVSPropertyOp17
 70
     0
102
RTVSPropertyOp18
 70
     0
102
RTVSPropertyOp19
 70
     0
102
RTVSPropertyOp20
 70
     0
102
RTVSPropertyOp21
 70
     0
102
RTVSPropertyOp22
 70
     0
102
RTVSPropertyOp23
 70
     0
102
RTVSPropertyOp24
 70
     0
102
RTVSPropertyOp25
 70
     0
102
RTVSPropertyOp26
 70
     0
102
RTVSPropertyOp27
 70
     0
102
RTVSPropertyOp28
 70
     0
102
RTVSPropertyOp29
 70
     0
102
RTVSPropertyOp30
 70
     0
102
RTVSPropertyOp31
 70
     0
102
RTVSPropertyOp32
 70
     0
102
RTVSPropertyOp33
 70
     0
102
RTVSPropertyOp34
 70
     0
102
RTVSPropertyOp35
 70
     0
102
RTVSPropertyOp36
 70
     0
102
RTVSPropertyOp37
 70
     0
102
RTVSPropertyOp38
 70
     0
102
RTVSPropertyOp39
 70
     0
102
RTVSPropertyOp40
 70
     0
102
RTVSPropertyOp41
 70
     0
102
RTVSPropertyOp42
 70
     0
102
RTVSPropertyOp43
 70
     0
102
RTVSPropertyOp44
 70
     0
102
RTVSPropertyOp45
 70
     0
102
RTVSPropertyOp46
 70
     0
102
RTVSPropertyOp47
 70
     0
102
RTVSPropertyOp48
 70
     0
102
RTVSPropertyOp49
 70
     0
102
RTVSPropertyOp50
 70
     0
102
RTVSPropertyOp51
 70
     0
102
RTVSPropertyOp52
 70
     0
102
RTVSPropertyOp53
 70
     0
102
RTVSPropertyOp54
 70
     0
102
RTVSPropertyOp55
 70
     0
102
RTVSPropertyOp56
 70
     0
102
RTVSPropertyOp57
 70
     0
102
RTVSPost2010Prop28
280
     0
102
RTVSPost2010PropOp28
 70
     0
102
RTVSPost2010Prop29
280
     1
102
RTVSPost2010PropOp29
 70
     0
102
RTVSPost2010Prop30
280
     1
102
RTVSPost2010PropOp30
 70
     0
102
RTVSPost2010Prop31
280
     0
102
RTVSPost2010PropOp31
 70
     0
102
RTVSPost2010Prop32
280
     0
102
RTVSPost2010PropOp32
 70
     0
102
RTVSPost2010Prop33
280
     0
102
RTVSPost2010PropOp33
 70
     0
102
RTVSPost2010Prop34
280
     0
102
RTVSPost2010PropOp34
 70
     0
102
RTVSPost2010Prop35
280
     0
102
RTVSPost2010PropOp35
 70
     0
102
RTVSPost2010Prop36
280
     0
102
RTVSPost2010PropOp36
 70
     0
102
RTVSPost2010Prop37
 90
       50
102
RTVSPost2010PropOp37
 70
     0
102
RTVSPost2010Prop38
140
0.0
102
RTVSPost2010PropOp38
 70
     0
102
RTVSPost2010Prop39
140
1.0
102
RTVSPost2010PropOp39
 70
     0
102
RTVSPost2010Prop40
 90
        0
102
RTVSPost2010PropOp40
 70
     0
102
RTVSPost2010Prop41ColorIndex
 90
       18
102
RTVSPost2010Prop41ColorRGB
 90
        0
102
RTVSPost2010PropOp41
 70
     0
102
RTVSPost2010Prop42
 90
       50
102
RTVSPost2010PropOp42
 70
     0
102
RTVSPost2010Prop43
 90
        3
102
RTVSPost2010PropOp43
 70
     0
102
RTVSPost2010Prop44ColorIndex
 90
        5
102
RTVSPost2010Prop44ColorRGB
 90
      255
102
RTVSPost2010PropOp44
 70
     0
102
RTVSPost2010Prop45
280
     0
102
RTVSPost2010PropOp45
 70
     0
102
RTVSPost2010Prop46
 90
       50
102
RTVSPost2010PropOp46
 70
     0
102
RTVSPost2010Prop47
 90
       50
102
RTVSPost2010PropOp47
 70
     0
102
RTVSPost2010Prop48
 90
       50
102
RTVSPost2010PropOp48
 70
     0
102
RTVSPost2010Prop49
280
     0
102
RTVSPost2010PropOp49
 70
     0
102
RTVSPost2010Prop50
 90
       50
102
RTVSPost2010PropOp50
 70
     0
102
RTVSPost2010Prop51ColorIndex
 90
      256
102
RTVSPost2010Prop51ColorRGB
 90
-16777216
102
RTVSPost2010PropOp51
 70
     0
102
RTVSPost2010Prop52
140
1.0
102
RTVSPost2010PropOp52
 70
     0
102
RTVSPost2010Prop53
 90
        2
102
RTVSPost2010PropOp53
 70
     0
102
RTVSPost2010Prop54
  1
strokes_ogs.tif
102
RTVSPost2010PropOp54
 70
     0
102
RTVSPost2010Prop55
280
     0
102
RTVSPost2010PropOp55
 70
     0
102
RTVSPost2010Prop56
140
1.0
102
RTVSPost2010PropOp56
 70
     0
102
RTVSPost2010Prop57
140
1.0
102
RTVSPost2010PropOp57
 70
     0
  0
XRECORD
  5
401
102
{ACAD_REACTORS
330
400
102
}
330
400
100
AcDbXrecord
280
     1
102
RTVSPropertyOp0
 70
     1
102
RTVSPropertyOp1
 70
     1
102
RTVSPropertyOp2
 70
     1
102
RTVSPropertyOp3
 70
     1
102
RTVSPropertyOp4
 70
     1
102
RTVSPropertyOp5
 70
     1
102
RTVSPropertyOp6
 70
     1
102
RTVSPropertyOp7
 70
     1
102
RTVSPropertyOp8
 70
     1
102
RTVSPropertyOp9
 70
     1
102
RTVSPropertyOp10
 70
     1
102
RTVSPropertyOp11
 70
     1
102
RTVSPropertyOp12
 70
     1
102
RTVSPropertyOp13
 70
     1
102
RTVSPropertyOp14
 70
     1
102
RTVSPropertyOp15
 70
     1
102
RTVSPropertyOp16
 70
     1
102
RTVSPropertyOp17
 70
     1
102
RTVSPropertyOp18
 70
     1
102
RTVSPropertyOp19
 70
     1
102
RTVSPropertyOp20
 70
     1
102
RTVSPropertyOp21
 70
     1
102
RTVSPropertyOp22
 70
     1
102
RTVSPropertyOp23
 70
     1
102
RTVSPropertyOp24
 70
     1
102
RTVSPropertyOp25
 70
     1
102
RTVSPropertyOp26
 70
     1
102
RTVSPropertyOp27
 70
     1
102
RTVSPropertyOp28
 70
     1
102
RTVSPropertyOp29
 70
     1
102
RTVSPropertyOp30
 70
     1
102
RTVSPropertyOp31
 70
     1
102
RTVSPropertyOp32
 70
     1
102
RTVSPropertyOp33
 70
     1
102
RTVSPropertyOp34
 70
     1
102
RTVSPropertyOp35
 70
     1
102
RTVSPropertyOp36
 70
     1
102
RTVSPropertyOp37
 70
     1
102
RTVSPropertyOp38
 70
     1
102
RTVSPropertyOp39
 70
     1
102
RTVSPropertyOp40
 70
     1
102
RTVSPropertyOp41
 70
     1
102
RTVSPropertyOp42
 70
     1
102
RTVSPropertyOp43
 70
     1
102
RTVSPropertyOp44
 70
     1
102
RTVSPropertyOp45
 70
     1
102
RTVSPropertyOp46
 70
     1
102
RTVSPropertyOp47
 70
     1
102
RTVSPropertyOp48
 70
     1
102
RTVSPropertyOp49
 70
     1
102
RTVSPropertyOp50
 70
     1
102
RTVSPropertyOp51
 70
     0
102
RTVSPropertyOp52
 70
     0
102
RTVSPropertyOp53
 70
     1
102
RTVSPropertyOp54
 70
     1
102
RTVSPropertyOp55
 70
     1
102
RTVSPropertyOp56
 70
     1
102
RTVSPropertyOp57
 70
     1
102
RTVSPost2010Prop28
280
     0
102
RTVSPost2010PropOp28
 70
     1
102
RTVSPost2010Prop29
280
     1
102
RTVSPost2010PropOp29
 70
     1
102
RTVSPost2010Prop30
280
     1
102
RTVSPost2010PropOp30
 70
     1
102
RTVSPost2010Prop31
280
     0
102
RTVSPost2010PropOp31
 70
     1
102
RTVSPost2010Prop32
280
     0
102
RTVSPost2010PropOp32
 70
     1
102
RTVSPost2010Prop33
280
     0
102
RTVSPost2010PropOp33
 70
     1
102
RTVSPost2010Prop34
280
     0
102
RTVSPost2010PropOp34
 70
     1
102
RTVSPost2010Prop35
280
     0
102
RTVSPost2010PropOp35
 70
     1
102
RTVSPost2010Prop36
280
     0
102
RTVSPost2010PropOp36
 70
     1
102
RTVSPost2010Prop37
 90
       50
102
RTVSPost2010PropOp37
 70
     1
102
RTVSPost2010Prop38
140
0.0
102
RTVSPost2010PropOp38
 70
     1
102
RTVSPost2010Prop39
140
1.0
102
RTVSPost2010PropOp39
 70
     1
102
RTVSPost2010Prop40
 90
        0
102
RTVSPost2010PropOp40
 70
     1
102
RTVSPost2010Prop41ColorIndex
 90
       18
102
RTVSPost2010Prop41ColorRGB
 90
        0
102
RTVSPost2010PropOp41
 70
     1
102
RTVSPost2010Prop42
 90
       50
102
RTVSPost2010PropOp42
 70
     1
102
RTVSPost2010Prop43
 90
        3
102
RTVSPost2010PropOp43
 70
     1
102
RTVSPost2010Prop44ColorIndex
 90
        5
102
RTVSPost2010Prop44ColorRGB
 90
      255
102
RTVSPost2010PropOp44
 70
     1
102
RTVSPost2010Prop45
280
     0
102
RTVSPost2010PropOp45
 70
     1
102
RTVSPost2010Prop46
 90
       50
102
RTVSPost2010PropOp46
 70
     1
102
RTVSPost2010Prop47
 90
       50
102
RTVSPost2010PropOp47
 70
     1
102
RTVSPost2010Prop48
 90
       50
102
RTVSPost2010PropOp48
 70
     1
102
RTVSPost2010Prop49
280
     0
102
RTVSPost2010PropOp49
 70
     1
102
RTVSPost2010Prop50
 90
       50
102
RTVSPost2010PropOp50
 70
     1
102
RTVSPost2010Prop51ColorIndex
 90
      256
102
RTVSPost2010Prop51ColorRGB
 90
-16777216
102
RTVSPost2010PropOp51
 70
     0
102
RTVSPost2010Prop52
140
1.0
102
RTVSPost2010PropOp52
 70
     0
102
RTVSPost2010Prop53
 90
        2
102
RTVSPost2010PropOp53
 70
     1
102
RTVSPost2010Prop54
  1
strokes_ogs.tif
102
RTVSPost2010PropOp54
 70
     1
102
RTVSPost2010Prop55
280
     0
102
RTVSPost2010PropOp55
 70
     1
102
RTVSPost2010Prop56
140
1.0
102
RTVSPost2010PropOp56
 70
     1
102
RTVSPost2010Prop57
140
1.0
102
RTVSPost2010PropOp57
 70
     1
  0
XRECORD
  5
3E5
102
{ACAD_REACTORS
330
3E4
102
}
330
3E4
100
AcDbXrecord
280
     1
102
RTVSPropertyOp0
 70
     1
102
RTVSPropertyOp1
 70
     1
102
RTVSPropertyOp2
 70
     1
102
RTVSPropertyOp3
 70
     1
102
RTVSPropertyOp4
 70
     1
102
RTVSPropertyOp5
 70
     1
102
RTVSPropertyOp6
 70
     1
102
RTVSPropertyOp7
 70
     1
102
RTVSPropertyOp8
 70
     1
102
RTVSPropertyOp9
 70
     1
102
RTVSPropertyOp10
 70
     1
102
RTVSPropertyOp11
 70
     1
102
RTVSPropertyOp12
 70
     1
102
RTVSPropertyOp13
 70
     1
102
RTVSPropertyOp14
 70
     1
102
RTVSPropertyOp15
 70
     1
102
RTVSPropertyOp16
 70
     1
102
RTVSPropertyOp17
 70
     1
102
RTVSPropertyOp18
 70
     1
102
RTVSPropertyOp19
 70
     1
102
RTVSPropertyOp20
 70
     1
102
RTVSPropertyOp21
 70
     1
102
RTVSPropertyOp22
 70
     1
102
RTVSPropertyOp23
 70
     1
102
RTVSPropertyOp24
 70
     1
102
RTVSPropertyOp25
 70
     1
102
RTVSPropertyOp26
 70
     1
102
RTVSPropertyOp27
 70
     1
102
RTVSPropertyOp28
 70
     1
102
RTVSPropertyOp29
 70
     1
102
RTVSPropertyOp30
 70
     1
102
RTVSPropertyOp31
 70
     1
102
RTVSPropertyOp32
 70
     1
102
RTVSPropertyOp33
 70
     1
102
RTVSPropertyOp34
 70
     1
102
RTVSPropertyOp35
 70
     1
102
RTVSPropertyOp36
 70
     1
102
RTVSPropertyOp37
 70
     1
102
RTVSPropertyOp38
 70
     1
102
RTVSPropertyOp39
 70
     1
102
RTVSPropertyOp40
 70
     1
102
RTVSPropertyOp41
 70
     1
102
RTVSPropertyOp42
 70
     1
102
RTVSPropertyOp43
 70
     1
102
RTVSPropertyOp44
 70
     1
102
RTVSPropertyOp45
 70
     1
102
RTVSPropertyOp46
 70
     1
102
RTVSPropertyOp47
 70
     1
102
RTVSPropertyOp48
 70
     1
102
RTVSPropertyOp49
 70
     1
102
RTVSPropertyOp50
 70
     1
102
RTVSPropertyOp51
 70
     0
102
RTVSPropertyOp52
 70
     0
102
RTVSPropertyOp53
 70
     1
102
RTVSPropertyOp54
 70
     1
102
RTVSPropertyOp55
 70
     1
102
RTVSPropertyOp56
 70
     1
102
RTVSPropertyOp57
 70
     1
102
RTVSPost2010Prop28
280
     0
102
RTVSPost2010PropOp28
 70
     1
102
RTVSPost2010Prop29
280
     1
102
RTVSPost2010PropOp29
 70
     1
102
RTVSPost2010Prop30
280
     1
102
RTVSPost2010PropOp30
 70
     1
102
RTVSPost2010Prop31
280
     0
102
RTVSPost2010PropOp31
 70
     1
102
RTVSPost2010Prop32
280
     0
102
RTVSPost2010PropOp32
 70
     1
102
RTVSPost2010Prop33
280
     0
102
RTVSPost2010PropOp33
 70
     1
102
RTVSPost2010Prop34
280
     0
102
RTVSPost2010PropOp34
 70
     1
102
RTVSPost2010Prop35
280
     0
102
RTVSPost2010PropOp35
 70
     1
102
RTVSPost2010Prop36
280
     0
102
RTVSPost2010PropOp36
 70
     1
102
RTVSPost2010Prop37
 90
       50
102
RTVSPost2010PropOp37
 70
     1
102
RTVSPost2010Prop38
140
0.0
102
RTVSPost2010PropOp38
 70
     1
102
RTVSPost2010Prop39
140
1.0
102
RTVSPost2010PropOp39
 70
     1
102
RTVSPost2010Prop40
 90
        0
102
RTVSPost2010PropOp40
 70
     1
102
RTVSPost2010Prop41ColorIndex
 90
       18
102
RTVSPost2010Prop41ColorRGB
 90
        0
102
RTVSPost2010PropOp41
 70
     1
102
RTVSPost2010Prop42
 90
       50
102
RTVSPost2010PropOp42
 70
     1
102
RTVSPost2010Prop43
 90
        3
102
RTVSPost2010PropOp43
 70
     1
102
RTVSPost2010Prop44ColorIndex
 90
        5
102
RTVSPost2010Prop44ColorRGB
 90
      255
102
RTVSPost2010PropOp44
 70
     1
102
RTVSPost2010Prop45
280
     0
102
RTVSPost2010PropOp45
 70
     1
102
RTVSPost2010Prop46
 90
       50
102
RTVSPost2010PropOp46
 70
     1
102
RTVSPost2010Prop47
 90
       50
102
RTVSPost2010PropOp47
 70
     1
102
RTVSPost2010Prop48
 90
       50
102
RTVSPost2010PropOp48
 70
     1
102
RTVSPost2010Prop49
280
     0
102
RTVSPost2010PropOp49
 70
     1
102
RTVSPost2010Prop50
 90
       50
102
RTVSPost2010PropOp50
 70
     1
102
RTVSPost2010Prop51ColorIndex
 90
      256
102
RTVSPost2010Prop51ColorRGB
 90
-16777216
102
RTVSPost2010PropOp51
 70
     0
102
RTVSPost2010Prop52
140
1.0
102
RTVSPost2010PropOp52
 70
     0
102
RTVSPost2010Prop53
 90
        2
102
RTVSPost2010PropOp53
 70
     1
102
RTVSPost2010Prop54
  1
strokes_ogs.tif
102
RTVSPost2010PropOp54
 70
     1
102
RTVSPost2010Prop55
280
     0
102
RTVSPost2010PropOp55
 70
     1
102
RTVSPost2010Prop56
140
1.0
102
RTVSPost2010PropOp56
 70
     1
102
RTVSPost2010Prop57
140
1.0
102
RTVSPost2010PropOp57
 70
     1
  0
XRECORD
  5
3E7
102
{ACAD_REACTORS
330
3E6
102
}
330
3E6
100
AcDbXrecord
280
     1
102
RTVSPropertyOp0
 70
     1
102
RTVSPropertyOp1
 70
     1
102
RTVSPropertyOp2
 70
     1
102
RTVSPropertyOp3
 70
     1
102
RTVSPropertyOp4
 70
     1
102
RTVSPropertyOp5
 70
     1
102
RTVSPropertyOp6
 70
     1
102
RTVSPropertyOp7
 70
     1
102
RTVSPropertyOp8
 70
     1
102
RTVSPropertyOp9
 70
     1
102
RTVSPropertyOp10
 70
     1
102
RTVSPropertyOp11
 70
     1
102
RTVSPropertyOp12
 70
     1
102
RTVSPropertyOp13
 70
     1
102
RTVSPropertyOp14
 70
     1
102
RTVSPropertyOp15
 70
     1
102
RTVSPropertyOp16
 70
     1
102
RTVSPropertyOp17
 70
     1
102
RTVSPropertyOp18
 70
     1
102
RTVSPropertyOp19
 70
     1
102
RTVSPropertyOp20
 70
     1
102
RTVSPropertyOp21
 70
     1
102
RTVSPropertyOp22
 70
     1
102
RTVSPropertyOp23
 70
     1
102
RTVSPropertyOp24
 70
     1
102
RTVSPropertyOp25
 70
     1
102
RTVSPropertyOp26
 70
     1
102
RTVSPropertyOp27
 70
     1
102
RTVSPropertyOp28
 70
     1
102
RTVSPropertyOp29
 70
     1
102
RTVSPropertyOp30
 70
     1
102
RTVSPropertyOp31
 70
     1
102
RTVSPropertyOp32
 70
     1
102
RTVSPropertyOp33
 70
     1
102
RTVSPropertyOp34
 70
     1
102
RTVSPropertyOp35
 70
     1
102
RTVSPropertyOp36
 70
     1
102
RTVSPropertyOp37
 70
     1
102
RTVSPropertyOp38
 70
     1
102
RTVSPropertyOp39
 70
     1
102
RTVSPropertyOp40
 70
     1
102
RTVSPropertyOp41
 70
     1
102
RTVSPropertyOp42
 70
     1
102
RTVSPropertyOp43
 70
     1
102
RTVSPropertyOp44
 70
     1
102
RTVSPropertyOp45
 70
     1
102
RTVSPropertyOp46
 70
     1
102
RTVSPropertyOp47
 70
     1
102
RTVSPropertyOp48
 70
     1
102
RTVSPropertyOp49
 70
     1
102
RTVSPropertyOp50
 70
     1
102
RTVSPropertyOp51
 70
     0
102
RTVSPropertyOp52
 70
     0
102
RTVSPropertyOp53
 70
     1
102
RTVSPropertyOp54
 70
     1
102
RTVSPropertyOp55
 70
     1
102
RTVSPropertyOp56
 70
     1
102
RTVSPropertyOp57
 70
     1
102
RTVSPost2010Prop28
280
     0
102
RTVSPost2010PropOp28
 70
     1
102
RTVSPost2010Prop29
280
     1
102
RTVSPost2010PropOp29
 70
     1
102
RTVSPost2010Prop30
280
     1
102
RTVSPost2010PropOp30
 70
     1
102
RTVSPost2010Prop31
280
     0
102
RTVSPost2010PropOp31
 70
     1
102
RTVSPost2010Prop32
280
     0
102
RTVSPost2010PropOp32
 70
     1
102
RTVSPost2010Prop33
280
     0
102
RTVSPost2010PropOp33
 70
     1
102
RTVSPost2010Prop34
280
     0
102
RTVSPost2010PropOp34
 70
     1
102
RTVSPost2010Prop35
280
     0
102
RTVSPost2010PropOp35
 70
     1
102
RTVSPost2010Prop36
280
     0
102
RTVSPost2010PropOp36
 70
     1
102
RTVSPost2010Prop37
 90
       50
102
RTVSPost2010PropOp37
 70
     1
102
RTVSPost2010Prop38
140
0.0
102
RTVSPost2010PropOp38
 70
     1
102
RTVSPost2010Prop39
140
1.0
102
RTVSPost2010PropOp39
 70
     1
102
RTVSPost2010Prop40
 90
        0
102
RTVSPost2010PropOp40
 70
     1
102
RTVSPost2010Prop41ColorIndex
 90
       18
102
RTVSPost2010Prop41ColorRGB
 90
        0
102
RTVSPost2010PropOp41
 70
     1
102
RTVSPost2010Prop42
 90
       50
102
RTVSPost2010PropOp42
 70
     1
102
RTVSPost2010Prop43
 90
        3
102
RTVSPost2010PropOp43
 70
     1
102
RTVSPost2010Prop44ColorIndex
 90
        5
102
RTVSPost2010Prop44ColorRGB
 90
      255
102
RTVSPost2010PropOp44
 70
     1
102
RTVSPost2010Prop45
280
     0
102
RTVSPost2010PropOp45
 70
     1
102
RTVSPost2010Prop46
 90
       50
102
RTVSPost2010PropOp46
 70
     1
102
RTVSPost2010Prop47
 90
       50
102
RTVSPost2010PropOp47
 70
     1
102
RTVSPost2010Prop48
 90
       50
102
RTVSPost2010PropOp48
 70
     1
102
RTVSPost2010Prop49
280
     0
102
RTVSPost2010PropOp49
 70
     1
102
RTVSPost2010Prop50
 90
       50
102
RTVSPost2010PropOp50
 70
     1
102
RTVSPost2010Prop51ColorIndex
 90
      256
102
RTVSPost2010Prop51ColorRGB
 90
-16777216
102
RTVSPost2010PropOp51
 70
     0
102
RTVSPost2010Prop52
140
1.0
102
RTVSPost2010PropOp52
 70
     0
102
RTVSPost2010Prop53
 90
        2
102
RTVSPost2010PropOp53
 70
     1
102
RTVSPost2010Prop54
  1
strokes_ogs.tif
102
RTVSPost2010PropOp54
 70
     1
102
RTVSPost2010Prop55
280
     0
102
RTVSPost2010PropOp55
 70
     1
102
RTVSPost2010Prop56
140
1.0
102
RTVSPost2010PropOp56
 70
     1
102
RTVSPost2010Prop57
140
1.0
102
RTVSPost2010PropOp57
 70
     1
  0
XRECORD
  5
3E9
102
{ACAD_REACTORS
330
3E8
102
}
330
3E8
100
AcDbXrecord
280
     1
102
RTVSPropertyOp0
 70
     1
102
RTVSPropertyOp1
 70
     1
102
RTVSPropertyOp2
 70
     1
102
RTVSPropertyOp3
 70
     1
102
RTVSPropertyOp4
 70
     1
102
RTVSPropertyOp5
 70
     1
102
RTVSPropertyOp6
 70
     1
102
RTVSPropertyOp7
 70
     1
102
RTVSPropertyOp8
 70
     1
102
RTVSPropertyOp9
 70
     1
102
RTVSPropertyOp10
 70
     1
102
RTVSPropertyOp11
 70
     1
102
RTVSPropertyOp12
 70
     1
102
RTVSPropertyOp13
 70
     1
102
RTVSPropertyOp14
 70
     1
102
RTVSPropertyOp15
 70
     1
102
RTVSPropertyOp16
 70
     1
102
RTVSPropertyOp17
 70
     1
102
RTVSPropertyOp18
 70
     1
102
RTVSPropertyOp19
 70
     1
102
RTVSPropertyOp20
 70
     1
102
RTVSPropertyOp21
 70
     1
102
RTVSPropertyOp22
 70
     1
102
RTVSPropertyOp23
 70
     1
102
RTVSPropertyOp24
 70
     1
102
RTVSPropertyOp25
 70
     1
102
RTVSPropertyOp26
 70
     1
102
RTVSPropertyOp27
 70
     1
102
RTVSPropertyOp28
 70
     1
102
RTVSPropertyOp29
 70
     1
102
RTVSPropertyOp30
 70
     1
102
RTVSPropertyOp31
 70
     1
102
RTVSPropertyOp32
 70
     1
102
RTVSPropertyOp33
 70
     1
102
RTVSPropertyOp34
 70
     1
102
RTVSPropertyOp35
 70
     1
102
RTVSPropertyOp36
 70
     1
102
RTVSPropertyOp37
 70
     1
102
RTVSPropertyOp38
 70
     1
102
RTVSPropertyOp39
 70
     1
102
RTVSPropertyOp40
 70
     1
102
RTVSPropertyOp41
 70
     1
102
RTVSPropertyOp42
 70
     1
102
RTVSPropertyOp43
 70
     1
102
RTVSPropertyOp44
 70
     1
102
RTVSPropertyOp45
 70
     1
102
RTVSPropertyOp46
 70
     1
102
RTVSPropertyOp47
 70
     1
102
RTVSPropertyOp48
 70
     1
102
RTVSPropertyOp49
 70
     1
102
RTVSPropertyOp50
 70
     1
102
RTVSPropertyOp51
 70
     0
102
RTVSPropertyOp52
 70
     0
102
RTVSPropertyOp53
 70
     1
102
RTVSPropertyOp54
 70
     1
102
RTVSPropertyOp55
 70
     1
102
RTVSPropertyOp56
 70
     1
102
RTVSPropertyOp57
 70
     1
102
RTVSPost2010Prop28
280
     0
102
RTVSPost2010PropOp28
 70
     1
102
RTVSPost2010Prop29
280
     1
102
RTVSPost2010PropOp29
 70
     1
102
RTVSPost2010Prop30
280
     1
102
RTVSPost2010PropOp30
 70
     1
102
RTVSPost2010Prop31
280
     0
102
RTVSPost2010PropOp31
 70
     1
102
RTVSPost2010Prop32
280
     0
102
RTVSPost2010PropOp32
 70
     1
102
RTVSPost2010Prop33
280
     0
102
RTVSPost2010PropOp33
 70
     1
102
RTVSPost2010Prop34
280
     0
102
RTVSPost2010PropOp34
 70
     1
102
RTVSPost2010Prop35
280
     0
102
RTVSPost2010PropOp35
 70
     1
102
RTVSPost2010Prop36
280
     0
102
RTVSPost2010PropOp36
 70
     1
102
RTVSPost2010Prop37
 90
       50
102
RTVSPost2010PropOp37
 70
     1
102
RTVSPost2010Prop38
140
0.0
102
RTVSPost2010PropOp38
 70
     1
102
RTVSPost2010Prop39
140
1.0
102
RTVSPost2010PropOp39
 70
     1
102
RTVSPost2010Prop40
 90
        0
102
RTVSPost2010PropOp40
 70
     1
102
RTVSPost2010Prop41ColorIndex
 90
       18
102
RTVSPost2010Prop41ColorRGB
 90
        0
102
RTVSPost2010PropOp41
 70
     1
102
RTVSPost2010Prop42
 90
       50
102
RTVSPost2010PropOp42
 70
     1
102
RTVSPost2010Prop43
 90
        3
102
RTVSPost2010PropOp43
 70
     1
102
RTVSPost2010Prop44ColorIndex
 90
        5
102
RTVSPost2010Prop44ColorRGB
 90
      255
102
RTVSPost2010PropOp44
 70
     1
102
RTVSPost2010Prop45
280
     0
102
RTVSPost2010PropOp45
 70
     1
102
RTVSPost2010Prop46
 90
       50
102
RTVSPost2010PropOp46
 70
     1
102
RTVSPost2010Prop47
 90
       50
102
RTVSPost2010PropOp47
 70
     1
102
RTVSPost2010Prop48
 90
       50
102
RTVSPost2010PropOp48
 70
     1
102
RTVSPost2010Prop49
280
     0
102
RTVSPost2010PropOp49
 70
     1
102
RTVSPost2010Prop50
 90
       50
102
RTVSPost2010PropOp50
 70
     1
102
RTVSPost2010Prop51ColorIndex
 90
      256
102
RTVSPost2010Prop51ColorRGB
 90
-16777216
102
RTVSPost2010PropOp51
 70
     0
102
RTVSPost2010Prop52
140
1.0
102
RTVSPost2010PropOp52
 70
     0
102
RTVSPost2010Prop53
 90
        2
102
RTVSPost2010PropOp53
 70
     1
102
RTVSPost2010Prop54
  1
strokes_ogs.tif
102
RTVSPost2010PropOp54
 70
     1
102
RTVSPost2010Prop55
280
     0
102
RTVSPost2010PropOp55
 70
     1
102
RTVSPost2010Prop56
140
1.0
102
RTVSPost2010PropOp56
 70
     1
102
RTVSPost2010Prop57
140
1.0
102
RTVSPost2010PropOp57
 70
     1
  0
XRECORD
  5
3EB
102
{ACAD_REACTORS
330
3EA
102
}
330
3EA
100
AcDbXrecord
280
     1
102
RTVSPropertyOp0
 70
     1
102
RTVSPropertyOp1
 70
     1
102
RTVSPropertyOp2
 70
     1
102
RTVSPropertyOp3
 70
     1
102
RTVSPropertyOp4
 70
     1
102
RTVSPropertyOp5
 70
     1
102
RTVSPropertyOp6
 70
     1
102
RTVSPropertyOp7
 70
     1
102
RTVSPropertyOp8
 70
     1
102
RTVSPropertyOp9
 70
     1
102
RTVSPropertyOp10
 70
     1
102
RTVSPropertyOp11
 70
     1
102
RTVSPropertyOp12
 70
     1
102
RTVSPropertyOp13
 70
     1
102
RTVSPropertyOp14
 70
     1
102
RTVSPropertyOp15
 70
     1
102
RTVSPropertyOp16
 70
     1
102
RTVSPropertyOp17
 70
     1
102
RTVSPropertyOp18
 70
     1
102
RTVSPropertyOp19
 70
     1
102
RTVSPropertyOp20
 70
     1
102
RTVSPropertyOp21
 70
     1
102
RTVSPropertyOp22
 70
     1
102
RTVSPropertyOp23
 70
     1
102
RTVSPropertyOp24
 70
     1
102
RTVSPropertyOp25
 70
     1
102
RTVSPropertyOp26
 70
     1
102
RTVSPropertyOp27
 70
     1
102
RTVSPropertyOp28
 70
     1
102
RTVSPropertyOp29
 70
     1
102
RTVSPropertyOp30
 70
     1
102
RTVSPropertyOp31
 70
     1
102
RTVSPropertyOp32
 70
     1
102
RTVSPropertyOp33
 70
     1
102
RTVSPropertyOp34
 70
     1
102
RTVSPropertyOp35
 70
     1
102
RTVSPropertyOp36
 70
     1
102
RTVSPropertyOp37
 70
     1
102
RTVSPropertyOp38
 70
     1
102
RTVSPropertyOp39
 70
     1
102
RTVSPropertyOp40
 70
     1
102
RTVSPropertyOp41
 70
     1
102
RTVSPropertyOp42
 70
     1
102
RTVSPropertyOp43
 70
     1
102
RTVSPropertyOp44
 70
     1
102
RTVSPropertyOp45
 70
     1
102
RTVSPropertyOp46
 70
     1
102
RTVSPropertyOp47
 70
     1
102
RTVSPropertyOp48
 70
     1
102
RTVSPropertyOp49
 70
     1
102
RTVSPropertyOp50
 70
     1
102
RTVSPropertyOp51
 70
     0
102
RTVSPropertyOp52
 70
     0
102
RTVSPropertyOp53
 70
     1
102
RTVSPropertyOp54
 70
     1
102
RTVSPropertyOp55
 70
     1
102
RTVSPropertyOp56
 70
     1
102
RTVSPropertyOp57
 70
     1
102
RTVSPost2010Prop28
280
     0
102
RTVSPost2010PropOp28
 70
     1
102
RTVSPost2010Prop29
280
     1
102
RTVSPost2010PropOp29
 70
     1
102
RTVSPost2010Prop30
280
     1
102
RTVSPost2010PropOp30
 70
     1
102
RTVSPost2010Prop31
280
     0
102
RTVSPost2010PropOp31
 70
     1
102
RTVSPost2010Prop32
280
     0
102
RTVSPost2010PropOp32
 70
     1
102
RTVSPost2010Prop33
280
     0
102
RTVSPost2010PropOp33
 70
     1
102
RTVSPost2010Prop34
280
     0
102
RTVSPost2010PropOp34
 70
     1
102
RTVSPost2010Prop35
280
     0
102
RTVSPost2010PropOp35
 70
     1
102
RTVSPost2010Prop36
280
     0
102
RTVSPost2010PropOp36
 70
     1
102
RTVSPost2010Prop37
 90
       50
102
RTVSPost2010PropOp37
 70
     1
102
RTVSPost2010Prop38
140
0.0
102
RTVSPost2010PropOp38
 70
     1
102
RTVSPost2010Prop39
140
1.0
102
RTVSPost2010PropOp39
 70
     1
102
RTVSPost2010Prop40
 90
        0
102
RTVSPost2010PropOp40
 70
     1
102
RTVSPost2010Prop41ColorIndex
 90
       18
102
RTVSPost2010Prop41ColorRGB
 90
        0
102
RTVSPost2010PropOp41
 70
     1
102
RTVSPost2010Prop42
 90
       50
102
RTVSPost2010PropOp42
 70
     1
102
RTVSPost2010Prop43
 90
        3
102
RTVSPost2010PropOp43
 70
     1
102
RTVSPost2010Prop44ColorIndex
 90
        5
102
RTVSPost2010Prop44ColorRGB
 90
      255
102
RTVSPost2010PropOp44
 70
     1
102
RTVSPost2010Prop45
280
     0
102
RTVSPost2010PropOp45
 70
     1
102
RTVSPost2010Prop46
 90
       50
102
RTVSPost2010PropOp46
 70
     1
102
RTVSPost2010Prop47
 90
       50
102
RTVSPost2010PropOp47
 70
     1
102
RTVSPost2010Prop48
 90
       50
102
RTVSPost2010PropOp48
 70
     1
102
RTVSPost2010Prop49
280
     0
102
RTVSPost2010PropOp49
 70
     1
102
RTVSPost2010Prop50
 90
       50
102
RTVSPost2010PropOp50
 70
     1
102
RTVSPost2010Prop51ColorIndex
 90
      256
102
RTVSPost2010Prop51ColorRGB
 90
-16777216
102
RTVSPost2010PropOp51
 70
     0
102
RTVSPost2010Prop52
140
1.0
102
RTVSPost2010PropOp52
 70
     0
102
RTVSPost2010Prop53
 90
        2
102
RTVSPost2010PropOp53
 70
     1
102
RTVSPost2010Prop54
  1
strokes_ogs.tif
102
RTVSPost2010PropOp54
 70
     1
102
RTVSPost2010Prop55
280
     0
102
RTVSPost2010PropOp55
 70
     1
102
RTVSPost2010Prop56
140
1.0
102
RTVSPost2010PropOp56
 70
     1
102
RTVSPost2010Prop57
140
1.0
102
RTVSPost2010PropOp57
 70
     1
  0
XRECORD
  5
3F1
102
{ACAD_REACTORS
330
3F0
102
}
330
3F0
100
AcDbXrecord
280
     1
102
RTVSPropertyOp0
 70
     1
102
RTVSPropertyOp1
 70
     1
102
RTVSPropertyOp2
 70
     1
102
RTVSPropertyOp3
 70
     1
102
RTVSPropertyOp4
 70
     1
102
RTVSPropertyOp5
 70
     1
102
RTVSPropertyOp6
 70
     1
102
RTVSPropertyOp7
 70
     1
102
RTVSPropertyOp8
 70
     1
102
RTVSPropertyOp9
 70
     1
102
RTVSPropertyOp10
 70
     1
102
RTVSPropertyOp11
 70
     1
102
RTVSPropertyOp12
 70
     1
102
RTVSPropertyOp13
 70
     1
102
RTVSPropertyOp14
 70
     1
102
RTVSPropertyOp15
 70
     1
102
RTVSPropertyOp16
 70
     1
102
RTVSPropertyOp17
 70
     1
102
RTVSPropertyOp18
 70
     1
102
RTVSPropertyOp19
 70
     1
102
RTVSPropertyOp20
 70
     1
102
RTVSPropertyOp21
 70
     1
102
RTVSPropertyOp22
 70
     1
102
RTVSPropertyOp23
 70
     1
102
RTVSPropertyOp24
 70
     1
102
RTVSPropertyOp25
 70
     1
102
RTVSPropertyOp26
 70
     1
102
RTVSPropertyOp27
 70
     1
102
RTVSPropertyOp28
 70
     1
102
RTVSPropertyOp29
 70
     1
102
RTVSPropertyOp30
 70
     1
102
RTVSPropertyOp31
 70
     1
102
RTVSPropertyOp32
 70
     1
102
RTVSPropertyOp33
 70
     1
102
RTVSPropertyOp34
 70
     1
102
RTVSPropertyOp35
 70
     1
102
RTVSPropertyOp36
 70
     1
102
RTVSPropertyOp37
 70
     1
102
RTVSPropertyOp38
 70
     1
102
RTVSPropertyOp39
 70
     1
102
RTVSPropertyOp40
 70
     1
102
RTVSPropertyOp41
 70
     1
102
RTVSPropertyOp42
 70
     1
102
RTVSPropertyOp43
 70
     1
102
RTVSPropertyOp44
 70
     1
102
RTVSPropertyOp45
 70
     1
102
RTVSPropertyOp46
 70
     1
102
RTVSPropertyOp47
 70
     1
102
RTVSPropertyOp48
 70
     1
102
RTVSPropertyOp49
 70
     1
102
RTVSPropertyOp50
 70
     1
102
RTVSPropertyOp51
 70
     0
102
RTVSPropertyOp52
 70
     0
102
RTVSPropertyOp53
 70
     1
102
RTVSPropertyOp54
 70
     1
102
RTVSPropertyOp55
 70
     1
102
RTVSPropertyOp56
 70
     1
102
RTVSPropertyOp57
 70
     1
102
RTVSPost2010Prop28
280
     0
102
RTVSPost2010PropOp28
 70
     1
102
RTVSPost2010Prop29
280
     1
102
RTVSPost2010PropOp29
 70
     1
102
RTVSPost2010Prop30
280
     1
102
RTVSPost2010PropOp30
 70
     1
102
RTVSPost2010Prop31
280
     0
102
RTVSPost2010PropOp31
 70
     1
102
RTVSPost2010Prop32
280
     0
102
RTVSPost2010PropOp32
 70
     1
102
RTVSPost2010Prop33
280
     0
102
RTVSPost2010PropOp33
 70
     1
102
RTVSPost2010Prop34
280
     0
102
RTVSPost2010PropOp34
 70
     1
102
RTVSPost2010Prop35
280
     0
102
RTVSPost2010PropOp35
 70
     1
102
RTVSPost2010Prop36
280
     0
102
RTVSPost2010PropOp36
 70
     1
102
RTVSPost2010Prop37
 90
       50
102
RTVSPost2010PropOp37
 70
     1
102
RTVSPost2010Prop38
140
0.0
102
RTVSPost2010PropOp38
 70
     1
102
RTVSPost2010Prop39
140
1.0
102
RTVSPost2010PropOp39
 70
     1
102
RTVSPost2010Prop40
 90
        0
102
RTVSPost2010PropOp40
 70
     1
102
RTVSPost2010Prop41ColorIndex
 90
       18
102
RTVSPost2010Prop41ColorRGB
 90
        0
102
RTVSPost2010PropOp41
 70
     1
102
RTVSPost2010Prop42
 90
       50
102
RTVSPost2010PropOp42
 70
     1
102
RTVSPost2010Prop43
 90
        3
102
RTVSPost2010PropOp43
 70
     1
102
RTVSPost2010Prop44ColorIndex
 90
        5
102
RTVSPost2010Prop44ColorRGB
 90
      255
102
RTVSPost2010PropOp44
 70
     1
102
RTVSPost2010Prop45
280
     0
102
RTVSPost2010PropOp45
 70
     1
102
RTVSPost2010Prop46
 90
       50
102
RTVSPost2010PropOp46
 70
     1
102
RTVSPost2010Prop47
 90
       50
102
RTVSPost2010PropOp47
 70
     1
102
RTVSPost2010Prop48
 90
       50
102
RTVSPost2010PropOp48
 70
     1
102
RTVSPost2010Prop49
280
     0
102
RTVSPost2010PropOp49
 70
     1
102
RTVSPost2010Prop50
 90
       50
102
RTVSPost2010PropOp50
 70
     1
102
RTVSPost2010Prop51ColorIndex
 90
      256
102
RTVSPost2010Prop51ColorRGB
 90
-16777216
102
RTVSPost2010PropOp51
 70
     0
102
RTVSPost2010Prop52
140
1.0
102
RTVSPost2010PropOp52
 70
     0
102
RTVSPost2010Prop53
 90
        2
102
RTVSPost2010PropOp53
 70
     1
102
RTVSPost2010Prop54
  1
strokes_ogs.tif
102
RTVSPost2010PropOp54
 70
     1
102
RTVSPost2010Prop55
280
     0
102
RTVSPost2010PropOp55
 70
     1
102
RTVSPost2010Prop56
140
1.0
102
RTVSPost2010PropOp56
 70
     1
102
RTVSPost2010Prop57
140
1.0
102
RTVSPost2010PropOp57
 70
     1
  0
XRECORD
  5
405
102
{ACAD_REACTORS
330
404
102
}
330
404
100
AcDbXrecord
280
     1
102
RTVSPropertyOp0
 70
     0
102
RTVSPropertyOp1
 70
     0
102
RTVSPropertyOp2
 70
     0
102
RTVSPropertyOp3
 70
     0
102
RTVSPropertyOp4
 70
     0
102
RTVSPropertyOp5
 70
     0
102
RTVSPropertyOp6
 70
     0
102
RTVSPropertyOp7
 70
     0
102
RTVSPropertyOp8
 70
     0
102
RTVSPropertyOp9
 70
     0
102
RTVSPropertyOp10
 70
     0
102
RTVSPropertyOp11
 70
     0
102
RTVSPropertyOp12
 70
     0
102
RTVSPropertyOp13
 70
     0
102
RTVSPropertyOp14
 70
     2
102
RTVSPropertyOp15
 70
     0
102
RTVSPropertyOp16
 70
     0
102
RTVSPropertyOp17
 70
     0
102
RTVSPropertyOp18
 70
     0
102
RTVSPropertyOp19
 70
     0
102
RTVSPropertyOp20
 70
     0
102
RTVSPropertyOp21
 70
     0
102
RTVSPropertyOp22
 70
     0
102
RTVSPropertyOp23
 70
     0
102
RTVSPropertyOp24
 70
     0
102
RTVSPropertyOp25
 70
     0
102
RTVSPropertyOp26
 70
     0
102
RTVSPropertyOp27
 70
     0
102
RTVSPropertyOp28
 70
     0
102
RTVSPropertyOp29
 70
     0
102
RTVSPropertyOp30
 70
     0
102
RTVSPropertyOp31
 70
     0
102
RTVSPropertyOp32
 70
     0
102
RTVSPropertyOp33
 70
     0
102
RTVSPropertyOp34
 70
     0
102
RTVSPropertyOp35
 70
     0
102
RTVSPropertyOp36
 70
     0
102
RTVSPropertyOp37
 70
     0
102
RTVSPropertyOp38
 70
     0
102
RTVSPropertyOp39
 70
     0
102
RTVSPropertyOp40
 70
     0
102
RTVSPropertyOp41
 70
     0
102
RTVSPropertyOp42
 70
     0
102
RTVSPropertyOp43
 70
     0
102
RTVSPropertyOp44
 70
     0
102
RTVSPropertyOp45
 70
     0
102
RTVSPropertyOp46
 70
     0
102
RTVSPropertyOp47
 70
     0
102
RTVSPropertyOp48
 70
     0
102
RTVSPropertyOp49
 70
     0
102
RTVSPropertyOp50
 70
     0
102
RTVSPropertyOp51
 70
     0
102
RTVSPropertyOp52
 70
     0
102
RTVSPropertyOp53
 70
     0
102
RTVSPropertyOp54
 70
     0
102
RTVSPropertyOp55
 70
     0
102
RTVSPropertyOp56
 70
     0
102
RTVSPropertyOp57
 70
     0
102
RTVSPost2010Prop28
280
     0
102
RTVSPost2010PropOp28
 70
     0
102
RTVSPost2010Prop29
280
     1
102
RTVSPost2010PropOp29
 70
     0
102
RTVSPost2010Prop30
280
     1
102
RTVSPost2010PropOp30
 70
     0
102
RTVSPost2010Prop31
280
     0
102
RTVSPost2010PropOp31
 70
     0
102
RTVSPost2010Prop32
280
     0
102
RTVSPost2010PropOp32
 70
     0
102
RTVSPost2010Prop33
280
     0
102
RTVSPost2010PropOp33
 70
     0
102
RTVSPost2010Prop34
280
     0
102
RTVSPost2010PropOp34
 70
     0
102
RTVSPost2010Prop35
280
     0
102
RTVSPost2010PropOp35
 70
     0
102
RTVSPost2010Prop36
280
     0
102
RTVSPost2010PropOp36
 70
     0
102
RTVSPost2010Prop37
 90
       50
102
RTVSPost2010PropOp37
 70
     0
102
RTVSPost2010Prop38
140
0.0
102
RTVSPost2010PropOp38
 70
     0
102
RTVSPost2010Prop39
140
1.0
102
RTVSPost2010PropOp39
 70
     0
102
RTVSPost2010Prop40
 90
        0
102
RTVSPost2010PropOp40
 70
     0
102
RTVSPost2010Prop41ColorIndex
 90
       18
102
RTVSPost2010Prop41ColorRGB
 90
        0
102
RTVSPost2010PropOp41
 70
     0
102
RTVSPost2010Prop42
 90
       50
102
RTVSPost2010PropOp42
 70
     0
102
RTVSPost2010Prop43
 90
        3
102
RTVSPost2010PropOp43
 70
     0
102
RTVSPost2010Prop44ColorIndex
 90
        5
102
RTVSPost2010Prop44ColorRGB
 90
      255
102
RTVSPost2010PropOp44
 70
     0
102
RTVSPost2010Prop45
280
     0
102
RTVSPost2010PropOp45
 70
     0
102
RTVSPost2010Prop46
 90
       50
102
RTVSPost2010PropOp46
 70
     0
102
RTVSPost2010Prop47
 90
       50
102
RTVSPost2010PropOp47
 70
     0
102
RTVSPost2010Prop48
 90
       50
102
RTVSPost2010PropOp48
 70
     0
102
RTVSPost2010Prop49
280
     0
102
RTVSPost2010PropOp49
 70
     0
102
RTVSPost2010Prop50
 90
       50
102
RTVSPost2010PropOp50
 70
     0
102
RTVSPost2010Prop51ColorIndex
 90
      256
102
RTVSPost2010Prop51ColorRGB
 90
-16777216
102
RTVSPost2010PropOp51
 70
     0
102
RTVSPost2010Prop52
140
1.0
102
RTVSPost2010PropOp52
 70
     0
102
RTVSPost2010Prop53
 90
        2
102
RTVSPost2010PropOp53
 70
     0
102
RTVSPost2010Prop54
  1
strokes_ogs.tif
102
RTVSPost2010PropOp54
 70
     0
102
RTVSPost2010Prop55
280
     0
102
RTVSPost2010PropOp55
 70
     0
102
RTVSPost2010Prop56
140
1.0
102
RTVSPost2010PropOp56
 70
     0
102
RTVSPost2010Prop57
140
1.0
102
RTVSPost2010PropOp57
 70
     0
  0
XRECORD
  5
3FF
102
{ACAD_REACTORS
330
3FE
102
}
330
3FE
100
AcDbXrecord
280
     1
102
RTVSPropertyOp0
 70
     1
102
RTVSPropertyOp1
 70
     1
102
RTVSPropertyOp2
 70
     1
102
RTVSPropertyOp3
 70
     1
102
RTVSPropertyOp4
 70
     1
102
RTVSPropertyOp5
 70
     1
102
RTVSPropertyOp6
 70
     1
102
RTVSPropertyOp7
 70
     1
102
RTVSPropertyOp8
 70
     1
102
RTVSPropertyOp9
 70
     1
102
RTVSPropertyOp10
 70
     1
102
RTVSPropertyOp11
 70
     1
102
RTVSPropertyOp12
 70
     1
102
RTVSPropertyOp13
 70
     1
102
RTVSPropertyOp14
 70
     1
102
RTVSPropertyOp15
 70
     1
102
RTVSPropertyOp16
 70
     1
102
RTVSPropertyOp17
 70
     1
102
RTVSPropertyOp18
 70
     1
102
RTVSPropertyOp19
 70
     1
102
RTVSPropertyOp20
 70
     1
102
RTVSPropertyOp21
 70
     1
102
RTVSPropertyOp22
 70
     1
102
RTVSPropertyOp23
 70
     1
102
RTVSPropertyOp24
 70
     1
102
RTVSPropertyOp25
 70
     1
102
RTVSPropertyOp26
 70
     1
102
RTVSPropertyOp27
 70
     1
102
RTVSPropertyOp28
 70
     1
102
RTVSPropertyOp29
 70
     1
102
RTVSPropertyOp30
 70
     1
102
RTVSPropertyOp31
 70
     1
102
RTVSPropertyOp32
 70
     1
102
RTVSPropertyOp33
 70
     1
102
RTVSPropertyOp34
 70
     1
102
RTVSPropertyOp35
 70
     1
102
RTVSPropertyOp36
 70
     1
102
RTVSPropertyOp37
 70
     1
102
RTVSPropertyOp38
 70
     1
102
RTVSPropertyOp39
 70
     1
102
RTVSPropertyOp40
 70
     1
102
RTVSPropertyOp41
 70
     1
102
RTVSPropertyOp42
 70
     1
102
RTVSPropertyOp43
 70
     1
102
RTVSPropertyOp44
 70
     1
102
RTVSPropertyOp45
 70
     1
102
RTVSPropertyOp46
 70
     1
102
RTVSPropertyOp47
 70
     1
102
RTVSPropertyOp48
 70
     1
102
RTVSPropertyOp49
 70
     1
102
RTVSPropertyOp50
 70
     1
102
RTVSPropertyOp51
 70
     0
102
RTVSPropertyOp52
 70
     0
102
RTVSPropertyOp53
 70
     1
102
RTVSPropertyOp54
 70
     1
102
RTVSPropertyOp55
 70
     1
102
RTVSPropertyOp56
 70
     1
102
RTVSPropertyOp57
 70
     1
102
RTVSPost2010Prop28
280
     0
102
RTVSPost2010PropOp28
 70
     1
102
RTVSPost2010Prop29
280
     1
102
RTVSPost2010PropOp29
 70
     1
102
RTVSPost2010Prop30
280
     1
102
RTVSPost2010PropOp30
 70
     1
102
RTVSPost2010Prop31
280
     0
102
RTVSPost2010PropOp31
 70
     1
102
RTVSPost2010Prop32
280
     0
102
RTVSPost2010PropOp32
 70
     1
102
RTVSPost2010Prop33
280
     0
102
RTVSPost2010PropOp33
 70
     1
102
RTVSPost2010Prop34
280
     0
102
RTVSPost2010PropOp34
 70
     1
102
RTVSPost2010Prop35
280
     0
102
RTVSPost2010PropOp35
 70
     1
102
RTVSPost2010Prop36
280
     0
102
RTVSPost2010PropOp36
 70
     1
102
RTVSPost2010Prop37
 90
       50
102
RTVSPost2010PropOp37
 70
     1
102
RTVSPost2010Prop38
140
0.0
102
RTVSPost2010PropOp38
 70
     1
102
RTVSPost2010Prop39
140
1.0
102
RTVSPost2010PropOp39
 70
     1
102
RTVSPost2010Prop40
 90
        0
102
RTVSPost2010PropOp40
 70
     1
102
RTVSPost2010Prop41ColorIndex
 90
       18
102
RTVSPost2010Prop41ColorRGB
 90
        0
102
RTVSPost2010PropOp41
 70
     1
102
RTVSPost2010Prop42
 90
       50
102
RTVSPost2010PropOp42
 70
     1
102
RTVSPost2010Prop43
 90
        3
102
RTVSPost2010PropOp43
 70
     1
102
RTVSPost2010Prop44ColorIndex
 90
        5
102
RTVSPost2010Prop44ColorRGB
 90
      255
102
RTVSPost2010PropOp44
 70
     1
102
RTVSPost2010Prop45
280
     0
102
RTVSPost2010PropOp45
 70
     1
102
RTVSPost2010Prop46
 90
       50
102
RTVSPost2010PropOp46
 70
     1
102
RTVSPost2010Prop47
 90
       50
102
RTVSPost2010PropOp47
 70
     1
102
RTVSPost2010Prop48
 90
       50
102
RTVSPost2010PropOp48
 70
     1
102
RTVSPost2010Prop49
280
     0
102
RTVSPost2010PropOp49
 70
     1
102
RTVSPost2010Prop50
 90
       50
102
RTVSPost2010PropOp50
 70
     1
102
RTVSPost2010Prop51ColorIndex
 90
      256
102
RTVSPost2010Prop51ColorRGB
 90
-16777216
102
RTVSPost2010PropOp51
 70
     0
102
RTVSPost2010Prop52
140
1.0
102
RTVSPost2010PropOp52
 70
     0
102
RTVSPost2010Prop53
 90
        2
102
RTVSPost2010PropOp53
 70
     1
102
RTVSPost2010Prop54
  1
strokes_ogs.tif
102
RTVSPost2010PropOp54
 70
     1
102
RTVSPost2010Prop55
280
     0
102
RTVSPost2010PropOp55
 70
     1
102
RTVSPost2010Prop56
140
1.0
102
RTVSPost2010PropOp56
 70
     1
102
RTVSPost2010Prop57
140
1.0
102
RTVSPost2010PropOp57
 70
     1
  0
XRECORD
  5
407
102
{ACAD_REACTORS
330
406
102
}
330
406
100
AcDbXrecord
280
     1
102
RTVSPropertyOp0
 70
     0
102
RTVSPropertyOp1
 70
     0
102
RTVSPropertyOp2
 70
     0
102
RTVSPropertyOp3
 70
     0
102
RTVSPropertyOp4
 70
     0
102
RTVSPropertyOp5
 70
     0
102
RTVSPropertyOp6
 70
     0
102
RTVSPropertyOp7
 70
     0
102
RTVSPropertyOp8
 70
     0
102
RTVSPropertyOp9
 70
     0
102
RTVSPropertyOp10
 70
     0
102
RTVSPropertyOp11
 70
     0
102
RTVSPropertyOp12
 70
     0
102
RTVSPropertyOp13
 70
     0
102
RTVSPropertyOp14
 70
     2
102
RTVSPropertyOp15
 70
     0
102
RTVSPropertyOp16
 70
     0
102
RTVSPropertyOp17
 70
     0
102
RTVSPropertyOp18
 70
     0
102
RTVSPropertyOp19
 70
     0
102
RTVSPropertyOp20
 70
     0
102
RTVSPropertyOp21
 70
     0
102
RTVSPropertyOp22
 70
     0
102
RTVSPropertyOp23
 70
     0
102
RTVSPropertyOp24
 70
     0
102
RTVSPropertyOp25
 70
     0
102
RTVSPropertyOp26
 70
     0
102
RTVSPropertyOp27
 70
     0
102
RTVSPropertyOp28
 70
     0
102
RTVSPropertyOp29
 70
     0
102
RTVSPropertyOp30
 70
     0
102
RTVSPropertyOp31
 70
     0
102
RTVSPropertyOp32
 70
     0
102
RTVSPropertyOp33
 70
     0
102
RTVSPropertyOp34
 70
     0
102
RTVSPropertyOp35
 70
     0
102
RTVSPropertyOp36
 70
     0
102
RTVSPropertyOp37
 70
     0
102
RTVSPropertyOp38
 70
     0
102
RTVSPropertyOp39
 70
     0
102
RTVSPropertyOp40
 70
     0
102
RTVSPropertyOp41
 70
     0
102
RTVSPropertyOp42
 70
     0
102
RTVSPropertyOp43
 70
     0
102
RTVSPropertyOp44
 70
     0
102
RTVSPropertyOp45
 70
     0
102
RTVSPropertyOp46
 70
     0
102
RTVSPropertyOp47
 70
     0
102
RTVSPropertyOp48
 70
     0
102
RTVSPropertyOp49
 70
     0
102
RTVSPropertyOp50
 70
     0
102
RTVSPropertyOp51
 70
     0
102
RTVSPropertyOp52
 70
     0
102
RTVSPropertyOp53
 70
     0
102
RTVSPropertyOp54
 70
     0
102
RTVSPropertyOp55
 70
     0
102
RTVSPropertyOp56
 70
     0
102
RTVSPropertyOp57
 70
     0
102
RTVSPost2010Prop28
280
     0
102
RTVSPost2010PropOp28
 70
     0
102
RTVSPost2010Prop29
280
     1
102
RTVSPost2010PropOp29
 70
     0
102
RTVSPost2010Prop30
280
     1
102
RTVSPost2010PropOp30
 70
     0
102
RTVSPost2010Prop31
280
     0
102
RTVSPost2010PropOp31
 70
     0
102
RTVSPost2010Prop32
280
     0
102
RTVSPost2010PropOp32
 70
     0
102
RTVSPost2010Prop33
280
     0
102
RTVSPost2010PropOp33
 70
     0
102
RTVSPost2010Prop34
280
     0
102
RTVSPost2010PropOp34
 70
     0
102
RTVSPost2010Prop35
280
     0
102
RTVSPost2010PropOp35
 70
     0
102
RTVSPost2010Prop36
280
     0
102
RTVSPost2010PropOp36
 70
     0
102
RTVSPost2010Prop37
 90
       50
102
RTVSPost2010PropOp37
 70
     0
102
RTVSPost2010Prop38
140
0.0
102
RTVSPost2010PropOp38
 70
     0
102
RTVSPost2010Prop39
140
1.0
102
RTVSPost2010PropOp39
 70
     0
102
RTVSPost2010Prop40
 90
        0
102
RTVSPost2010PropOp40
 70
     0
102
RTVSPost2010Prop41ColorIndex
 90
       18
102
RTVSPost2010Prop41ColorRGB
 90
        0
102
RTVSPost2010PropOp41
 70
     0
102
RTVSPost2010Prop42
 90
       50
102
RTVSPost2010PropOp42
 70
     0
102
RTVSPost2010Prop43
 90
        3
102
RTVSPost2010PropOp43
 70
     0
102
RTVSPost2010Prop44ColorIndex
 90
        5
102
RTVSPost2010Prop44ColorRGB
 90
      255
102
RTVSPost2010PropOp44
 70
     0
102
RTVSPost2010Prop45
280
     0
102
RTVSPost2010PropOp45
 70
     0
102
RTVSPost2010Prop46
 90
       50
102
RTVSPost2010PropOp46
 70
     0
102
RTVSPost2010Prop47
 90
       50
102
RTVSPost2010PropOp47
 70
     0
102
RTVSPost2010Prop48
 90
       50
102
RTVSPost2010PropOp48
 70
     0
102
RTVSPost2010Prop49
280
     0
102
RTVSPost2010PropOp49
 70
     0
102
RTVSPost2010Prop50
 90
       50
102
RTVSPost2010PropOp50
 70
     0
102
RTVSPost2010Prop51ColorIndex
 90
      256
102
RTVSPost2010Prop51ColorRGB
 90
-16777216
102
RTVSPost2010PropOp51
 70
     0
102
RTVSPost2010Prop52
140
1.0
102
RTVSPost2010PropOp52
 70
     0
102
RTVSPost2010Prop53
 90
        2
102
RTVSPost2010PropOp53
 70
     0
102
RTVSPost2010Prop54
  1
strokes_ogs.tif
102
RTVSPost2010PropOp54
 70
     0
102
RTVSPost2010Prop55
280
     0
102
RTVSPost2010PropOp55
 70
     0
102
RTVSPost2010Prop56
140
1.0
102
RTVSPost2010PropOp56
 70
     0
102
RTVSPost2010Prop57
140
1.0
102
RTVSPost2010PropOp57
 70
     0
  0
XRECORD
  5
3F5
102
{ACAD_REACTORS
330
3F4
102
}
330
3F4
100
AcDbXrecord
280
     1
102
RTVSPropertyOp0
 70
     1
102
RTVSPropertyOp1
 70
     1
102
RTVSPropertyOp2
 70
     1
102
RTVSPropertyOp3
 70
     1
102
RTVSPropertyOp4
 70
     1
102
RTVSPropertyOp5
 70
     1
102
RTVSPropertyOp6
 70
     1
102
RTVSPropertyOp7
 70
     1
102
RTVSPropertyOp8
 70
     1
102
RTVSPropertyOp9
 70
     1
102
RTVSPropertyOp10
 70
     1
102
RTVSPropertyOp11
 70
     1
102
RTVSPropertyOp12
 70
     1
102
RTVSPropertyOp13
 70
     1
102
RTVSPropertyOp14
 70
     1
102
RTVSPropertyOp15
 70
     1
102
RTVSPropertyOp16
 70
     1
102
RTVSPropertyOp17
 70
     1
102
RTVSPropertyOp18
 70
     1
102
RTVSPropertyOp19
 70
     1
102
RTVSPropertyOp20
 70
     1
102
RTVSPropertyOp21
 70
     1
102
RTVSPropertyOp22
 70
     1
102
RTVSPropertyOp23
 70
     1
102
RTVSPropertyOp24
 70
     1
102
RTVSPropertyOp25
 70
     1
102
RTVSPropertyOp26
 70
     1
102
RTVSPropertyOp27
 70
     1
102
RTVSPropertyOp28
 70
     1
102
RTVSPropertyOp29
 70
     1
102
RTVSPropertyOp30
 70
     1
102
RTVSPropertyOp31
 70
     1
102
RTVSPropertyOp32
 70
     1
102
RTVSPropertyOp33
 70
     1
102
RTVSPropertyOp34
 70
     1
102
RTVSPropertyOp35
 70
     1
102
RTVSPropertyOp36
 70
     1
102
RTVSPropertyOp37
 70
     1
102
RTVSPropertyOp38
 70
     1
102
RTVSPropertyOp39
 70
     1
102
RTVSPropertyOp40
 70
     1
102
RTVSPropertyOp41
 70
     1
102
RTVSPropertyOp42
 70
     1
102
RTVSPropertyOp43
 70
     1
102
RTVSPropertyOp44
 70
     1
102
RTVSPropertyOp45
 70
     1
102
RTVSPropertyOp46
 70
     1
102
RTVSPropertyOp47
 70
     1
102
RTVSPropertyOp48
 70
     1
102
RTVSPropertyOp49
 70
     1
102
RTVSPropertyOp50
 70
     1
102
RTVSPropertyOp51
 70
     0
102
RTVSPropertyOp52
 70
     0
102
RTVSPropertyOp53
 70
     1
102
RTVSPropertyOp54
 70
     1
102
RTVSPropertyOp55
 70
     1
102
RTVSPropertyOp56
 70
     1
102
RTVSPropertyOp57
 70
     1
102
RTVSPost2010Prop28
280
     0
102
RTVSPost2010PropOp28
 70
     1
102
RTVSPost2010Prop29
280
     1
102
RTVSPost2010PropOp29
 70
     1
102
RTVSPost2010Prop30
280
     1
102
RTVSPost2010PropOp30
 70
     1
102
RTVSPost2010Prop31
280
     0
102
RTVSPost2010PropOp31
 70
     1
102
RTVSPost2010Prop32
280
     0
102
RTVSPost2010PropOp32
 70
     1
102
RTVSPost2010Prop33
280
     0
102
RTVSPost2010PropOp33
 70
     1
102
RTVSPost2010Prop34
280
     0
102
RTVSPost2010PropOp34
 70
     1
102
RTVSPost2010Prop35
280
     0
102
RTVSPost2010PropOp35
 70
     1
102
RTVSPost2010Prop36
280
     0
102
RTVSPost2010PropOp36
 70
     1
102
RTVSPost2010Prop37
 90
       50
102
RTVSPost2010PropOp37
 70
     1
102
RTVSPost2010Prop38
140
0.0
102
RTVSPost2010PropOp38
 70
     1
102
RTVSPost2010Prop39
140
1.0
102
RTVSPost2010PropOp39
 70
     1
102
RTVSPost2010Prop40
 90
        0
102
RTVSPost2010PropOp40
 70
     1
102
RTVSPost2010Prop41ColorIndex
 90
       18
102
RTVSPost2010Prop41ColorRGB
 90
        0
102
RTVSPost2010PropOp41
 70
     1
102
RTVSPost2010Prop42
 90
       50
102
RTVSPost2010PropOp42
 70
     1
102
RTVSPost2010Prop43
 90
        3
102
RTVSPost2010PropOp43
 70
     1
102
RTVSPost2010Prop44ColorIndex
 90
        5
102
RTVSPost2010Prop44ColorRGB
 90
      255
102
RTVSPost2010PropOp44
 70
     1
102
RTVSPost2010Prop45
280
     0
102
RTVSPost2010PropOp45
 70
     1
102
RTVSPost2010Prop46
 90
       50
102
RTVSPost2010PropOp46
 70
     1
102
RTVSPost2010Prop47
 90
       50
102
RTVSPost2010PropOp47
 70
     1
102
RTVSPost2010Prop48
 90
       50
102
RTVSPost2010PropOp48
 70
     1
102
RTVSPost2010Prop49
280
     0
102
RTVSPost2010PropOp49
 70
     1
102
RTVSPost2010Prop50
 90
       50
102
RTVSPost2010PropOp50
 70
     1
102
RTVSPost2010Prop51ColorIndex
 90
      256
102
RTVSPost2010Prop51ColorRGB
 90
-16777216
102
RTVSPost2010PropOp51
 70
     0
102
RTVSPost2010Prop52
140
1.0
102
RTVSPost2010PropOp52
 70
     0
102
RTVSPost2010Prop53
 90
        2
102
RTVSPost2010PropOp53
 70
     1
102
RTVSPost2010Prop54
  1
strokes_ogs.tif
102
RTVSPost2010PropOp54
 70
     1
102
RTVSPost2010Prop55
280
     0
102
RTVSPost2010PropOp55
 70
     1
102
RTVSPost2010Prop56
140
1.0
102
RTVSPost2010PropOp56
 70
     1
102
RTVSPost2010Prop57
140
1.0
102
RTVSPost2010PropOp57
 70
     1
  0
XRECORD
  5
413
102
{ACAD_REACTORS
330
412
102
}
330
412
100
AcDbXrecord
280
     1
102
RTVSPropertyOp0
 70
     1
102
RTVSPropertyOp1
 70
     1
102
RTVSPropertyOp2
 70
     1
102
RTVSPropertyOp3
 70
     1
102
RTVSPropertyOp4
 70
     1
102
RTVSPropertyOp5
 70
     1
102
RTVSPropertyOp6
 70
     1
102
RTVSPropertyOp7
 70
     1
102
RTVSPropertyOp8
 70
     1
102
RTVSPropertyOp9
 70
     1
102
RTVSPropertyOp10
 70
     1
102
RTVSPropertyOp11
 70
     1
102
RTVSPropertyOp12
 70
     1
102
RTVSPropertyOp13
 70
     1
102
RTVSPropertyOp14
 70
     1
102
RTVSPropertyOp15
 70
     1
102
RTVSPropertyOp16
 70
     1
102
RTVSPropertyOp17
 70
     1
102
RTVSPropertyOp18
 70
     1
102
RTVSPropertyOp19
 70
     1
102
RTVSPropertyOp20
 70
     1
102
RTVSPropertyOp21
 70
     1
102
RTVSPropertyOp22
 70
     1
102
RTVSPropertyOp23
 70
     1
102
RTVSPropertyOp24
 70
     1
102
RTVSPropertyOp25
 70
     1
102
RTVSPropertyOp26
 70
     1
102
RTVSPropertyOp27
 70
     1
102
RTVSPropertyOp28
 70
     1
102
RTVSPropertyOp29
 70
     1
102
RTVSPropertyOp30
 70
     1
102
RTVSPropertyOp31
 70
     1
102
RTVSPropertyOp32
 70
     1
102
RTVSPropertyOp33
 70
     1
102
RTVSPropertyOp34
 70
     1
102
RTVSPropertyOp35
 70
     1
102
RTVSPropertyOp36
 70
     1
102
RTVSPropertyOp37
 70
     1
102
RTVSPropertyOp38
 70
     1
102
RTVSPropertyOp39
 70
     1
102
RTVSPropertyOp40
 70
     1
102
RTVSPropertyOp41
 70
     1
102
RTVSPropertyOp42
 70
     1
102
RTVSPropertyOp43
 70
     1
102
RTVSPropertyOp44
 70
     1
102
RTVSPropertyOp45
 70
     1
102
RTVSPropertyOp46
 70
     1
102
RTVSPropertyOp47
 70
     1
102
RTVSPropertyOp48
 70
     1
102
RTVSPropertyOp49
 70
     1
102
RTVSPropertyOp50
 70
     1
102
RTVSPropertyOp51
 70
     0
102
RTVSPropertyOp52
 70
     0
102
RTVSPropertyOp53
 70
     1
102
RTVSPropertyOp54
 70
     1
102
RTVSPropertyOp55
 70
     1
102
RTVSPropertyOp56
 70
     1
102
RTVSPropertyOp57
 70
     1
102
RTVSPost2010Prop28
280
     0
102
RTVSPost2010PropOp28
 70
     1
102
RTVSPost2010Prop29
280
     1
102
RTVSPost2010PropOp29
 70
     1
102
RTVSPost2010Prop30
280
     1
102
RTVSPost2010PropOp30
 70
     1
102
RTVSPost2010Prop31
280
     0
102
RTVSPost2010PropOp31
 70
     1
102
RTVSPost2010Prop32
280
     0
102
RTVSPost2010PropOp32
 70
     1
102
RTVSPost2010Prop33
280
     0
102
RTVSPost2010PropOp33
 70
     1
102
RTVSPost2010Prop34
280
     0
102
RTVSPost2010PropOp34
 70
     1
102
RTVSPost2010Prop35
280
     0
102
RTVSPost2010PropOp35
 70
     1
102
RTVSPost2010Prop36
280
     0
102
RTVSPost2010PropOp36
 70
     1
102
RTVSPost2010Prop37
 90
       50
102
RTVSPost2010PropOp37
 70
     1
102
RTVSPost2010Prop38
140
0.0
102
RTVSPost2010PropOp38
 70
     1
102
RTVSPost2010Prop39
140
1.0
102
RTVSPost2010PropOp39
 70
     1
102
RTVSPost2010Prop40
 90
        0
102
RTVSPost2010PropOp40
 70
     1
102
RTVSPost2010Prop41ColorIndex
 90
       18
102
RTVSPost2010Prop41ColorRGB
 90
        0
102
RTVSPost2010PropOp41
 70
     1
102
RTVSPost2010Prop42
 90
       50
102
RTVSPost2010PropOp42
 70
     1
102
RTVSPost2010Prop43
 90
        3
102
RTVSPost2010PropOp43
 70
     1
102
RTVSPost2010Prop44ColorIndex
 90
        5
102
RTVSPost2010Prop44ColorRGB
 90
      255
102
RTVSPost2010PropOp44
 70
     1
102
RTVSPost2010Prop45
280
     0
102
RTVSPost2010PropOp45
 70
     1
102
RTVSPost2010Prop46
 90
       50
102
RTVSPost2010PropOp46
 70
     1
102
RTVSPost2010Prop47
 90
       50
102
RTVSPost2010PropOp47
 70
     1
102
RTVSPost2010Prop48
 90
       50
102
RTVSPost2010PropOp48
 70
     1
102
RTVSPost2010Prop49
280
     0
102
RTVSPost2010PropOp49
 70
     1
102
RTVSPost2010Prop50
 90
       50
102
RTVSPost2010PropOp50
 70
     1
102
RTVSPost2010Prop51ColorIndex
 90
      256
102
RTVSPost2010Prop51ColorRGB
 90
-16777216
102
RTVSPost2010PropOp51
 70
     0
102
RTVSPost2010Prop52
140
1.0
102
RTVSPost2010PropOp52
 70
     0
102
RTVSPost2010Prop53
 90
        2
102
RTVSPost2010PropOp53
 70
     1
102
RTVSPost2010Prop54
  1
strokes_ogs.tif
102
RTVSPost2010PropOp54
 70
     1
102
RTVSPost2010Prop55
280
     0
102
RTVSPost2010PropOp55
 70
     1
102
RTVSPost2010Prop56
140
1.0
102
RTVSPost2010PropOp56
 70
     1
102
RTVSPost2010Prop57
140
1.0
102
RTVSPost2010PropOp57
 70
     1
  0
XRECORD
  5
411
102
{ACAD_REACTORS
330
410
102
}
330
410
100
AcDbXrecord
280
     1
102
RTVSPropertyOp0
 70
     1
102
RTVSPropertyOp1
 70
     1
102
RTVSPropertyOp2
 70
     1
102
RTVSPropertyOp3
 70
     1
102
RTVSPropertyOp4
 70
     1
102
RTVSPropertyOp5
 70
     1
102
RTVSPropertyOp6
 70
     1
102
RTVSPropertyOp7
 70
     1
102
RTVSPropertyOp8
 70
     1
102
RTVSPropertyOp9
 70
     1
102
RTVSPropertyOp10
 70
     1
102
RTVSPropertyOp11
 70
     1
102
RTVSPropertyOp12
 70
     1
102
RTVSPropertyOp13
 70
     1
102
RTVSPropertyOp14
 70
     1
102
RTVSPropertyOp15
 70
     1
102
RTVSPropertyOp16
 70
     1
102
RTVSPropertyOp17
 70
     1
102
RTVSPropertyOp18
 70
     1
102
RTVSPropertyOp19
 70
     1
102
RTVSPropertyOp20
 70
     1
102
RTVSPropertyOp21
 70
     1
102
RTVSPropertyOp22
 70
     1
102
RTVSPropertyOp23
 70
     1
102
RTVSPropertyOp24
 70
     1
102
RTVSPropertyOp25
 70
     1
102
RTVSPropertyOp26
 70
     1
102
RTVSPropertyOp27
 70
     1
102
RTVSPropertyOp28
 70
     1
102
RTVSPropertyOp29
 70
     1
102
RTVSPropertyOp30
 70
     1
102
RTVSPropertyOp31
 70
     1
102
RTVSPropertyOp32
 70
     1
102
RTVSPropertyOp33
 70
     1
102
RTVSPropertyOp34
 70
     1
102
RTVSPropertyOp35
 70
     1
102
RTVSPropertyOp36
 70
     1
102
RTVSPropertyOp37
 70
     1
102
RTVSPropertyOp38
 70
     1
102
RTVSPropertyOp39
 70
     1
102
RTVSPropertyOp40
 70
     1
102
RTVSPropertyOp41
 70
     1
102
RTVSPropertyOp42
 70
     1
102
RTVSPropertyOp43
 70
     1
102
RTVSPropertyOp44
 70
     1
102
RTVSPropertyOp45
 70
     1
102
RTVSPropertyOp46
 70
     1
102
RTVSPropertyOp47
 70
     1
102
RTVSPropertyOp48
 70
     1
102
RTVSPropertyOp49
 70
     1
102
RTVSPropertyOp50
 70
     1
102
RTVSPropertyOp51
 70
     0
102
RTVSPropertyOp52
 70
     0
102
RTVSPropertyOp53
 70
     1
102
RTVSPropertyOp54
 70
     1
102
RTVSPropertyOp55
 70
     1
102
RTVSPropertyOp56
 70
     1
102
RTVSPropertyOp57
 70
     1
102
RTVSPost2010Prop28
280
     0
102
RTVSPost2010PropOp28
 70
     1
102
RTVSPost2010Prop29
280
     1
102
RTVSPost2010PropOp29
 70
     1
102
RTVSPost2010Prop30
280
     1
102
RTVSPost2010PropOp30
 70
     1
102
RTVSPost2010Prop31
280
     0
102
RTVSPost2010PropOp31
 70
     1
102
RTVSPost2010Prop32
280
     0
102
RTVSPost2010PropOp32
 70
     1
102
RTVSPost2010Prop33
280
     0
102
RTVSPost2010PropOp33
 70
     1
102
RTVSPost2010Prop34
280
     0
102
RTVSPost2010PropOp34
 70
     1
102
RTVSPost2010Prop35
280
     0
102
RTVSPost2010PropOp35
 70
     1
102
RTVSPost2010Prop36
280
     0
102
RTVSPost2010PropOp36
 70
     1
102
RTVSPost2010Prop37
 90
       50
102
RTVSPost2010PropOp37
 70
     1
102
RTVSPost2010Prop38
140
0.0
102
RTVSPost2010PropOp38
 70
     1
102
RTVSPost2010Prop39
140
1.0
102
RTVSPost2010PropOp39
 70
     1
102
RTVSPost2010Prop40
 90
        0
102
RTVSPost2010PropOp40
 70
     1
102
RTVSPost2010Prop41ColorIndex
 90
       18
102
RTVSPost2010Prop41ColorRGB
 90
        0
102
RTVSPost2010PropOp41
 70
     1
102
RTVSPost2010Prop42
 90
       50
102
RTVSPost2010PropOp42
 70
     1
102
RTVSPost2010Prop43
 90
        3
102
RTVSPost2010PropOp43
 70
     1
102
RTVSPost2010Prop44ColorIndex
 90
        5
102
RTVSPost2010Prop44ColorRGB
 90
      255
102
RTVSPost2010PropOp44
 70
     1
102
RTVSPost2010Prop45
280
     0
102
RTVSPost2010PropOp45
 70
     1
102
RTVSPost2010Prop46
 90
       50
102
RTVSPost2010PropOp46
 70
     1
102
RTVSPost2010Prop47
 90
       50
102
RTVSPost2010PropOp47
 70
     1
102
RTVSPost2010Prop48
 90
       50
102
RTVSPost2010PropOp48
 70
     1
102
RTVSPost2010Prop49
280
     0
102
RTVSPost2010PropOp49
 70
     1
102
RTVSPost2010Prop50
 90
       50
102
RTVSPost2010PropOp50
 70
     1
102
RTVSPost2010Prop51ColorIndex
 90
      256
102
RTVSPost2010Prop51ColorRGB
 90
-16777216
102
RTVSPost2010PropOp51
 70
     0
102
RTVSPost2010Prop52
140
1.0
102
RTVSPost2010PropOp52
 70
     0
102
RTVSPost2010Prop53
 90
        2
102
RTVSPost2010PropOp53
 70
     1
102
RTVSPost2010Prop54
  1
strokes_ogs.tif
102
RTVSPost2010PropOp54
 70
     1
102
RTVSPost2010Prop55
280
     0
102
RTVSPost2010PropOp55
 70
     1
102
RTVSPost2010Prop56
140
1.0
102
RTVSPost2010PropOp56
 70
     1
102
RTVSPost2010Prop57
140
1.0
102
RTVSPost2010PropOp57
 70
     1
  0
XRECORD
  5
40B
102
{ACAD_REACTORS
330
40A
102
}
330
40A
100
AcDbXrecord
280
     1
102
RTVSPropertyOp0
 70
     1
102
RTVSPropertyOp1
 70
     1
102
RTVSPropertyOp2
 70
     1
102
RTVSPropertyOp3
 70
     1
102
RTVSPropertyOp4
 70
     1
102
RTVSPropertyOp5
 70
     1
102
RTVSPropertyOp6
 70
     1
102
RTVSPropertyOp7
 70
     1
102
RTVSPropertyOp8
 70
     1
102
RTVSPropertyOp9
 70
     1
102
RTVSPropertyOp10
 70
     1
102
RTVSPropertyOp11
 70
     1
102
RTVSPropertyOp12
 70
     1
102
RTVSPropertyOp13
 70
     1
102
RTVSPropertyOp14
 70
     1
102
RTVSPropertyOp15
 70
     1
102
RTVSPropertyOp16
 70
     1
102
RTVSPropertyOp17
 70
     1
102
RTVSPropertyOp18
 70
     1
102
RTVSPropertyOp19
 70
     1
102
RTVSPropertyOp20
 70
     1
102
RTVSPropertyOp21
 70
     1
102
RTVSPropertyOp22
 70
     1
102
RTVSPropertyOp23
 70
     1
102
RTVSPropertyOp24
 70
     1
102
RTVSPropertyOp25
 70
     1
102
RTVSPropertyOp26
 70
     1
102
RTVSPropertyOp27
 70
     1
102
RTVSPropertyOp28
 70
     1
102
RTVSPropertyOp29
 70
     1
102
RTVSPropertyOp30
 70
     1
102
RTVSPropertyOp31
 70
     1
102
RTVSPropertyOp32
 70
     1
102
RTVSPropertyOp33
 70
     1
102
RTVSPropertyOp34
 70
     1
102
RTVSPropertyOp35
 70
     1
102
RTVSPropertyOp36
 70
     1
102
RTVSPropertyOp37
 70
     1
102
RTVSPropertyOp38
 70
     1
102
RTVSPropertyOp39
 70
     1
102
RTVSPropertyOp40
 70
     1
102
RTVSPropertyOp41
 70
     1
102
RTVSPropertyOp42
 70
     1
102
RTVSPropertyOp43
 70
     1
102
RTVSPropertyOp44
 70
     1
102
RTVSPropertyOp45
 70
     1
102
RTVSPropertyOp46
 70
     1
102
RTVSPropertyOp47
 70
     1
102
RTVSPropertyOp48
 70
     1
102
RTVSPropertyOp49
 70
     1
102
RTVSPropertyOp50
 70
     1
102
RTVSPropertyOp51
 70
     0
102
RTVSPropertyOp52
 70
     0
102
RTVSPropertyOp53
 70
     1
102
RTVSPropertyOp54
 70
     1
102
RTVSPropertyOp55
 70
     1
102
RTVSPropertyOp56
 70
     1
102
RTVSPropertyOp57
 70
     1
102
RTVSPost2010Prop28
280
     0
102
RTVSPost2010PropOp28
 70
     1
102
RTVSPost2010Prop29
280
     1
102
RTVSPost2010PropOp29
 70
     1
102
RTVSPost2010Prop30
280
     1
102
RTVSPost2010PropOp30
 70
     1
102
RTVSPost2010Prop31
280
     0
102
RTVSPost2010PropOp31
 70
     1
102
RTVSPost2010Prop32
280
     0
102
RTVSPost2010PropOp32
 70
     1
102
RTVSPost2010Prop33
280
     0
102
RTVSPost2010PropOp33
 70
     1
102
RTVSPost2010Prop34
280
     0
102
RTVSPost2010PropOp34
 70
     1
102
RTVSPost2010Prop35
280
     0
102
RTVSPost2010PropOp35
 70
     1
102
RTVSPost2010Prop36
280
     0
102
RTVSPost2010PropOp36
 70
     1
102
RTVSPost2010Prop37
 90
       50
102
RTVSPost2010PropOp37
 70
     1
102
RTVSPost2010Prop38
140
0.0
102
RTVSPost2010PropOp38
 70
     1
102
RTVSPost2010Prop39
140
1.0
102
RTVSPost2010PropOp39
 70
     1
102
RTVSPost2010Prop40
 90
        0
102
RTVSPost2010PropOp40
 70
     1
102
RTVSPost2010Prop41ColorIndex
 90
       18
102
RTVSPost2010Prop41ColorRGB
 90
        0
102
RTVSPost2010PropOp41
 70
     1
102
RTVSPost2010Prop42
 90
       50
102
RTVSPost2010PropOp42
 70
     1
102
RTVSPost2010Prop43
 90
        3
102
RTVSPost2010PropOp43
 70
     1
102
RTVSPost2010Prop44ColorIndex
 90
        5
102
RTVSPost2010Prop44ColorRGB
 90
      255
102
RTVSPost2010PropOp44
 70
     1
102
RTVSPost2010Prop45
280
     0
102
RTVSPost2010PropOp45
 70
     1
102
RTVSPost2010Prop46
 90
       50
102
RTVSPost2010PropOp46
 70
     1
102
RTVSPost2010Prop47
 90
       50
102
RTVSPost2010PropOp47
 70
     1
102
RTVSPost2010Prop48
 90
       50
102
RTVSPost2010PropOp48
 70
     1
102
RTVSPost2010Prop49
280
     0
102
RTVSPost2010PropOp49
 70
     1
102
RTVSPost2010Prop50
 90
       50
102
RTVSPost2010PropOp50
 70
     1
102
RTVSPost2010Prop51ColorIndex
 90
      256
102
RTVSPost2010Prop51ColorRGB
 90
-16777216
102
RTVSPost2010PropOp51
 70
     0
102
RTVSPost2010Prop52
140
1.0
102
RTVSPost2010PropOp52
 70
     0
102
RTVSPost2010Prop53
 90
        2
102
RTVSPost2010PropOp53
 70
     1
102
RTVSPost2010Prop54
  1
strokes_ogs.tif
102
RTVSPost2010PropOp54
 70
     1
102
RTVSPost2010Prop55
280
     0
102
RTVSPost2010PropOp55
 70
     1
102
RTVSPost2010Prop56
140
1.0
102
RTVSPost2010PropOp56
 70
     1
102
RTVSPost2010Prop57
140
1.0
102
RTVSPost2010PropOp57
 70
     1
  0
XRECORD
  5
40D
102
{ACAD_REACTORS
330
40C
102
}
330
40C
100
AcDbXrecord
280
     1
102
RTVSPropertyOp0
 70
     1
102
RTVSPropertyOp1
 70
     1
102
RTVSPropertyOp2
 70
     1
102
RTVSPropertyOp3
 70
     1
102
RTVSPropertyOp4
 70
     1
102
RTVSPropertyOp5
 70
     1
102
RTVSPropertyOp6
 70
     1
102
RTVSPropertyOp7
 70
     1
102
RTVSPropertyOp8
 70
     1
102
RTVSPropertyOp9
 70
     1
102
RTVSPropertyOp10
 70
     1
102
RTVSPropertyOp11
 70
     1
102
RTVSPropertyOp12
 70
     1
102
RTVSPropertyOp13
 70
     1
102
RTVSPropertyOp14
 70
     1
102
RTVSPropertyOp15
 70
     1
102
RTVSPropertyOp16
 70
     1
102
RTVSPropertyOp17
 70
     1
102
RTVSPropertyOp18
 70
     1
102
RTVSPropertyOp19
 70
     1
102
RTVSPropertyOp20
 70
     1
102
RTVSPropertyOp21
 70
     1
102
RTVSPropertyOp22
 70
     1
102
RTVSPropertyOp23
 70
     1
102
RTVSPropertyOp24
 70
     1
102
RTVSPropertyOp25
 70
     1
102
RTVSPropertyOp26
 70
     1
102
RTVSPropertyOp27
 70
     1
102
RTVSPropertyOp28
 70
     1
102
RTVSPropertyOp29
 70
     1
102
RTVSPropertyOp30
 70
     1
102
RTVSPropertyOp31
 70
     1
102
RTVSPropertyOp32
 70
     1
102
RTVSPropertyOp33
 70
     1
102
RTVSPropertyOp34
 70
     1
102
RTVSPropertyOp35
 70
     1
102
RTVSPropertyOp36
 70
     1
102
RTVSPropertyOp37
 70
     1
102
RTVSPropertyOp38
 70
     1
102
RTVSPropertyOp39
 70
     1
102
RTVSPropertyOp40
 70
     1
102
RTVSPropertyOp41
 70
     1
102
RTVSPropertyOp42
 70
     1
102
RTVSPropertyOp43
 70
     1
102
RTVSPropertyOp44
 70
     1
102
RTVSPropertyOp45
 70
     1
102
RTVSPropertyOp46
 70
     1
102
RTVSPropertyOp47
 70
     1
102
RTVSPropertyOp48
 70
     1
102
RTVSPropertyOp49
 70
     1
102
RTVSPropertyOp50
 70
     1
102
RTVSPropertyOp51
 70
     0
102
RTVSPropertyOp52
 70
     0
102
RTVSPropertyOp53
 70
     1
102
RTVSPropertyOp54
 70
     1
102
RTVSPropertyOp55
 70
     1
102
RTVSPropertyOp56
 70
     1
102
RTVSPropertyOp57
 70
     1
102
RTVSPost2010Prop28
280
     0
102
RTVSPost2010PropOp28
 70
     1
102
RTVSPost2010Prop29
280
     1
102
RTVSPost2010PropOp29
 70
     1
102
RTVSPost2010Prop30
280
     1
102
RTVSPost2010PropOp30
 70
     1
102
RTVSPost2010Prop31
280
     0
102
RTVSPost2010PropOp31
 70
     1
102
RTVSPost2010Prop32
280
     0
102
RTVSPost2010PropOp32
 70
     1
102
RTVSPost2010Prop33
280
     0
102
RTVSPost2010PropOp33
 70
     1
102
RTVSPost2010Prop34
280
     0
102
RTVSPost2010PropOp34
 70
     1
102
RTVSPost2010Prop35
280
     0
102
RTVSPost2010PropOp35
 70
     1
102
RTVSPost2010Prop36
280
     0
102
RTVSPost2010PropOp36
 70
     1
102
RTVSPost2010Prop37
 90
       50
102
RTVSPost2010PropOp37
 70
     1
102
RTVSPost2010Prop38
140
0.0
102
RTVSPost2010PropOp38
 70
     1
102
RTVSPost2010Prop39
140
1.0
102
RTVSPost2010PropOp39
 70
     1
102
RTVSPost2010Prop40
 90
        0
102
RTVSPost2010PropOp40
 70
     1
102
RTVSPost2010Prop41ColorIndex
 90
       18
102
RTVSPost2010Prop41ColorRGB
 90
        0
102
RTVSPost2010PropOp41
 70
     1
102
RTVSPost2010Prop42
 90
       50
102
RTVSPost2010PropOp42
 70
     1
102
RTVSPost2010Prop43
 90
        3
102
RTVSPost2010PropOp43
 70
     1
102
RTVSPost2010Prop44ColorIndex
 90
        5
102
RTVSPost2010Prop44ColorRGB
 90
      255
102
RTVSPost2010PropOp44
 70
     1
102
RTVSPost2010Prop45
280
     0
102
RTVSPost2010PropOp45
 70
     1
102
RTVSPost2010Prop46
 90
       50
102
RTVSPost2010PropOp46
 70
     1
102
RTVSPost2010Prop47
 90
       50
102
RTVSPost2010PropOp47
 70
     1
102
RTVSPost2010Prop48
 90
       50
102
RTVSPost2010PropOp48
 70
     1
102
RTVSPost2010Prop49
280
     0
102
RTVSPost2010PropOp49
 70
     1
102
RTVSPost2010Prop50
 90
       50
102
RTVSPost2010PropOp50
 70
     1
102
RTVSPost2010Prop51ColorIndex
 90
      256
102
RTVSPost2010Prop51ColorRGB
 90
-16777216
102
RTVSPost2010PropOp51
 70
     0
102
RTVSPost2010Prop52
140
1.0
102
RTVSPost2010PropOp52
 70
     0
102
RTVSPost2010Prop53
 90
        2
102
RTVSPost2010PropOp53
 70
     1
102
RTVSPost2010Prop54
  1
strokes_ogs.tif
102
RTVSPost2010PropOp54
 70
     1
102
RTVSPost2010Prop55
280
     0
102
RTVSPost2010PropOp55
 70
     1
102
RTVSPost2010Prop56
140
1.0
102
RTVSPost2010PropOp56
 70
     1
102
RTVSPost2010Prop57
140
1.0
102
RTVSPost2010PropOp57
 70
     1
  0
XRECORD
  5
3FD
102
{ACAD_REACTORS
330
3FC
102
}
330
3FC
100
AcDbXrecord
280
     1
102
RTVSPropertyOp0
 70
     1
102
RTVSPropertyOp1
 70
     1
102
RTVSPropertyOp2
 70
     1
102
RTVSPropertyOp3
 70
     1
102
RTVSPropertyOp4
 70
     1
102
RTVSPropertyOp5
 70
     1
102
RTVSPropertyOp6
 70
     1
102
RTVSPropertyOp7
 70
     1
102
RTVSPropertyOp8
 70
     1
102
RTVSPropertyOp9
 70
     1
102
RTVSPropertyOp10
 70
     1
102
RTVSPropertyOp11
 70
     1
102
RTVSPropertyOp12
 70
     1
102
RTVSPropertyOp13
 70
     1
102
RTVSPropertyOp14
 70
     1
102
RTVSPropertyOp15
 70
     1
102
RTVSPropertyOp16
 70
     1
102
RTVSPropertyOp17
 70
     1
102
RTVSPropertyOp18
 70
     1
102
RTVSPropertyOp19
 70
     1
102
RTVSPropertyOp20
 70
     1
102
RTVSPropertyOp21
 70
     1
102
RTVSPropertyOp22
 70
     1
102
RTVSPropertyOp23
 70
     1
102
RTVSPropertyOp24
 70
     1
102
RTVSPropertyOp25
 70
     1
102
RTVSPropertyOp26
 70
     1
102
RTVSPropertyOp27
 70
     1
102
RTVSPropertyOp28
 70
     1
102
RTVSPropertyOp29
 70
     1
102
RTVSPropertyOp30
 70
     1
102
RTVSPropertyOp31
 70
     1
102
RTVSPropertyOp32
 70
     1
102
RTVSPropertyOp33
 70
     1
102
RTVSPropertyOp34
 70
     1
102
RTVSPropertyOp35
 70
     1
102
RTVSPropertyOp36
 70
     1
102
RTVSPropertyOp37
 70
     1
102
RTVSPropertyOp38
 70
     1
102
RTVSPropertyOp39
 70
     1
102
RTVSPropertyOp40
 70
     1
102
RTVSPropertyOp41
 70
     1
102
RTVSPropertyOp42
 70
     1
102
RTVSPropertyOp43
 70
     1
102
RTVSPropertyOp44
 70
     1
102
RTVSPropertyOp45
 70
     1
102
RTVSPropertyOp46
 70
     1
102
RTVSPropertyOp47
 70
     1
102
RTVSPropertyOp48
 70
     1
102
RTVSPropertyOp49
 70
     1
102
RTVSPropertyOp50
 70
     1
102
RTVSPropertyOp51
 70
     0
102
RTVSPropertyOp52
 70
     0
102
RTVSPropertyOp53
 70
     1
102
RTVSPropertyOp54
 70
     1
102
RTVSPropertyOp55
 70
     1
102
RTVSPropertyOp56
 70
     1
102
RTVSPropertyOp57
 70
     1
102
RTVSPost2010Prop28
280
     0
102
RTVSPost2010PropOp28
 70
     1
102
RTVSPost2010Prop29
280
     1
102
RTVSPost2010PropOp29
 70
     1
102
RTVSPost2010Prop30
280
     1
102
RTVSPost2010PropOp30
 70
     1
102
RTVSPost2010Prop31
280
     0
102
RTVSPost2010PropOp31
 70
     1
102
RTVSPost2010Prop32
280
     0
102
RTVSPost2010PropOp32
 70
     1
102
RTVSPost2010Prop33
280
     0
102
RTVSPost2010PropOp33
 70
     1
102
RTVSPost2010Prop34
280
     0
102
RTVSPost2010PropOp34
 70
     1
102
RTVSPost2010Prop35
280
     0
102
RTVSPost2010PropOp35
 70
     1
102
RTVSPost2010Prop36
280
     0
102
RTVSPost2010PropOp36
 70
     1
102
RTVSPost2010Prop37
 90
       50
102
RTVSPost2010PropOp37
 70
     1
102
RTVSPost2010Prop38
140
0.0
102
RTVSPost2010PropOp38
 70
     1
102
RTVSPost2010Prop39
140
1.0
102
RTVSPost2010PropOp39
 70
     1
102
RTVSPost2010Prop40
 90
        0
102
RTVSPost2010PropOp40
 70
     1
102
RTVSPost2010Prop41ColorIndex
 90
       18
102
RTVSPost2010Prop41ColorRGB
 90
        0
102
RTVSPost2010PropOp41
 70
     1
102
RTVSPost2010Prop42
 90
       50
102
RTVSPost2010PropOp42
 70
     1
102
RTVSPost2010Prop43
 90
        3
102
RTVSPost2010PropOp43
 70
     1
102
RTVSPost2010Prop44ColorIndex
 90
        5
102
RTVSPost2010Prop44ColorRGB
 90
      255
102
RTVSPost2010PropOp44
 70
     1
102
RTVSPost2010Prop45
280
     0
102
RTVSPost2010PropOp45
 70
     1
102
RTVSPost2010Prop46
 90
       50
102
RTVSPost2010PropOp46
 70
     1
102
RTVSPost2010Prop47
 90
       50
102
RTVSPost2010PropOp47
 70
     1
102
RTVSPost2010Prop48
 90
       50
102
RTVSPost2010PropOp48
 70
     1
102
RTVSPost2010Prop49
280
     0
102
RTVSPost2010PropOp49
 70
     1
102
RTVSPost2010Prop50
 90
       50
102
RTVSPost2010PropOp50
 70
     1
102
RTVSPost2010Prop51ColorIndex
 90
      256
102
RTVSPost2010Prop51ColorRGB
 90
-16777216
102
RTVSPost2010PropOp51
 70
     0
102
RTVSPost2010Prop52
140
1.0
102
RTVSPost2010PropOp52
 70
     0
102
RTVSPost2010Prop53
 90
        2
102
RTVSPost2010PropOp53
 70
     1
102
RTVSPost2010Prop54
  1
strokes_ogs.tif
102
RTVSPost2010PropOp54
 70
     1
102
RTVSPost2010Prop55
280
     0
102
RTVSPost2010PropOp55
 70
     1
102
RTVSPost2010Prop56
140
1.0
102
RTVSPost2010PropOp56
 70
     1
102
RTVSPost2010Prop57
140
1.0
102
RTVSPost2010PropOp57
 70
     1
  0
XRECORD
  5
3EF
102
{ACAD_REACTORS
330
3EE
102
}
330
3EE
100
AcDbXrecord
280
     1
102
RTVSPropertyOp0
 70
     1
102
RTVSPropertyOp1
 70
     1
102
RTVSPropertyOp2
 70
     1
102
RTVSPropertyOp3
 70
     1
102
RTVSPropertyOp4
 70
     1
102
RTVSPropertyOp5
 70
     1
102
RTVSPropertyOp6
 70
     1
102
RTVSPropertyOp7
 70
     1
102
RTVSPropertyOp8
 70
     1
102
RTVSPropertyOp9
 70
     1
102
RTVSPropertyOp10
 70
     1
102
RTVSPropertyOp11
 70
     1
102
RTVSPropertyOp12
 70
     1
102
RTVSPropertyOp13
 70
     1
102
RTVSPropertyOp14
 70
     1
102
RTVSPropertyOp15
 70
     1
102
RTVSPropertyOp16
 70
     1
102
RTVSPropertyOp17
 70
     1
102
RTVSPropertyOp18
 70
     1
102
RTVSPropertyOp19
 70
     1
102
RTVSPropertyOp20
 70
     1
102
RTVSPropertyOp21
 70
     1
102
RTVSPropertyOp22
 70
     1
102
RTVSPropertyOp23
 70
     1
102
RTVSPropertyOp24
 70
     1
102
RTVSPropertyOp25
 70
     1
102
RTVSPropertyOp26
 70
     1
102
RTVSPropertyOp27
 70
     1
102
RTVSPropertyOp28
 70
     1
102
RTVSPropertyOp29
 70
     1
102
RTVSPropertyOp30
 70
     1
102
RTVSPropertyOp31
 70
     1
102
RTVSPropertyOp32
 70
     1
102
RTVSPropertyOp33
 70
     1
102
RTVSPropertyOp34
 70
     1
102
RTVSPropertyOp35
 70
     1
102
RTVSPropertyOp36
 70
     1
102
RTVSPropertyOp37
 70
     1
102
RTVSPropertyOp38
 70
     1
102
RTVSPropertyOp39
 70
     1
102
RTVSPropertyOp40
 70
     1
102
RTVSPropertyOp41
 70
     1
102
RTVSPropertyOp42
 70
     1
102
RTVSPropertyOp43
 70
     1
102
RTVSPropertyOp44
 70
     1
102
RTVSPropertyOp45
 70
     1
102
RTVSPropertyOp46
 70
     1
102
RTVSPropertyOp47
 70
     1
102
RTVSPropertyOp48
 70
     1
102
RTVSPropertyOp49
 70
     1
102
RTVSPropertyOp50
 70
     1
102
RTVSPropertyOp51
 70
     0
102
RTVSPropertyOp52
 70
     0
102
RTVSPropertyOp53
 70
     1
102
RTVSPropertyOp54
 70
     1
102
RTVSPropertyOp55
 70
     1
102
RTVSPropertyOp56
 70
     1
102
RTVSPropertyOp57
 70
     1
102
RTVSPost2010Prop28
280
     0
102
RTVSPost2010PropOp28
 70
     1
102
RTVSPost2010Prop29
280
     1
102
RTVSPost2010PropOp29
 70
     1
102
RTVSPost2010Prop30
280
     1
102
RTVSPost2010PropOp30
 70
     1
102
RTVSPost2010Prop31
280
     0
102
RTVSPost2010PropOp31
 70
     1
102
RTVSPost2010Prop32
280
     0
102
RTVSPost2010PropOp32
 70
     1
102
RTVSPost2010Prop33
280
     0
102
RTVSPost2010PropOp33
 70
     1
102
RTVSPost2010Prop34
280
     0
102
RTVSPost2010PropOp34
 70
     1
102
RTVSPost2010Prop35
280
     0
102
RTVSPost2010PropOp35
 70
     1
102
RTVSPost2010Prop36
280
     0
102
RTVSPost2010PropOp36
 70
     1
102
RTVSPost2010Prop37
 90
       50
102
RTVSPost2010PropOp37
 70
     1
102
RTVSPost2010Prop38
140
0.0
102
RTVSPost2010PropOp38
 70
     1
102
RTVSPost2010Prop39
140
1.0
102
RTVSPost2010PropOp39
 70
     1
102
RTVSPost2010Prop40
 90
        0
102
RTVSPost2010PropOp40
 70
     1
102
RTVSPost2010Prop41ColorIndex
 90
       18
102
RTVSPost2010Prop41ColorRGB
 90
        0
102
RTVSPost2010PropOp41
 70
     1
102
RTVSPost2010Prop42
 90
       50
102
RTVSPost2010PropOp42
 70
     1
102
RTVSPost2010Prop43
 90
        3
102
RTVSPost2010PropOp43
 70
     1
102
RTVSPost2010Prop44ColorIndex
 90
        5
102
RTVSPost2010Prop44ColorRGB
 90
      255
102
RTVSPost2010PropOp44
 70
     1
102
RTVSPost2010Prop45
280
     0
102
RTVSPost2010PropOp45
 70
     1
102
RTVSPost2010Prop46
 90
       50
102
RTVSPost2010PropOp46
 70
     1
102
RTVSPost2010Prop47
 90
       50
102
RTVSPost2010PropOp47
 70
     1
102
RTVSPost2010Prop48
 90
       50
102
RTVSPost2010PropOp48
 70
     1
102
RTVSPost2010Prop49
280
     0
102
RTVSPost2010PropOp49
 70
     1
102
RTVSPost2010Prop50
 90
       50
102
RTVSPost2010PropOp50
 70
     1
102
RTVSPost2010Prop51ColorIndex
 90
      256
102
RTVSPost2010Prop51ColorRGB
 90
-16777216
102
RTVSPost2010PropOp51
 70
     0
102
RTVSPost2010Prop52
140
1.0
102
RTVSPost2010PropOp52
 70
     0
102
RTVSPost2010Prop53
 90
        2
102
RTVSPost2010PropOp53
 70
     1
102
RTVSPost2010Prop54
  1
strokes_ogs.tif
102
RTVSPost2010PropOp54
 70
     1
102
RTVSPost2010Prop55
280
     0
102
RTVSPost2010PropOp55
 70
     1
102
RTVSPost2010Prop56
140
1.0
102
RTVSPost2010PropOp56
 70
     1
102
RTVSPost2010Prop57
140
1.0
102
RTVSPost2010PropOp57
 70
     1
  0
XRECORD
  5
40F
102
{ACAD_REACTORS
330
40E
102
}
330
40E
100
AcDbXrecord
280
     1
102
RTVSPropertyOp0
 70
     1
102
RTVSPropertyOp1
 70
     1
102
RTVSPropertyOp2
 70
     1
102
RTVSPropertyOp3
 70
     1
102
RTVSPropertyOp4
 70
     1
102
RTVSPropertyOp5
 70
     1
102
RTVSPropertyOp6
 70
     1
102
RTVSPropertyOp7
 70
     1
102
RTVSPropertyOp8
 70
     1
102
RTVSPropertyOp9
 70
     1
102
RTVSPropertyOp10
 70
     1
102
RTVSPropertyOp11
 70
     1
102
RTVSPropertyOp12
 70
     1
102
RTVSPropertyOp13
 70
     1
102
RTVSPropertyOp14
 70
     1
102
RTVSPropertyOp15
 70
     1
102
RTVSPropertyOp16
 70
     1
102
RTVSPropertyOp17
 70
     1
102
RTVSPropertyOp18
 70
     1
102
RTVSPropertyOp19
 70
     1
102
RTVSPropertyOp20
 70
     1
102
RTVSPropertyOp21
 70
     1
102
RTVSPropertyOp22
 70
     1
102
RTVSPropertyOp23
 70
     1
102
RTVSPropertyOp24
 70
     1
102
RTVSPropertyOp25
 70
     1
102
RTVSPropertyOp26
 70
     1
102
RTVSPropertyOp27
 70
     1
102
RTVSPropertyOp28
 70
     1
102
RTVSPropertyOp29
 70
     1
102
RTVSPropertyOp30
 70
     1
102
RTVSPropertyOp31
 70
     1
102
RTVSPropertyOp32
 70
     1
102
RTVSPropertyOp33
 70
     1
102
RTVSPropertyOp34
 70
     1
102
RTVSPropertyOp35
 70
     1
102
RTVSPropertyOp36
 70
     1
102
RTVSPropertyOp37
 70
     1
102
RTVSPropertyOp38
 70
     1
102
RTVSPropertyOp39
 70
     1
102
RTVSPropertyOp40
 70
     1
102
RTVSPropertyOp41
 70
     1
102
RTVSPropertyOp42
 70
     1
102
RTVSPropertyOp43
 70
     1
102
RTVSPropertyOp44
 70
     1
102
RTVSPropertyOp45
 70
     1
102
RTVSPropertyOp46
 70
     1
102
RTVSPropertyOp47
 70
     1
102
RTVSPropertyOp48
 70
     1
102
RTVSPropertyOp49
 70
     1
102
RTVSPropertyOp50
 70
     1
102
RTVSPropertyOp51
 70
     0
102
RTVSPropertyOp52
 70
     0
102
RTVSPropertyOp53
 70
     1
102
RTVSPropertyOp54
 70
     1
102
RTVSPropertyOp55
 70
     1
102
RTVSPropertyOp56
 70
     1
102
RTVSPropertyOp57
 70
     1
102
RTVSPost2010Prop28
280
     0
102
RTVSPost2010PropOp28
 70
     1
102
RTVSPost2010Prop29
280
     1
102
RTVSPost2010PropOp29
 70
     1
102
RTVSPost2010Prop30
280
     1
102
RTVSPost2010PropOp30
 70
     1
102
RTVSPost2010Prop31
280
     0
102
RTVSPost2010PropOp31
 70
     1
102
RTVSPost2010Prop32
280
     0
102
RTVSPost2010PropOp32
 70
     1
102
RTVSPost2010Prop33
280
     0
102
RTVSPost2010PropOp33
 70
     1
102
RTVSPost2010Prop34
280
     0
102
RTVSPost2010PropOp34
 70
     1
102
RTVSPost2010Prop35
280
     0
102
RTVSPost2010PropOp35
 70
     1
102
RTVSPost2010Prop36
280
     0
102
RTVSPost2010PropOp36
 70
     1
102
RTVSPost2010Prop37
 90
       50
102
RTVSPost2010PropOp37
 70
     1
102
RTVSPost2010Prop38
140
0.0
102
RTVSPost2010PropOp38
 70
     1
102
RTVSPost2010Prop39
140
1.0
102
RTVSPost2010PropOp39
 70
     1
102
RTVSPost2010Prop40
 90
        0
102
RTVSPost2010PropOp40
 70
     1
102
RTVSPost2010Prop41ColorIndex
 90
       18
102
RTVSPost2010Prop41ColorRGB
 90
        0
102
RTVSPost2010PropOp41
 70
     1
102
RTVSPost2010Prop42
 90
       50
102
RTVSPost2010PropOp42
 70
     1
102
RTVSPost2010Prop43
 90
        3
102
RTVSPost2010PropOp43
 70
     1
102
RTVSPost2010Prop44ColorIndex
 90
        5
102
RTVSPost2010Prop44ColorRGB
 90
      255
102
RTVSPost2010PropOp44
 70
     1
102
RTVSPost2010Prop45
280
     0
102
RTVSPost2010PropOp45
 70
     1
102
RTVSPost2010Prop46
 90
       50
102
RTVSPost2010PropOp46
 70
     1
102
RTVSPost2010Prop47
 90
       50
102
RTVSPost2010PropOp47
 70
     1
102
RTVSPost2010Prop48
 90
       50
102
RTVSPost2010PropOp48
 70
     1
102
RTVSPost2010Prop49
280
     0
102
RTVSPost2010PropOp49
 70
     1
102
RTVSPost2010Prop50
 90
       50
102
RTVSPost2010PropOp50
 70
     1
102
RTVSPost2010Prop51ColorIndex
 90
      256
102
RTVSPost2010Prop51ColorRGB
 90
-16777216
102
RTVSPost2010PropOp51
 70
     0
102
RTVSPost2010Prop52
140
1.0
102
RTVSPost2010PropOp52
 70
     0
102
RTVSPost2010Prop53
 90
        2
102
RTVSPost2010PropOp53
 70
     1
102
RTVSPost2010Prop54
  1
strokes_ogs.tif
102
RTVSPost2010PropOp54
 70
     1
102
RTVSPost2010Prop55
280
     0
102
RTVSPost2010PropOp55
 70
     1
102
RTVSPost2010Prop56
140
1.0
102
RTVSPost2010PropOp56
 70
     1
102
RTVSPost2010Prop57
140
1.0
102
RTVSPost2010PropOp57
 70
     1
  0
ENDSEC
  0
EOF
