0
SECTION
2
HEADER
9
$INSUNITS
70
4
9
$ACADVER
1
AC1014
9
$HANDSEED
5
FFFF
0
ENDSEC
0
SECTION
2
TABLES
0
TABLE
2
VPORT
5
8
100
AcDbSymbolTable
0
ENDTAB
0
TABLE
2
LTYPE
5
5
100
AcDbSymbolTable
0
LTYPE
5
14
100
AcDbSymbolTableRecord
100
AcDbLinetypeTableRecord
2
BYBLOCK
70
0
0
LTYPE
5
15
100
AcDbSymbolTableRecord
100
AcDbLinetypeTableRecord
2
BYLAYER
70
0
0
ENDTAB
0
TABLE
2
LAYER
5
2
100
AcDbSymbolTable
70
2
0
LAYER
5
50
100
AcDbSymbolTableRecord
100
AcDbLayerTableRecord
2
0
70
0
6
CONTINUOUS
0
ENDTAB
0
TABLE
2
STYLE
5
3
100
AcDbSymbolTable
70
1
0
STYLE
5
11
100
AcDbSymbolTableRecord
100
AcDbTextStyleTableRecord
2
STANDARD
70
0
0
ENDTAB
0
TABLE
2
VIEW
5
6
100
AcDbSymbolTable
70
0
0
ENDTAB
0
TABLE
2
UCS
5
7
100
AcDbSymbolTable
70
0
0
ENDTAB
0
TABLE
2
APPID
5
9
100
AcDbSymbolTable
70
2
0
APPID
5
12
100
AcDbSymbolTableRecord
100
AcDbRegAppTableRecord
2
ACAD
70
0
0
ENDTAB
0
TABLE
2
DIMSTYLE
5
A
100
AcDbSymbolTable
70
1
0
ENDTAB
0
TABLE
2
BLOCK_RECORD
5
1
100
AcDbSymbolTable
70
1
0
BLOCK_RECORD
5
1F
100
AcDbSymbolTableRecord
100
AcDbBlockTableRecord
2
*MODEL_SPACE
0
BLOCK_RECORD
5
1B
100
AcDbSymbolTableRecord
100
AcDbBlockTableRecord
2
*PAPER_SPACE
0
ENDTAB
0
ENDSEC
0
SECTION
2
BLOCKS
0
BLOCK
5
20
100
AcDbEntity
100
AcDbBlockBegin
2
*MODEL_SPACE
0
ENDBLK
5
21
100
AcDbEntity
100
AcDbBlockEnd
0
BLOCK
5
1C
100
AcDbEntity
100
AcDbBlockBegin
2
*PAPER_SPACE
0
ENDBLK
5
1D
100
AcDbEntity
100
AcDbBlockEnd
0
ENDSEC
0
SECTION
2
ENTITIES
0
LWPOLYLINE
5
100
100
AcDbEntity
8
0
100
AcDbPolyline
90
4
70
1
43
0.0
10
-371.75842328656836
20
-842.22706877376038
10
-445.75842328656836
20
-842.22706877376038
10
-445.75842328656859
20
-152.22706877376041
10
-371.7584232865687
20
-152.22706877376041
0
LINE
5
101
100
AcDbEntity
8
0
100
AcDbLine
10
-137.7584232865689
20
-842.22706877376072
30
0
11
-217.7584232865689
21
-842.22706877376072
31
1.5990423754479893e-31
0
LINE
5
102
100
AcDbEntity
8
0
100
AcDbLine
10
-291.75842328656836
20
-842.22706877376049
30
0
11
-217.75842328656839
21
-842.22706877376049
31
0
0
LINE
5
103
100
AcDbEntity
8
0
100
AcDbLine
10
-291.75842328656881
20
-842.22706877376049
30
0
11
-371.75842328656881
21
-842.22706877376049
31
1.5990423754479893e-31
0
LINE
5
104
100
AcDbEntity
8
0
100
AcDbLine
10
-445.75842328656836
20
-842.22706877376038
30
0
11
-371.75842328656836
21
-842.22706877376038
31
0
0
LWPOLYLINE
5
105
100
AcDbEntity
8
0
100
AcDbPolyline
90
4
70
1
43
0.0
10
-549.7584232865687
20
-842.22706877376027
10
-445.75842328656876
20
-842.22706877376027
10
-445.75842328656859
20
-152.22706877376041
10
-549.75842328656859
20
-152.22706877376027
0
LINE
5
106
100
AcDbEntity
8
0
100
AcDbLine
10
-649.75842328656859
20
-842.22706877376027
30
0
11
-549.75842328656859
21
-842.22706877376027
31
0
0
LINE
5
107
100
AcDbEntity
8
0
100
AcDbLine
10
-649.75842328656859
20
-842.22706877376027
30
0
11
-649.75842328656859
21
-152.22706877376027
31
0
0
LINE
5
108
100
AcDbEntity
8
0
100
AcDbLine
10
-649.75842328656859
20
-152.22706877376027
30
0
11
-549.75842328656859
21
-152.22706877376027
31
0
0
LINE
5
109
100
AcDbEntity
8
0
100
AcDbLine
10
-445.75842328656859
20
-152.22706877376041
30
0
11
-371.7584232865687
21
-152.22706877376041
31
0
0
LINE
5
110
100
AcDbEntity
8
0
100
AcDbLine
10
-371.7584232865687
20
-152.22706877376055
30
0
11
-291.75842328656864
21
-152.22706877376055
31
-1.5990423754479543e-31
0
LINE
5
111
100
AcDbEntity
8
0
100
AcDbLine
10
-291.75842328656864
20
-152.22706877376055
30
0
11
-217.75842328656876
21
-152.22706877376055
31
0
0
LINE
5
112
100
AcDbEntity
8
0
100
AcDbLine
10
-217.75842328656876
20
-152.22706877376069
30
0
11
-137.7584232865687
21
-152.22706877376069
31
-1.5990423754479543e-31
0
LINE
5
113
100
AcDbEntity
8
0
100
AcDbLine
10
-137.7584232865689
20
-842.22706877376072
30
0
11
-137.7584232865687
21
-152.22706877376069
31
-1.5990423754479543e-31
0
LINE
5
114
100
AcDbEntity
8
0
100
AcDbLine
10
-217.75842328656839
20
-842.22706877376049
30
0
11
-217.75842328656876
21
-152.22706877376055
31
0
0
LINE
5
115
100
AcDbEntity
8
0
100
AcDbLine
10
-291.75842328656881
20
-842.22706877376049
30
0
11
-291.75842328656864
21
-152.22706877376055
31
-1.5990423754479543e-31
0
LINE
5
116
100
AcDbEntity
8
0
100
AcDbLine
10
-371.75842328656836
20
-842.22706877376038
30
0
11
-371.7584232865687
21
-152.22706877376041
31
0
0
ENDSEC
0
SECTION
2
OBJECTS
0
DICTIONARY
5
C
100
AcDbDictionary
3
ACAD_GROUP
350
D
3
ACAD_MLINESTYLE
350
17
0
DICTIONARY
5
D
100
AcDbDictionary
0
DICTIONARY
5
1A
330
C
100
AcDbDictionary
0
DICTIONARY
5
17
100
AcDbDictionary
0
ENDSEC
0
EOF
