0
SECTION
2
HEADER
9
$INSUNITS
70
4
9
$ACADVER
1
AC1014
9
$HANDSEED
5
FFFF
0
ENDSEC
0
SECTION
2
TABLES
0
TABLE
2
VPORT
5
8
100
AcDbSymbolTable
0
ENDTAB
0
TABLE
2
LTYPE
5
5
100
AcDbSymbolTable
0
LTYPE
5
14
100
AcDbSymbolTableRecord
100
AcDbLinetypeTableRecord
2
BYBLOCK
70
0
0
LTYPE
5
15
100
AcDbSymbolTableRecord
100
AcDbLinetypeTableRecord
2
BYLAYER
70
0
0
ENDTAB
0
TABLE
2
LAYER
5
2
100
AcDbSymbolTable
70
2
0
LAYER
5
50
100
AcDbSymbolTableRecord
100
AcDbLayerTableRecord
2
0
70
0
6
CONTINUOUS
0
ENDTAB
0
TABLE
2
STYLE
5
3
100
AcDbSymbolTable
70
1
0
STYLE
5
11
100
AcDbSymbolTableRecord
100
AcDbTextStyleTableRecord
2
STANDARD
70
0
0
ENDTAB
0
TABLE
2
VIEW
5
6
100
AcDbSymbolTable
70
0
0
ENDTAB
0
TABLE
2
UCS
5
7
100
AcDbSymbolTable
70
0
0
ENDTAB
0
TABLE
2
APPID
5
9
100
AcDbSymbolTable
70
2
0
APPID
5
12
100
AcDbSymbolTableRecord
100
AcDbRegAppTableRecord
2
ACAD
70
0
0
ENDTAB
0
TABLE
2
DIMSTYLE
5
A
100
AcDbSymbolTable
70
1
0
ENDTAB
0
TABLE
2
BLOCK_RECORD
5
1
100
AcDbSymbolTable
70
1
0
BLOCK_RECORD
5
1F
100
AcDbSymbolTableRecord
100
AcDbBlockTableRecord
2
*MODEL_SPACE
0
BLOCK_RECORD
5
1B
100
AcDbSymbolTableRecord
100
AcDbBlockTableRecord
2
*PAPER_SPACE
0
ENDTAB
0
ENDSEC
0
SECTION
2
BLOCKS
0
BLOCK
5
20
100
AcDbEntity
100
AcDbBlockBegin
2
*MODEL_SPACE
0
ENDBLK
5
21
100
AcDbEntity
100
AcDbBlockEnd
0
BLOCK
5
1C
100
AcDbEntity
100
AcDbBlockBegin
2
*PAPER_SPACE
0
ENDBLK
5
1D
100
AcDbEntity
100
AcDbBlockEnd
0
ENDSEC
0
SECTION
2
ENTITIES
0
LWPOLYLINE
5
100
100
AcDbEntity
8
0
100
AcDbPolyline
90
33
70
1
43
0.0
10
0
20
266
10
210
20
266
10
210
20
242.58615000000003
10
206
20
242.58615000000003
10
206
20
214.86205000000001
10
210
20
214.86205000000001
10
210
20
187.13795000000002
10
206
20
187.13795000000002
10
206
20
159.41385
10
210
20
159.41385
10
210
20
136
10
202.03434999999999
20
136
10
174.31025000000002
20
136
10
174.31025000000002
20
140
10
146.58615
20
140
10
146.58615
20
136
10
118.86205000000001
20
136
10
118.86205000000001
20
140
10
91.137950000000018
20
140
10
91.137950000000018
20
136
10
63.413849999999996
20
136
10
63.413849999999996
20
140
10
35.689750000000004
20
140
10
35.689750000000004
20
136
10
0
20
136
10
0
20
159.41385
10
4
20
159.41385
10
4
20
187.13795000000002
10
0
20
187.13795000000002
10
0
20
214.86205000000001
10
4
20
214.86205000000001
10
4
20
242.58615000000003
10
0
20
242.58615000000003
0
LWPOLYLINE
5
101
100
AcDbEntity
8
0
100
AcDbPolyline
90
28
70
1
43
0.0
10
217.00000000000003
20
242.58615000000003
10
217.00000000000003
20
266
10
339
20
266
10
339
20
242.58615000000003
10
343.00000000000006
20
242.58615000000003
10
343.00000000000006
20
214.86205000000001
10
339
20
214.86205000000001
10
339
20
187.13795000000002
10
343.00000000000006
20
187.13795000000002
10
343.00000000000006
20
159.41385
10
339
20
159.41385
10
339
20
136
10
319.58614999999998
20
136
10
319.58614999999998
20
140
10
291.86205000000001
20
140
10
291.86205000000001
20
136
10
264.13794999999999
20
136
10
264.13794999999999
20
140
10
236.41385
20
140
10
236.41385
20
136
10
217.00000000000003
20
136
10
217.00000000000003
20
159.41385
10
213
20
159.41385
10
213
20
187.13795000000002
10
217.00000000000003
20
187.13795000000002
10
217.00000000000003
20
214.86205000000001
10
213
20
214.86205000000001
10
213
20
242.58615000000003
0
LWPOLYLINE
5
102
100
AcDbEntity
8
0
100
AcDbPolyline
90
4
70
1
43
0.0
10
347.13931457490219
20
268.9014805694045
10
347.13931457490219
20
138.90148056940447
10
557.13931457490219
20
138.90148056940447
10
557.13931457490219
20
268.9014805694045
0
LWPOLYLINE
5
103
100
AcDbEntity
8
0
100
AcDbPolyline
90
46
70
1
43
0.0
10
552
20
129
10
552
20
109.58615000000002
10
556
20
109.58615000000002
10
556
20
81.862049999999996
10
552
20
81.862049999999996
10
552
20
54.137950000000004
10
556
20
54.137950000000004
10
556
20
26.41385
10
552
20
26.41385
10
552
20
7.0000000000000009
10
548.03435000000013
20
7.0000000000000009
10
520.31025
20
7.0000000000000009
10
520.31025
20
3.0000000000000004
10
492.58614999999998
20
3.0000000000000004
10
492.58614999999998
20
7.0000000000000009
10
464.86205000000007
20
7.0000000000000009
10
464.86205000000007
20
3.0000000000000004
10
437.13795000000005
20
3.0000000000000004
10
437.13795000000005
20
7.0000000000000009
10
409.41385000000002
20
7.0000000000000009
10
409.41385000000002
20
3.0000000000000004
10
381.68975
20
3.0000000000000004
10
381.68975
20
7.0000000000000009
10
350
20
7.0000000000000018
10
350
20
26.41385
10
346
20
26.41385
10
346
20
54.137950000000004
10
350
20
54.137950000000004
10
350
20
81.862049999999996
10
346
20
81.862049999999996
10
346
20
109.58615000000002
10
350
20
109.58615000000002
10
350
20
129
10
353.96565000000004
20
129
10
381.68975
20
129
10
381.68975
20
133
10
409.41385000000002
20
133
10
409.41385000000002
20
129
10
437.13795000000005
20
129
10
437.13795000000005
20
133
10
464.86205000000007
20
133
10
464.86205000000007
20
129
10
492.58614999999998
20
129
10
492.58614999999998
20
133
10
520.31025
20
133
10
520.31025
20
129
0
LWPOLYLINE
5
104
100
AcDbEntity
8
0
100
AcDbPolyline
90
28
70
1
43
0.0
10
343.00000000000006
20
54.137950000000004
10
343.00000000000006
20
26.41385
10
339
20
26.413849999999996
10
339
20
3.0000000000000004
10
319.58614999999998
20
3.0000000000000004
10
319.58614999999998
20
7.0000000000000009
10
291.86205000000001
20
7.0000000000000009
10
291.86205000000001
20
3.0000000000000004
10
264.13794999999999
20
3.0000000000000004
10
264.13794999999999
20
7.0000000000000009
10
236.41385
20
7.0000000000000009
10
236.41385
20
3.0000000000000004
10
217.00000000000003
20
3.0000000000000027
10
217.00000000000003
20
26.41385
10
213
20
26.41385
10
213
20
54.137950000000004
10
217.00000000000003
20
54.137950000000004
10
217.00000000000003
20
81.862049999999996
10
213
20
81.862049999999996
10
213
20
109.58615000000002
10
217.00000000000003
20
109.58615000000002
10
217.00000000000003
20
133
10
339
20
133
10
339
20
109.58615000000002
10
343.00000000000006
20
109.58615000000002
10
343.00000000000006
20
81.862049999999996
10
339
20
81.862049999999996
10
339
20
54.137950000000004
0
LWPOLYLINE
5
105
100
AcDbEntity
8
0
100
AcDbPolyline
90
33
70
1
43
0.0
10
202.03434999999999
20
3.0000000000000004
10
174.31025000000002
20
3.0000000000000004
10
174.31025000000002
20
7.0000000000000009
10
146.58615
20
7.0000000000000009
10
146.58615
20
3.0000000000000004
10
118.86205000000001
20
3.0000000000000004
10
118.86205000000001
20
7.0000000000000009
10
91.137950000000018
20
7.0000000000000009
10
91.137950000000018
20
3.0000000000000004
10
63.413849999999996
20
3.0000000000000004
10
63.413849999999996
20
7.0000000000000009
10
35.689750000000004
20
7.0000000000000009
10
35.689750000000004
20
3.0000000000000004
10
0
20
3.0000000000000027
10
0
20
26.41385
10
4
20
26.41385
10
4
20
54.137950000000004
10
0
20
54.137950000000004
10
0
20
81.862049999999996
10
4
20
81.862049999999996
10
4
20
109.58615000000002
10
0
20
109.58615000000002
10
0
20
133
10
210
20
133
10
210
20
109.58615000000002
10
206
20
109.58615000000002
10
206
20
81.862049999999996
10
210
20
81.862049999999996
10
210
20
54.137950000000004
10
206
20
54.137950000000004
10
206
20
26.41385
10
210
20
26.413849999999996
10
210
20
3.0000000000000004
0
LINE
5
106
100
AcDbEntity
8
0
100
AcDbLine
10
0
20
266
30
0
11
210
21
266
31
0
0
LINE
5
107
100
AcDbEntity
8
0
100
AcDbLine
10
210
20
266
30
0
11
210
21
242.58615000000003
31
0
0
LINE
5
108
100
AcDbEntity
8
0
100
AcDbLine
10
210
20
242.58615000000003
30
0
11
206
21
242.58615000000003
31
0
0
LINE
5
109
100
AcDbEntity
8
0
100
AcDbLine
10
206
20
242.58615000000003
30
0
11
206
21
214.86205000000001
31
0
0
LINE
5
110
100
AcDbEntity
8
0
100
AcDbLine
10
206
20
214.86205000000001
30
0
11
210
21
214.86205000000001
31
0
0
LINE
5
111
100
AcDbEntity
8
0
100
AcDbLine
10
210
20
214.86205000000001
30
0
11
210
21
187.13795000000002
31
0
0
LINE
5
112
100
AcDbEntity
8
0
100
AcDbLine
10
210
20
187.13795000000002
30
0
11
206
21
187.13795000000002
31
0
0
LINE
5
113
100
AcDbEntity
8
0
100
AcDbLine
10
206
20
187.13795000000002
30
0
11
206
21
159.41385
31
0
0
LINE
5
114
100
AcDbEntity
8
0
100
AcDbLine
10
206
20
159.41385
30
0
11
210
21
159.41385
31
0
0
LINE
5
115
100
AcDbEntity
8
0
100
AcDbLine
10
210
20
136
30
0
11
210
21
159.41385
31
0
0
LINE
5
116
100
AcDbEntity
8
0
100
AcDbLine
10
210
20
136
30
0
11
174.31025000000002
21
136
31
0
0
LINE
5
117
100
AcDbEntity
8
0
100
AcDbLine
10
174.31025000000002
20
136
30
0
11
174.31025000000002
21
140
31
0
0
LINE
5
118
100
AcDbEntity
8
0
100
AcDbLine
10
174.31025000000002
20
140
30
0
11
146.58615
21
140
31
0
0
LINE
5
119
100
AcDbEntity
8
0
100
AcDbLine
10
146.58615
20
140
30
0
11
146.58615
21
136
31
0
0
LINE
5
120
100
AcDbEntity
8
0
100
AcDbLine
10
146.58615
20
136
30
0
11
118.86205000000001
21
136
31
0
0
LINE
5
121
100
AcDbEntity
8
0
100
AcDbLine
10
118.86205000000001
20
136
30
0
11
118.86205000000001
21
140
31
0
0
LINE
5
122
100
AcDbEntity
8
0
100
AcDbLine
10
118.86205000000001
20
140
30
0
11
91.137950000000018
21
140
31
0
0
LINE
5
123
100
AcDbEntity
8
0
100
AcDbLine
10
91.137950000000018
20
140
30
0
11
91.137950000000018
21
136
31
0
0
LINE
5
124
100
AcDbEntity
8
0
100
AcDbLine
10
91.137950000000018
20
136
30
0
11
63.413849999999996
21
136
31
0
0
LINE
5
125
100
AcDbEntity
8
0
100
AcDbLine
10
63.413849999999996
20
136
30
0
11
63.413849999999996
21
140
31
0
0
LINE
5
126
100
AcDbEntity
8
0
100
AcDbLine
10
63.413849999999996
20
140
30
0
11
35.689750000000004
21
140
31
0
0
LINE
5
127
100
AcDbEntity
8
0
100
AcDbLine
10
35.689750000000004
20
140
30
0
11
35.689750000000004
21
136
31
0
0
LINE
5
128
100
AcDbEntity
8
0
100
AcDbLine
10
35.689750000000004
20
136
30
0
11
0
21
136
31
0
0
LINE
5
129
100
AcDbEntity
8
0
100
AcDbLine
10
0
20
136
30
0
11
0
21
159.41385
31
0
0
LINE
5
130
100
AcDbEntity
8
0
100
AcDbLine
10
0
20
159.41385
30
0
11
4
21
159.41385
31
0
0
LINE
5
131
100
AcDbEntity
8
0
100
AcDbLine
10
4
20
159.41385
30
0
11
4
21
187.13795000000002
31
0
0
LINE
5
132
100
AcDbEntity
8
0
100
AcDbLine
10
4
20
187.13795000000002
30
0
11
0
21
187.13795000000002
31
0
0
LINE
5
133
100
AcDbEntity
8
0
100
AcDbLine
10
0
20
187.13795000000002
30
0
11
0
21
214.86205000000001
31
0
0
LINE
5
134
100
AcDbEntity
8
0
100
AcDbLine
10
0
20
214.86205000000001
30
0
11
4
21
214.86205000000001
31
0
0
LINE
5
135
100
AcDbEntity
8
0
100
AcDbLine
10
4
20
214.86205000000001
30
0
11
4
21
242.58615000000003
31
0
0
LINE
5
136
100
AcDbEntity
8
0
100
AcDbLine
10
4
20
242.58615000000003
30
0
11
0
21
242.58615000000003
31
0
0
LINE
5
137
100
AcDbEntity
8
0
100
AcDbLine
10
0
20
242.58615000000003
30
0
11
0
21
266
31
0
0
LINE
5
138
100
AcDbEntity
8
0
100
AcDbLine
10
217.00000000000003
20
266
30
0
11
339
21
266
31
0
0
LINE
5
139
100
AcDbEntity
8
0
100
AcDbLine
10
339
20
266
30
0
11
339
21
242.58615000000003
31
0
0
LINE
5
140
100
AcDbEntity
8
0
100
AcDbLine
10
339
20
242.58615000000003
30
0
11
343.00000000000006
21
242.58615000000003
31
0
0
LINE
5
141
100
AcDbEntity
8
0
100
AcDbLine
10
343.00000000000006
20
242.58615000000003
30
0
11
343.00000000000006
21
214.86205000000001
31
0
0
LINE
5
142
100
AcDbEntity
8
0
100
AcDbLine
10
343.00000000000006
20
214.86205000000001
30
0
11
339
21
214.86205000000001
31
0
0
LINE
5
143
100
AcDbEntity
8
0
100
AcDbLine
10
339
20
214.86205000000001
30
0
11
339
21
187.13795000000002
31
0
0
LINE
5
144
100
AcDbEntity
8
0
100
AcDbLine
10
339
20
187.13795000000002
30
0
11
343.00000000000006
21
187.13795000000002
31
0
0
LINE
5
145
100
AcDbEntity
8
0
100
AcDbLine
10
343.00000000000006
20
187.13795000000002
30
0
11
343.00000000000006
21
159.41385
31
0
0
LINE
5
146
100
AcDbEntity
8
0
100
AcDbLine
10
343.00000000000006
20
159.41385
30
0
11
339
21
159.41385
31
0
0
LINE
5
147
100
AcDbEntity
8
0
100
AcDbLine
10
339
20
159.41385
30
0
11
339
21
136
31
0
0
LINE
5
148
100
AcDbEntity
8
0
100
AcDbLine
10
339
20
136
30
0
11
319.58614999999998
21
136
31
0
0
LINE
5
149
100
AcDbEntity
8
0
100
AcDbLine
10
319.58614999999998
20
136
30
0
11
319.58614999999998
21
140
31
0
0
LINE
5
150
100
AcDbEntity
8
0
100
AcDbLine
10
319.58614999999998
20
140
30
0
11
291.86205000000001
21
140
31
0
0
LINE
5
151
100
AcDbEntity
8
0
100
AcDbLine
10
291.86205000000001
20
140
30
0
11
291.86205000000001
21
136
31
0
0
LINE
5
152
100
AcDbEntity
8
0
100
AcDbLine
10
291.86205000000001
20
136
30
0
11
264.13794999999999
21
136
31
0
0
LINE
5
153
100
AcDbEntity
8
0
100
AcDbLine
10
264.13794999999999
20
136
30
0
11
264.13794999999999
21
140
31
0
0
LINE
5
154
100
AcDbEntity
8
0
100
AcDbLine
10
264.13794999999999
20
140
30
0
11
236.41385
21
140
31
0
0
LINE
5
155
100
AcDbEntity
8
0
100
AcDbLine
10
236.41385
20
140
30
0
11
236.41385
21
136
31
0
0
LINE
5
156
100
AcDbEntity
8
0
100
AcDbLine
10
236.41385
20
136
30
0
11
217.00000000000003
21
136
31
0
0
LINE
5
157
100
AcDbEntity
8
0
100
AcDbLine
10
217.00000000000003
20
136
30
0
11
217.00000000000003
21
159.41385
31
0
0
LINE
5
158
100
AcDbEntity
8
0
100
AcDbLine
10
217.00000000000003
20
159.41385
30
0
11
213
21
159.41385
31
0
0
LINE
5
159
100
AcDbEntity
8
0
100
AcDbLine
10
213
20
159.41385
30
0
11
213
21
187.13795000000002
31
0
0
LINE
5
160
100
AcDbEntity
8
0
100
AcDbLine
10
213
20
187.13795000000002
30
0
11
217.00000000000003
21
187.13795000000002
31
0
0
LINE
5
161
100
AcDbEntity
8
0
100
AcDbLine
10
217.00000000000003
20
187.13795000000002
30
0
11
217.00000000000003
21
214.86205000000001
31
0
0
LINE
5
162
100
AcDbEntity
8
0
100
AcDbLine
10
217.00000000000003
20
214.86205000000001
30
0
11
213
21
214.86205000000001
31
0
0
LINE
5
163
100
AcDbEntity
8
0
100
AcDbLine
10
213
20
214.86205000000001
30
0
11
213
21
242.58615000000003
31
0
0
LINE
5
164
100
AcDbEntity
8
0
100
AcDbLine
10
213
20
242.58615000000003
30
0
11
217.00000000000003
21
242.58615000000003
31
0
0
LINE
5
165
100
AcDbEntity
8
0
100
AcDbLine
10
217.00000000000003
20
242.58615000000003
30
0
11
217.00000000000003
21
266
31
0
0
LINE
5
166
100
AcDbEntity
8
0
100
AcDbLine
10
347.13931457490219
20
268.9014805694045
30
0
11
557.13931457490219
21
268.9014805694045
31
0
0
LINE
5
167
100
AcDbEntity
8
0
100
AcDbLine
10
557.13931457490219
20
268.9014805694045
30
0
11
557.13931457490219
21
138.90148056940447
31
0
0
LINE
5
168
100
AcDbEntity
8
0
100
AcDbLine
10
557.13931457490219
20
138.90148056940447
30
0
11
347.13931457490219
21
138.90148056940447
31
0
0
LINE
5
169
100
AcDbEntity
8
0
100
AcDbLine
10
347.13931457490219
20
138.90148056940447
30
0
11
347.13931457490219
21
268.9014805694045
31
0
0
LINE
5
170
100
AcDbEntity
8
0
100
AcDbLine
10
350
20
129
30
0
11
381.68975
21
129
31
0
0
LINE
5
171
100
AcDbEntity
8
0
100
AcDbLine
10
381.68975
20
129
30
0
11
381.68975
21
133
31
0
0
LINE
5
172
100
AcDbEntity
8
0
100
AcDbLine
10
381.68975
20
133
30
0
11
409.41385000000002
21
133
31
0
0
LINE
5
173
100
AcDbEntity
8
0
100
AcDbLine
10
409.41385000000002
20
133
30
0
11
409.41385000000002
21
129
31
0
0
LINE
5
174
100
AcDbEntity
8
0
100
AcDbLine
10
409.41385000000002
20
129
30
0
11
437.13795000000005
21
129
31
0
0
LINE
5
175
100
AcDbEntity
8
0
100
AcDbLine
10
437.13795000000005
20
129
30
0
11
437.13795000000005
21
133
31
0
0
LINE
5
176
100
AcDbEntity
8
0
100
AcDbLine
10
437.13795000000005
20
133
30
0
11
464.86205000000007
21
133
31
0
0
LINE
5
177
100
AcDbEntity
8
0
100
AcDbLine
10
464.86205000000007
20
133
30
0
11
464.86205000000007
21
129
31
0
0
LINE
5
178
100
AcDbEntity
8
0
100
AcDbLine
10
464.86205000000007
20
129
30
0
11
492.58614999999998
21
129
31
0
0
LINE
5
179
100
AcDbEntity
8
0
100
AcDbLine
10
492.58614999999998
20
129
30
0
11
492.58614999999998
21
133
31
0
0
LINE
5
180
100
AcDbEntity
8
0
100
AcDbLine
10
492.58614999999998
20
133
30
0
11
520.31025
21
133
31
0
0
LINE
5
181
100
AcDbEntity
8
0
100
AcDbLine
10
520.31025
20
133
30
0
11
520.31025
21
129
31
0
0
LINE
5
182
100
AcDbEntity
8
0
100
AcDbLine
10
520.31025
20
129
30
0
11
552
21
129
31
0
0
LINE
5
183
100
AcDbEntity
8
0
100
AcDbLine
10
552
20
129
30
0
11
552
21
109.58615000000002
31
0
0
LINE
5
184
100
AcDbEntity
8
0
100
AcDbLine
10
552
20
109.58615000000002
30
0
11
556
21
109.58615000000002
31
0
0
LINE
5
185
100
AcDbEntity
8
0
100
AcDbLine
10
556
20
109.58615000000002
30
0
11
556
21
81.862049999999996
31
0
0
LINE
5
186
100
AcDbEntity
8
0
100
AcDbLine
10
556
20
81.862049999999996
30
0
11
552
21
81.862049999999996
31
0
0
LINE
5
187
100
AcDbEntity
8
0
100
AcDbLine
10
552
20
81.862049999999996
30
0
11
552
21
54.137950000000004
31
0
0
LINE
5
188
100
AcDbEntity
8
0
100
AcDbLine
10
552
20
54.137950000000004
30
0
11
556
21
54.137950000000004
31
0
0
LINE
5
189
100
AcDbEntity
8
0
100
AcDbLine
10
556
20
54.137950000000004
30
0
11
556
21
26.41385
31
0
0
LINE
5
190
100
AcDbEntity
8
0
100
AcDbLine
10
556
20
26.41385
30
0
11
552
21
26.41385
31
0
0
LINE
5
191
100
AcDbEntity
8
0
100
AcDbLine
10
552
20
26.41385
30
0
11
552
21
7.0000000000000009
31
0
0
LINE
5
192
100
AcDbEntity
8
0
100
AcDbLine
10
552
20
7.0000000000000009
30
0
11
520.31025
21
7.0000000000000009
31
0
0
LINE
5
193
100
AcDbEntity
8
0
100
AcDbLine
10
520.31025
20
7.0000000000000009
30
0
11
520.31025
21
3.0000000000000004
31
0
0
LINE
5
194
100
AcDbEntity
8
0
100
AcDbLine
10
520.31025
20
3.0000000000000004
30
0
11
492.58614999999998
21
3.0000000000000004
31
0
0
LINE
5
195
100
AcDbEntity
8
0
100
AcDbLine
10
492.58614999999998
20
3.0000000000000004
30
0
11
492.58614999999998
21
7.0000000000000009
31
0
0
LINE
5
196
100
AcDbEntity
8
0
100
AcDbLine
10
492.58614999999998
20
7.0000000000000009
30
0
11
464.86205000000007
21
7.0000000000000009
31
0
0
LINE
5
197
100
AcDbEntity
8
0
100
AcDbLine
10
464.86205000000007
20
7.0000000000000009
30
0
11
464.86205000000007
21
3.0000000000000004
31
0
0
LINE
5
198
100
AcDbEntity
8
0
100
AcDbLine
10
464.86205000000007
20
3.0000000000000004
30
0
11
437.13795000000005
21
3.0000000000000004
31
0
0
LINE
5
199
100
AcDbEntity
8
0
100
AcDbLine
10
437.13795000000005
20
3.0000000000000004
30
0
11
437.13795000000005
21
7.0000000000000009
31
0
0
LINE
5
200
100
AcDbEntity
8
0
100
AcDbLine
10
437.13795000000005
20
7.0000000000000009
30
0
11
409.41385000000002
21
7.0000000000000009
31
0
0
LINE
5
201
100
AcDbEntity
8
0
100
AcDbLine
10
409.41385000000002
20
7.0000000000000009
30
0
11
409.41385000000002
21
3.0000000000000004
31
0
0
LINE
5
202
100
AcDbEntity
8
0
100
AcDbLine
10
409.41385000000002
20
3.0000000000000004
30
0
11
381.68975
21
3.0000000000000004
31
0
0
LINE
5
203
100
AcDbEntity
8
0
100
AcDbLine
10
381.68975
20
3.0000000000000004
30
0
11
381.68975
21
7.0000000000000009
31
0
0
LINE
5
204
100
AcDbEntity
8
0
100
AcDbLine
10
381.68975
20
7.0000000000000009
30
0
11
350
21
7.0000000000000009
31
0
0
LINE
5
205
100
AcDbEntity
8
0
100
AcDbLine
10
350
20
7.0000000000000009
30
0
11
350
21
26.41385
31
0
0
LINE
5
206
100
AcDbEntity
8
0
100
AcDbLine
10
350
20
26.41385
30
0
11
346
21
26.41385
31
0
0
LINE
5
207
100
AcDbEntity
8
0
100
AcDbLine
10
346
20
26.41385
30
0
11
346
21
54.137950000000004
31
0
0
LINE
5
208
100
AcDbEntity
8
0
100
AcDbLine
10
346
20
54.137950000000004
30
0
11
350
21
54.137950000000004
31
0
0
LINE
5
209
100
AcDbEntity
8
0
100
AcDbLine
10
350
20
54.137950000000004
30
0
11
350
21
81.862049999999996
31
0
0
LINE
5
210
100
AcDbEntity
8
0
100
AcDbLine
10
350
20
81.862049999999996
30
0
11
346
21
81.862049999999996
31
0
0
LINE
5
211
100
AcDbEntity
8
0
100
AcDbLine
10
346
20
81.862049999999996
30
0
11
346
21
109.58615000000002
31
0
0
LINE
5
212
100
AcDbEntity
8
0
100
AcDbLine
10
346
20
109.58615000000002
30
0
11
350
21
109.58615000000002
31
0
0
LINE
5
213
100
AcDbEntity
8
0
100
AcDbLine
10
350
20
109.58615000000002
30
0
11
350
21
129
31
0
0
LINE
5
214
100
AcDbEntity
8
0
100
AcDbLine
10
217.00000000000003
20
133
30
0
11
339
21
133
31
0
0
LINE
5
215
100
AcDbEntity
8
0
100
AcDbLine
10
339
20
133
30
0
11
339
21
109.58615000000002
31
0
0
LINE
5
216
100
AcDbEntity
8
0
100
AcDbLine
10
339
20
109.58615000000002
30
0
11
343.00000000000006
21
109.58615000000002
31
0
0
LINE
5
217
100
AcDbEntity
8
0
100
AcDbLine
10
343.00000000000006
20
109.58615000000002
30
0
11
343.00000000000006
21
81.862049999999996
31
0
0
LINE
5
218
100
AcDbEntity
8
0
100
AcDbLine
10
343.00000000000006
20
81.862049999999996
30
0
11
339
21
81.862049999999996
31
0
0
LINE
5
219
100
AcDbEntity
8
0
100
AcDbLine
10
339
20
81.862049999999996
30
0
11
339
21
54.137950000000004
31
0
0
LINE
5
220
100
AcDbEntity
8
0
100
AcDbLine
10
339
20
54.137950000000004
30
0
11
343.00000000000006
21
54.137950000000004
31
0
0
LINE
5
221
100
AcDbEntity
8
0
100
AcDbLine
10
343.00000000000006
20
54.137950000000004
30
0
11
343.00000000000006
21
26.41385
31
0
0
LINE
5
222
100
AcDbEntity
8
0
100
AcDbLine
10
343.00000000000006
20
26.41385
30
0
11
339
21
26.413849999999996
31
0
0
LINE
5
223
100
AcDbEntity
8
0
100
AcDbLine
10
339
20
26.413849999999996
30
0
11
339
21
3.0000000000000004
31
0
0
LINE
5
224
100
AcDbEntity
8
0
100
AcDbLine
10
339
20
3.0000000000000004
30
0
11
319.58614999999998
21
3.0000000000000004
31
0
0
LINE
5
225
100
AcDbEntity
8
0
100
AcDbLine
10
319.58614999999998
20
3.0000000000000004
30
0
11
319.58614999999998
21
7.0000000000000009
31
0
0
LINE
5
226
100
AcDbEntity
8
0
100
AcDbLine
10
319.58614999999998
20
7.0000000000000009
30
0
11
291.86205000000001
21
7.0000000000000009
31
0
0
LINE
5
227
100
AcDbEntity
8
0
100
AcDbLine
10
291.86205000000001
20
7.0000000000000009
30
0
11
291.86205000000001
21
3.0000000000000004
31
0
0
LINE
5
228
100
AcDbEntity
8
0
100
AcDbLine
10
291.86205000000001
20
3.0000000000000004
30
0
11
264.13794999999999
21
3.0000000000000004
31
0
0
LINE
5
229
100
AcDbEntity
8
0
100
AcDbLine
10
264.13794999999999
20
3.0000000000000004
30
0
11
264.13794999999999
21
7.0000000000000009
31
0
0
LINE
5
230
100
AcDbEntity
8
0
100
AcDbLine
10
264.13794999999999
20
7.0000000000000009
30
0
11
236.41385
21
7.0000000000000009
31
0
0
LINE
5
231
100
AcDbEntity
8
0
100
AcDbLine
10
236.41385
20
3.0000000000000004
30
0
11
217.00000000000003
21
3.0000000000000027
31
0
0
LINE
5
232
100
AcDbEntity
8
0
100
AcDbLine
10
217.00000000000003
20
3.0000000000000027
30
0
11
217.00000000000003
21
26.41385
31
0
0
LINE
5
233
100
AcDbEntity
8
0
100
AcDbLine
10
236.41385
20
3.0000000000000004
30
0
11
236.41385
21
7.0000000000000009
31
0
0
LINE
5
234
100
AcDbEntity
8
0
100
AcDbLine
10
217.00000000000003
20
26.41385
30
0
11
213
21
26.41385
31
0
0
LINE
5
235
100
AcDbEntity
8
0
100
AcDbLine
10
213
20
26.41385
30
0
11
213
21
54.137950000000004
31
0
0
LINE
5
236
100
AcDbEntity
8
0
100
AcDbLine
10
213
20
54.137950000000004
30
0
11
217.00000000000003
21
54.137950000000004
31
0
0
LINE
5
237
100
AcDbEntity
8
0
100
AcDbLine
10
217.00000000000003
20
54.137950000000004
30
0
11
217.00000000000003
21
81.862049999999996
31
0
0
LINE
5
238
100
AcDbEntity
8
0
100
AcDbLine
10
217.00000000000003
20
81.862049999999996
30
0
11
213
21
81.862049999999996
31
0
0
LINE
5
239
100
AcDbEntity
8
0
100
AcDbLine
10
213
20
81.862049999999996
30
0
11
213
21
109.58615000000002
31
0
0
LINE
5
240
100
AcDbEntity
8
0
100
AcDbLine
10
213
20
109.58615000000002
30
0
11
217.00000000000003
21
109.58615000000002
31
0
0
LINE
5
241
100
AcDbEntity
8
0
100
AcDbLine
10
217.00000000000003
20
109.58615000000002
30
0
11
217.00000000000003
21
133
31
0
0
LINE
5
242
100
AcDbEntity
8
0
100
AcDbLine
10
0
20
133
30
0
11
210
21
133
31
0
0
LINE
5
243
100
AcDbEntity
8
0
100
AcDbLine
10
210
20
133
30
0
11
210
21
109.58615000000002
31
0
0
LINE
5
244
100
AcDbEntity
8
0
100
AcDbLine
10
210
20
109.58615000000002
30
0
11
206
21
109.58615000000002
31
0
0
LINE
5
245
100
AcDbEntity
8
0
100
AcDbLine
10
206
20
109.58615000000002
30
0
11
206
21
81.862049999999996
31
0
0
LINE
5
246
100
AcDbEntity
8
0
100
AcDbLine
10
206
20
81.862049999999996
30
0
11
210
21
81.862049999999996
31
0
0
LINE
5
247
100
AcDbEntity
8
0
100
AcDbLine
10
210
20
81.862049999999996
30
0
11
210
21
54.137950000000004
31
0
0
LINE
5
248
100
AcDbEntity
8
0
100
AcDbLine
10
210
20
54.137950000000004
30
0
11
206
21
54.137950000000004
31
0
0
LINE
5
249
100
AcDbEntity
8
0
100
AcDbLine
10
206
20
54.137950000000004
30
0
11
206
21
26.41385
31
0
0
LINE
5
250
100
AcDbEntity
8
0
100
AcDbLine
10
210
20
26.413849999999996
30
0
11
210
21
3.0000000000000004
31
0
0
LINE
5
251
100
AcDbEntity
8
0
100
AcDbLine
10
210
20
3.0000000000000004
30
0
11
174.31025000000002
21
3.0000000000000004
31
0
0
LINE
5
252
100
AcDbEntity
8
0
100
AcDbLine
10
174.31025000000002
20
3.0000000000000004
30
0
11
174.31025000000002
21
7.0000000000000009
31
0
0
LINE
5
253
100
AcDbEntity
8
0
100
AcDbLine
10
174.31025000000002
20
7.0000000000000009
30
0
11
146.58615
21
7.0000000000000009
31
0
0
LINE
5
254
100
AcDbEntity
8
0
100
AcDbLine
10
146.58615
20
7.0000000000000009
30
0
11
146.58615
21
3.0000000000000004
31
0
0
LINE
5
255
100
AcDbEntity
8
0
100
AcDbLine
10
146.58615
20
3.0000000000000004
30
0
11
118.86205000000001
21
3.0000000000000004
31
0
0
LINE
5
256
100
AcDbEntity
8
0
100
AcDbLine
10
118.86205000000001
20
3.0000000000000004
30
0
11
118.86205000000001
21
7.0000000000000009
31
0
0
LINE
5
257
100
AcDbEntity
8
0
100
AcDbLine
10
118.86205000000001
20
7.0000000000000009
30
0
11
91.137950000000018
21
7.0000000000000009
31
0
0
LINE
5
258
100
AcDbEntity
8
0
100
AcDbLine
10
91.137950000000018
20
7.0000000000000009
30
0
11
91.137950000000018
21
3.0000000000000004
31
0
0
LINE
5
259
100
AcDbEntity
8
0
100
AcDbLine
10
91.137950000000018
20
3.0000000000000004
30
0
11
63.413849999999996
21
3.0000000000000004
31
0
0
LINE
5
260
100
AcDbEntity
8
0
100
AcDbLine
10
63.413849999999996
20
3.0000000000000004
30
0
11
63.413849999999996
21
7.0000000000000009
31
0
0
LINE
5
261
100
AcDbEntity
8
0
100
AcDbLine
10
63.413849999999996
20
7.0000000000000009
30
0
11
35.689750000000004
21
7.0000000000000009
31
0
0
LINE
5
262
100
AcDbEntity
8
0
100
AcDbLine
10
35.689750000000004
20
7.0000000000000009
30
0
11
35.689750000000004
21
3.0000000000000004
31
0
0
LINE
5
263
100
AcDbEntity
8
0
100
AcDbLine
10
35.689750000000004
20
3.0000000000000004
30
0
11
0
21
3.0000000000000004
31
0
0
LINE
5
264
100
AcDbEntity
8
0
100
AcDbLine
10
0
20
3.0000000000000004
30
0
11
0
21
26.41385
31
0
0
LINE
5
265
100
AcDbEntity
8
0
100
AcDbLine
10
0
20
26.41385
30
0
11
4
21
26.41385
31
0
0
LINE
5
266
100
AcDbEntity
8
0
100
AcDbLine
10
4
20
26.41385
30
0
11
4
21
54.137950000000004
31
0
0
LINE
5
267
100
AcDbEntity
8
0
100
AcDbLine
10
4
20
54.137950000000004
30
0
11
0
21
54.137950000000004
31
0
0
LINE
5
268
100
AcDbEntity
8
0
100
AcDbLine
10
0
20
54.137950000000004
30
0
11
0
21
81.862049999999996
31
0
0
LINE
5
269
100
AcDbEntity
8
0
100
AcDbLine
10
0
20
81.862049999999996
30
0
11
4
21
81.862049999999996
31
0
0
LINE
5
270
100
AcDbEntity
8
0
100
AcDbLine
10
4
20
81.862049999999996
30
0
11
4
21
109.58615000000002
31
0
0
LINE
5
271
100
AcDbEntity
8
0
100
AcDbLine
10
4
20
109.58615000000002
30
0
11
0
21
109.58615000000002
31
0
0
LINE
5
272
100
AcDbEntity
8
0
100
AcDbLine
10
0
20
109.58615000000002
30
0
11
0
21
133
31
0
0
ENDSEC
0
SECTION
2
OBJECTS
0
DICTIONARY
5
C
100
AcDbDictionary
3
ACAD_GROUP
350
D
3
ACAD_MLINESTYLE
350
17
0
DICTIONARY
5
D
100
AcDbDictionary
0
DICTIONARY
5
1A
330
C
100
AcDbDictionary
0
DICTIONARY
5
17
100
AcDbDictionary
0
ENDSEC
0
EOF
