  0
SECTION
  2
HEADER
  9
$ACADVER
  1
AC1009
  9
$FILLMODE
 70
1
  9
$EXTMIN
 10
-1.9050
 20
17.1450
 30
0.0000
  9
$EXTMAX
 10
67.9250
 20
65.0750
 30
0.0000
  0
ENDSEC
  0
SECTION
  2
TABLES
  0
TABLE
  2
LTYPE
 70
1
  0
LTYPE
  2
CONTINUOUS
 70
64
  3
Solid line
 72
65
 73
0
 40
0
  0
ENDTAB
  0
TABLE
  2
LAYER
 70
255
  0
LAYER
  2
17
 70
64
 62
110
  6
CONTINUOUS
  0
LAYER
  2
48
 70
64
 62
253
  6
CONTINUOUS
  0
LAYER
  2
116
 70
64
 62
178
  6
CONTINUOUS
  0
ENDTAB
  0
ENDSEC
  0
SECTION
  2
BLOCKS
  0
BLOCK
  8
0
  2
RECT
 70
64
 10
0.0000
 20
0.0000
 30
0.0000
  3
RECT
  0
SOLID
  8
0
 10
-0.5000
 20
-0.5000
 30
0.0000
 11
0.5000
 21
-0.5000
 31
0.0000
 12
-0.5000
 22
0.5000
 32
0.0000
 13
0.5000
 23
0.5000
 33
0.0000
  0
ENDBLK
  8
0
  0
BLOCK
  8
0
  2
PIE
 70
64
 10
0.0000
 20
0.0000
 30
0.0000
  3
PIE
  0
POLYLINE
  8
0
 66
1
 10
0.0000
 20
0.0000
 30
0.0000
 40
0.5000
 41
0.5000
 70
0
  0
VERTEX
  8
0
 10
0.0000
 20
-0.2500
 30
0.0000
 42
1.0000
  0
VERTEX
  8
0
 10
0.0000
 20
0.2500
 30
0.0000
 42
1.0000
  0
VERTEX
  8
0
 10
0.0000
 20
-0.2500
 30
0.0000
  0
SEQEND
  8
0
  0
ENDBLK
  8
0
  0
BLOCK
  8
0
  2
OCTAGONP
 70
64
 10
0.0000
 20
0.0000
 30
0.0000
  3
OCTAGONP
  0
POLYLINE
  8
0
 66
1
 10
0.0000
 20
0.0000
 30
0.0000
 40
0.5000
 41
0.5000
 70
0
  0
VERTEX
  8
0
 10
-0.2500
 20
-0.1036
 30
0.0000
  0
VERTEX
  8
0
 10
-0.2500
 20
0.1036
 30
0.0000
  0
VERTEX
  8
0
 10
-0.1036
 20
0.2500
 30
0.0000
  0
VERTEX
  8
0
 10
0.1036
 20
0.2500
 30
0.0000
  0
VERTEX
  8
0
 10
0.2500
 20
0.1036
 30
0.0000
  0
VERTEX
  8
0
 10
0.2500
 20
-0.1036
 30
0.0000
  0
VERTEX
  8
0
 10
0.1036
 20
-0.2500
 30
0.0000
  0
VERTEX
  8
0
 10
-0.1036
 20
-0.2500
 30
0.0000
  0
VERTEX
  8
0
 10
-0.2500
 20
-0.1036
 30
0.0000
  0
VERTEX
  8
0
 10
-0.2500
 20
0.1036
 30
0.0000
  0
SEQEND
  8
0
  0
ENDBLK
  8
0
  0
BLOCK
  8
0
  2
SQUAREP
 70
64
 10
0.0000
 20
0.0000
 30
0.0000
  3
SQUAREP
  0
SOLID
  8
0
 10
-0.5000
 20
-0.5000
 30
0.0000
 11
0.5000
 21
-0.5000
 31
0.0000
 12
-0.5000
 22
0.5000
 32
0.0000
 13
0.5000
 23
0.5000
 33
0.0000
  0
ENDBLK
  8
0
  0
BLOCK
  8
0
  2
ROUNDP
 70
64
 10
0.0000
 20
0.0000
 30
0.0000
  3
ROUNDP
  0
POLYLINE
  8
0
 66
1
 10
0.0000
 20
0.0000
 30
0.0000
 40
0.5000
 41
0.5000
 70
0
  0
VERTEX
  8
0
 10
0.0000
 20
-0.2500
 30
0.0000
 42
1.0000
  0
VERTEX
  8
0
 10
0.0000
 20
0.2500
 30
0.0000
 42
1.0000
  0
VERTEX
  8
0
 10
0.0000
 20
-0.2500
 30
0.0000
  0
SEQEND
  8
0
  0
ENDBLK
  8
0
  0
BLOCK
  8
0
  2
ANNULUSP
 70
64
 10
0.0000
 20
0.0000
 30
0.0000
  3
ANNULUSP
  0
POLYLINE
  8
0
 66
1
 10
0.0000
 20
0.0000
 30
0.0000
 40
0.5000
 41
0.5000
 70
0
  0
VERTEX
  8
0
 10
0.0000
 20
-0.2500
 30
0.0000
 42
1.0000
  0
VERTEX
  8
0
 10
0.0000
 20
0.2500
 30
0.0000
 42
1.0000
  0
VERTEX
  8
0
 10
0.0000
 20
-0.2500
 30
0.0000
  0
SEQEND
  8
0
  0
ENDBLK
  8
0
  0
BLOCK
  8
0
  2
THERMALP
 70
64
 10
0.0000
 20
0.0000
 30
0.0000
  3
THERMALP
  0
POLYLINE
  8
0
 66
1
 10
0.0000
 20
0.0000
 30
0.0000
 40
0.1000
 41
0.1000
 70
0
  0
VERTEX
  8
0
 10
-0.2379
 20
0.4500
 30
0.0000
  0
VERTEX
  8
0
 10
0.2379
 20
0.4500
 30
0.0000
  0
SEQEND
  8
0
  0
POLYLINE
  8
0
 66
1
 10
0.0000
 20
0.0000
 30
0.0000
 40
0.0500
 41
0.0500
 70
0
  0
VERTEX
  8
0
 10
0.2379
 20
0.4250
 30
0.0000
 42
1.0000
  0
VERTEX
  8
0
 10
0.2379
 20
0.4750
 30
0.0000
  0
SEQEND
  8
0
  0
POLYLINE
  8
0
 66
1
 10
0.0000
 20
0.0000
 30
0.0000
 40
0.0500
 41
0.0500
 70
0
  0
VERTEX
  8
0
 10
-0.2379
 20
0.4750
 30
0.0000
 42
1.0000
  0
VERTEX
  8
0
 10
-0.2379
 20
0.4250
 30
0.0000
  0
SEQEND
  8
0
  0
POLYLINE
  8
0
 66
1
 10
0.0000
 20
0.0000
 30
0.0000
 40
0.1000
 41
0.1000
 70
0
  0
VERTEX
  8
0
 10
0.4500
 20
0.2379
 30
0.0000
  0
VERTEX
  8
0
 10
0.4500
 20
-0.2379
 30
0.0000
  0
SEQEND
  8
0
  0
POLYLINE
  8
0
 66
1
 10
0.0000
 20
0.0000
 30
0.0000
 40
0.0500
 41
0.0500
 70
0
  0
VERTEX
  8
0
 10
0.4250
 20
-0.2379
 30
0.0000
 42
1.0000
  0
VERTEX
  8
0
 10
0.4750
 20
-0.2379
 30
0.0000
  0
SEQEND
  8
0
  0
POLYLINE
  8
0
 66
1
 10
0.0000
 20
0.0000
 30
0.0000
 40
0.0500
 41
0.0500
 70
0
  0
VERTEX
  8
0
 10
0.4750
 20
0.2379
 30
0.0000
 42
1.0000
  0
VERTEX
  8
0
 10
0.4250
 20
0.2379
 30
0.0000
  0
SEQEND
  8
0
  0
POLYLINE
  8
0
 66
1
 10
0.0000
 20
0.0000
 30
0.0000
 40
0.1000
 41
0.1000
 70
0
  0
VERTEX
  8
0
 10
0.2379
 20
-0.4500
 30
0.0000
  0
VERTEX
  8
0
 10
-0.2379
 20
-0.4500
 30
0.0000
  0
SEQEND
  8
0
  0
POLYLINE
  8
0
 66
1
 10
0.0000
 20
0.0000
 30
0.0000
 40
0.0500
 41
0.0500
 70
0
  0
VERTEX
  8
0
 10
-0.2379
 20
-0.4250
 30
0.0000
 42
1.0000
  0
VERTEX
  8
0
 10
-0.2379
 20
-0.4750
 30
0.0000
  0
SEQEND
  8
0
  0
POLYLINE
  8
0
 66
1
 10
0.0000
 20
0.0000
 30
0.0000
 40
0.0500
 41
0.0500
 70
0
  0
VERTEX
  8
0
 10
0.2379
 20
-0.4750
 30
0.0000
 42
1.0000
  0
VERTEX
  8
0
 10
0.2379
 20
-0.4250
 30
0.0000
  0
SEQEND
  8
0
  0
POLYLINE
  8
0
 66
1
 10
0.0000
 20
0.0000
 30
0.0000
 40
0.1000
 41
0.1000
 70
0
  0
VERTEX
  8
0
 10
-0.4500
 20
-0.2379
 30
0.0000
  0
VERTEX
  8
0
 10
-0.4500
 20
0.2379
 30
0.0000
  0
SEQEND
  8
0
  0
POLYLINE
  8
0
 66
1
 10
0.0000
 20
0.0000
 30
0.0000
 40
0.0500
 41
0.0500
 70
0
  0
VERTEX
  8
0
 10
-0.4250
 20
0.2379
 30
0.0000
 42
1.0000
  0
VERTEX
  8
0
 10
-0.4750
 20
0.2379
 30
0.0000
  0
SEQEND
  8
0
  0
POLYLINE
  8
0
 66
1
 10
0.0000
 20
0.0000
 30
0.0000
 40
0.0500
 41
0.0500
 70
0
  0
VERTEX
  8
0
 10
-0.4750
 20
-0.2379
 30
0.0000
 42
1.0000
  0
VERTEX
  8
0
 10
-0.4250
 20
-0.2379
 30
0.0000
  0
SEQEND
  8
0
  0
ENDBLK
  8
0
  0
BLOCK
  8
0
  2
OCTAGONV
 70
64
 10
0.0000
 20
0.0000
 30
0.0000
  3
OCTAGONV
  0
POLYLINE
  8
0
 66
1
 10
0.0000
 20
0.0000
 30
0.0000
 40
0.5000
 41
0.5000
 70
0
  0
VERTEX
  8
0
 10
-0.2500
 20
-0.1036
 30
0.0000
  0
VERTEX
  8
0
 10
-0.2500
 20
0.1036
 30
0.0000
  0
VERTEX
  8
0
 10
-0.1036
 20
0.2500
 30
0.0000
  0
VERTEX
  8
0
 10
0.1036
 20
0.2500
 30
0.0000
  0
VERTEX
  8
0
 10
0.2500
 20
0.1036
 30
0.0000
  0
VERTEX
  8
0
 10
0.2500
 20
-0.1036
 30
0.0000
  0
VERTEX
  8
0
 10
0.1036
 20
-0.2500
 30
0.0000
  0
VERTEX
  8
0
 10
-0.1036
 20
-0.2500
 30
0.0000
  0
VERTEX
  8
0
 10
-0.2500
 20
-0.1036
 30
0.0000
  0
VERTEX
  8
0
 10
-0.2500
 20
0.1036
 30
0.0000
  0
SEQEND
  8
0
  0
ENDBLK
  8
0
  0
BLOCK
  8
0
  2
SQUAREV
 70
64
 10
0.0000
 20
0.0000
 30
0.0000
  3
SQUAREV
  0
SOLID
  8
0
 10
-0.5000
 20
-0.5000
 30
0.0000
 11
0.5000
 21
-0.5000
 31
0.0000
 12
-0.5000
 22
0.5000
 32
0.0000
 13
0.5000
 23
0.5000
 33
0.0000
  0
ENDBLK
  8
0
  0
BLOCK
  8
0
  2
ROUNDV
 70
64
 10
0.0000
 20
0.0000
 30
0.0000
  3
ROUNDV
  0
POLYLINE
  8
0
 66
1
 10
0.0000
 20
0.0000
 30
0.0000
 40
0.5000
 41
0.5000
 70
0
  0
VERTEX
  8
0
 10
0.0000
 20
-0.2500
 30
0.0000
 42
1.0000
  0
VERTEX
  8
0
 10
0.0000
 20
0.2500
 30
0.0000
 42
1.0000
  0
VERTEX
  8
0
 10
0.0000
 20
-0.2500
 30
0.0000
  0
SEQEND
  8
0
  0
ENDBLK
  8
0
  0
BLOCK
  8
0
  2
ANNULUSV
 70
64
 10
0.0000
 20
0.0000
 30
0.0000
  3
ANNULUSV
  0
POLYLINE
  8
0
 66
1
 10
0.0000
 20
0.0000
 30
0.0000
 40
0.5000
 41
0.5000
 70
0
  0
VERTEX
  8
0
 10
0.0000
 20
-0.2500
 30
0.0000
 42
1.0000
  0
VERTEX
  8
0
 10
0.0000
 20
0.2500
 30
0.0000
 42
1.0000
  0
VERTEX
  8
0
 10
0.0000
 20
-0.2500
 30
0.0000
  0
SEQEND
  8
0
  0
ENDBLK
  8
0
  0
BLOCK
  8
0
  2
THERMALV
 70
64
 10
0.0000
 20
0.0000
 30
0.0000
  3
THERMALV
  0
POLYLINE
  8
0
 66
1
 10
0.0000
 20
0.0000
 30
0.0000
 40
0.1000
 41
0.1000
 70
0
  0
VERTEX
  8
0
 10
-0.2379
 20
0.4500
 30
0.0000
  0
VERTEX
  8
0
 10
0.2379
 20
0.4500
 30
0.0000
  0
SEQEND
  8
0
  0
POLYLINE
  8
0
 66
1
 10
0.0000
 20
0.0000
 30
0.0000
 40
0.0500
 41
0.0500
 70
0
  0
VERTEX
  8
0
 10
0.2379
 20
0.4250
 30
0.0000
 42
1.0000
  0
VERTEX
  8
0
 10
0.2379
 20
0.4750
 30
0.0000
  0
SEQEND
  8
0
  0
POLYLINE
  8
0
 66
1
 10
0.0000
 20
0.0000
 30
0.0000
 40
0.0500
 41
0.0500
 70
0
  0
VERTEX
  8
0
 10
-0.2379
 20
0.4750
 30
0.0000
 42
1.0000
  0
VERTEX
  8
0
 10
-0.2379
 20
0.4250
 30
0.0000
  0
SEQEND
  8
0
  0
POLYLINE
  8
0
 66
1
 10
0.0000
 20
0.0000
 30
0.0000
 40
0.1000
 41
0.1000
 70
0
  0
VERTEX
  8
0
 10
0.4500
 20
0.2379
 30
0.0000
  0
VERTEX
  8
0
 10
0.4500
 20
-0.2379
 30
0.0000
  0
SEQEND
  8
0
  0
POLYLINE
  8
0
 66
1
 10
0.0000
 20
0.0000
 30
0.0000
 40
0.0500
 41
0.0500
 70
0
  0
VERTEX
  8
0
 10
0.4250
 20
-0.2379
 30
0.0000
 42
1.0000
  0
VERTEX
  8
0
 10
0.4750
 20
-0.2379
 30
0.0000
  0
SEQEND
  8
0
  0
POLYLINE
  8
0
 66
1
 10
0.0000
 20
0.0000
 30
0.0000
 40
0.0500
 41
0.0500
 70
0
  0
VERTEX
  8
0
 10
0.4750
 20
0.2379
 30
0.0000
 42
1.0000
  0
VERTEX
  8
0
 10
0.4250
 20
0.2379
 30
0.0000
  0
SEQEND
  8
0
  0
POLYLINE
  8
0
 66
1
 10
0.0000
 20
0.0000
 30
0.0000
 40
0.1000
 41
0.1000
 70
0
  0
VERTEX
  8
0
 10
0.2379
 20
-0.4500
 30
0.0000
  0
VERTEX
  8
0
 10
-0.2379
 20
-0.4500
 30
0.0000
  0
SEQEND
  8
0
  0
POLYLINE
  8
0
 66
1
 10
0.0000
 20
0.0000
 30
0.0000
 40
0.0500
 41
0.0500
 70
0
  0
VERTEX
  8
0
 10
-0.2379
 20
-0.4250
 30
0.0000
 42
1.0000
  0
VERTEX
  8
0
 10
-0.2379
 20
-0.4750
 30
0.0000
  0
SEQEND
  8
0
  0
POLYLINE
  8
0
 66
1
 10
0.0000
 20
0.0000
 30
0.0000
 40
0.0500
 41
0.0500
 70
0
  0
VERTEX
  8
0
 10
0.2379
 20
-0.4750
 30
0.0000
 42
1.0000
  0
VERTEX
  8
0
 10
0.2379
 20
-0.4250
 30
0.0000
  0
SEQEND
  8
0
  0
POLYLINE
  8
0
 66
1
 10
0.0000
 20
0.0000
 30
0.0000
 40
0.1000
 41
0.1000
 70
0
  0
VERTEX
  8
0
 10
-0.4500
 20
-0.2379
 30
0.0000
  0
VERTEX
  8
0
 10
-0.4500
 20
0.2379
 30
0.0000
  0
SEQEND
  8
0
  0
POLYLINE
  8
0
 66
1
 10
0.0000
 20
0.0000
 30
0.0000
 40
0.0500
 41
0.0500
 70
0
  0
VERTEX
  8
0
 10
-0.4250
 20
0.2379
 30
0.0000
 42
1.0000
  0
VERTEX
  8
0
 10
-0.4750
 20
0.2379
 30
0.0000
  0
SEQEND
  8
0
  0
POLYLINE
  8
0
 66
1
 10
0.0000
 20
0.0000
 30
0.0000
 40
0.0500
 41
0.0500
 70
0
  0
VERTEX
  8
0
 10
-0.4750
 20
-0.2379
 30
0.0000
 42
1.0000
  0
VERTEX
  8
0
 10
-0.4250
 20
-0.2379
 30
0.0000
  0
SEQEND
  8
0
  0
ENDBLK
  8
0
  0
BLOCK
  8
0
  2
LONGP100
 70
64
 10
0.0000
 20
0.0000
 30
0.0000
  3
LONGP100
  0
POLYLINE
  8
0
 66
1
 10
0.0000
 20
0.0000
 30
0.0000
 40
1.0000
 41
1.0000
 70
0
  0
VERTEX
  8
0
 10
-0.5000
 20
0.0000
 30
0.0000
  0
VERTEX
  8
0
 10
0.5000
 20
0.0000
 30
0.0000
  0
SEQEND
  8
0
  0
POLYLINE
  8
0
 66
1
 10
0.0000
 20
0.0000
 30
0.0000
 40
0.5000
 41
0.5000
 70
0
  0
VERTEX
  8
0
 10
0.5000
 20
-0.2500
 30
0.0000
 42
1.0000
  0
VERTEX
  8
0
 10
0.5000
 20
0.2500
 30
0.0000
  0
SEQEND
  8
0
  0
POLYLINE
  8
0
 66
1
 10
0.0000
 20
0.0000
 30
0.0000
 40
0.5000
 41
0.5000
 70
0
  0
VERTEX
  8
0
 10
-0.5000
 20
0.2500
 30
0.0000
 42
1.0000
  0
VERTEX
  8
0
 10
-0.5000
 20
-0.2500
 30
0.0000
  0
SEQEND
  8
0
  0
ENDBLK
  8
0
  0
ENDSEC
  0
SECTION
  2
ENTITIES
  0
POLYLINE
  8
48
 66
1
 10
0.0000
 20
0.0000
 30
0.0000
 40
0.4064
 41
0.4064
 70
0
  0
VERTEX
  8
48
 10
5.7150
 20
60.9600
 30
0.0000
  0
VERTEX
  8
48
 10
5.7150
 20
26.0350
 30
0.0000
  0
SEQEND
  8
0
  0
POLYLINE
  8
48
 66
1
 10
0.0000
 20
0.0000
 30
0.0000
 40
0.2032
 41
0.2032
 70
0
  0
VERTEX
  8
48
 10
5.6134
 20
26.0350
 30
0.0000
 42
1.0000
  0
VERTEX
  8
48
 10
5.8166
 20
26.0350
 30
0.0000
  0
SEQEND
  8
0
  0
POLYLINE
  8
48
 66
1
 10
0.0000
 20
0.0000
 30
0.0000
 40
0.2032
 41
0.2032
 70
0
  0
VERTEX
  8
48
 10
5.8166
 20
60.9600
 30
0.0000
 42
1.0000
  0
VERTEX
  8
48
 10
5.6134
 20
60.9600
 30
0.0000
  0
SEQEND
  8
0
  0
POLYLINE
  8
48
 66
1
 10
0.0000
 20
0.0000
 30
0.0000
 40
0.4064
 41
0.4064
 70
0
  0
VERTEX
  8
48
 10
5.7150
 20
26.0350
 30
0.0000
  0
VERTEX
  8
48
 10
6.9850
 20
24.7650
 30
0.0000
  0
SEQEND
  8
0
  0
POLYLINE
  8
48
 66
1
 10
0.0000
 20
0.0000
 30
0.0000
 40
0.2032
 41
0.2032
 70
0
  0
VERTEX
  8
48
 10
6.9132
 20
24.6932
 30
0.0000
 42
1.0000
  0
VERTEX
  8
48
 10
7.0568
 20
24.8368
 30
0.0000
  0
SEQEND
  8
0
  0
POLYLINE
  8
48
 66
1
 10
0.0000
 20
0.0000
 30
0.0000
 40
0.2032
 41
0.2032
 70
0
  0
VERTEX
  8
48
 10
5.7868
 20
26.1068
 30
0.0000
 42
1.0000
  0
VERTEX
  8
48
 10
5.6432
 20
25.9632
 30
0.0000
  0
SEQEND
  8
0
  0
POLYLINE
  8
48
 66
1
 10
0.0000
 20
0.0000
 30
0.0000
 40
0.4064
 41
0.4064
 70
0
  0
VERTEX
  8
48
 10
6.9850
 20
24.7650
 30
0.0000
  0
VERTEX
  8
48
 10
58.4200
 20
24.7650
 30
0.0000
  0
SEQEND
  8
0
  0
POLYLINE
  8
48
 66
1
 10
0.0000
 20
0.0000
 30
0.0000
 40
0.2032
 41
0.2032
 70
0
  0
VERTEX
  8
48
 10
58.4200
 20
24.6634
 30
0.0000
 42
1.0000
  0
VERTEX
  8
48
 10
58.4200
 20
24.8666
 30
0.0000
  0
SEQEND
  8
0
  0
POLYLINE
  8
48
 66
1
 10
0.0000
 20
0.0000
 30
0.0000
 40
0.2032
 41
0.2032
 70
0
  0
VERTEX
  8
48
 10
6.9850
 20
24.8666
 30
0.0000
 42
1.0000
  0
VERTEX
  8
48
 10
6.9850
 20
24.6634
 30
0.0000
  0
SEQEND
  8
0
  0
POLYLINE
  8
48
 66
1
 10
0.0000
 20
0.0000
 30
0.0000
 40
0.4064
 41
0.4064
 70
0
  0
VERTEX
  8
48
 10
58.4200
 20
24.7650
 30
0.0000
  0
VERTEX
  8
48
 10
59.6900
 20
26.0350
 30
0.0000
  0
SEQEND
  8
0
  0
POLYLINE
  8
48
 66
1
 10
0.0000
 20
0.0000
 30
0.0000
 40
0.2032
 41
0.2032
 70
0
  0
VERTEX
  8
48
 10
59.7618
 20
25.9632
 30
0.0000
 42
1.0000
  0
VERTEX
  8
48
 10
59.6182
 20
26.1068
 30
0.0000
  0
SEQEND
  8
0
  0
POLYLINE
  8
48
 66
1
 10
0.0000
 20
0.0000
 30
0.0000
 40
0.2032
 41
0.2032
 70
0
  0
VERTEX
  8
48
 10
58.3482
 20
24.8368
 30
0.0000
 42
1.0000
  0
VERTEX
  8
48
 10
58.4918
 20
24.6932
 30
0.0000
  0
SEQEND
  8
0
  0
POLYLINE
  8
48
 66
1
 10
0.0000
 20
0.0000
 30
0.0000
 40
0.4064
 41
0.4064
 70
0
  0
VERTEX
  8
48
 10
59.6900
 20
26.0350
 30
0.0000
  0
VERTEX
  8
48
 10
59.6900
 20
60.9600
 30
0.0000
  0
SEQEND
  8
0
  0
POLYLINE
  8
48
 66
1
 10
0.0000
 20
0.0000
 30
0.0000
 40
0.2032
 41
0.2032
 70
0
  0
VERTEX
  8
48
 10
59.7916
 20
60.9600
 30
0.0000
 42
1.0000
  0
VERTEX
  8
48
 10
59.5884
 20
60.9600
 30
0.0000
  0
SEQEND
  8
0
  0
POLYLINE
  8
48
 66
1
 10
0.0000
 20
0.0000
 30
0.0000
 40
0.2032
 41
0.2032
 70
0
  0
VERTEX
  8
48
 10
59.5884
 20
26.0350
 30
0.0000
 42
1.0000
  0
VERTEX
  8
48
 10
59.7916
 20
26.0350
 30
0.0000
  0
SEQEND
  8
0
  0
POLYLINE
  8
48
 66
1
 10
0.0000
 20
0.0000
 30
0.0000
 40
0.4064
 41
0.4064
 70
0
  0
VERTEX
  8
48
 10
59.6900
 20
60.9600
 30
0.0000
  0
VERTEX
  8
48
 10
58.4200
 20
62.2300
 30
0.0000
  0
SEQEND
  8
0
  0
POLYLINE
  8
48
 66
1
 10
0.0000
 20
0.0000
 30
0.0000
 40
0.2032
 41
0.2032
 70
0
  0
VERTEX
  8
48
 10
58.4918
 20
62.3018
 30
0.0000
 42
1.0000
  0
VERTEX
  8
48
 10
58.3482
 20
62.1582
 30
0.0000
  0
SEQEND
  8
0
  0
POLYLINE
  8
48
 66
1
 10
0.0000
 20
0.0000
 30
0.0000
 40
0.2032
 41
0.2032
 70
0
  0
VERTEX
  8
48
 10
59.6182
 20
60.8882
 30
0.0000
 42
1.0000
  0
VERTEX
  8
48
 10
59.7618
 20
61.0318
 30
0.0000
  0
SEQEND
  8
0
  0
POLYLINE
  8
48
 66
1
 10
0.0000
 20
0.0000
 30
0.0000
 40
0.4064
 41
0.4064
 70
0
  0
VERTEX
  8
48
 10
58.4200
 20
62.2300
 30
0.0000
  0
VERTEX
  8
48
 10
6.9850
 20
62.2300
 30
0.0000
  0
SEQEND
  8
0
  0
POLYLINE
  8
48
 66
1
 10
0.0000
 20
0.0000
 30
0.0000
 40
0.2032
 41
0.2032
 70
0
  0
VERTEX
  8
48
 10
6.9850
 20
62.3316
 30
0.0000
 42
1.0000
  0
VERTEX
  8
48
 10
6.9850
 20
62.1284
 30
0.0000
  0
SEQEND
  8
0
  0
POLYLINE
  8
48
 66
1
 10
0.0000
 20
0.0000
 30
0.0000
 40
0.2032
 41
0.2032
 70
0
  0
VERTEX
  8
48
 10
58.4200
 20
62.1284
 30
0.0000
 42
1.0000
  0
VERTEX
  8
48
 10
58.4200
 20
62.3316
 30
0.0000
  0
SEQEND
  8
0
  0
POLYLINE
  8
48
 66
1
 10
0.0000
 20
0.0000
 30
0.0000
 40
0.4064
 41
0.4064
 70
0
  0
VERTEX
  8
48
 10
6.9850
 20
62.2300
 30
0.0000
  0
VERTEX
  8
48
 10
5.7150
 20
60.9600
 30
0.0000
  0
SEQEND
  8
0
  0
POLYLINE
  8
48
 66
1
 10
0.0000
 20
0.0000
 30
0.0000
 40
0.2032
 41
0.2032
 70
0
  0
VERTEX
  8
48
 10
5.6432
 20
61.0318
 30
0.0000
 42
1.0000
  0
VERTEX
  8
48
 10
5.7868
 20
60.8882
 30
0.0000
  0
SEQEND
  8
0
  0
POLYLINE
  8
48
 66
1
 10
0.0000
 20
0.0000
 30
0.0000
 40
0.2032
 41
0.2032
 70
0
  0
VERTEX
  8
48
 10
7.0568
 20
62.1582
 30
0.0000
 42
1.0000
  0
VERTEX
  8
48
 10
6.9132
 20
62.3018
 30
0.0000
  0
SEQEND
  8
0
  0
POLYLINE
  8
48
 66
1
 10
0.0000
 20
0.0000
 30
0.0000
 40
0.4064
 41
0.4064
 70
0
  0
VERTEX
  8
48
 10
6.9596
 20
24.7904
 30
0.0000
  0
VERTEX
  8
48
 10
58.4454
 20
24.7904
 30
0.0000
  0
SEQEND
  8
0
  0
POLYLINE
  8
48
 66
1
 10
0.0000
 20
0.0000
 30
0.0000
 40
0.2032
 41
0.2032
 70
0
  0
VERTEX
  8
48
 10
58.4454
 20
24.6888
 30
0.0000
 42
1.0000
  0
VERTEX
  8
48
 10
58.4454
 20
24.8920
 30
0.0000
  0
SEQEND
  8
0
  0
POLYLINE
  8
48
 66
1
 10
0.0000
 20
0.0000
 30
0.0000
 40
0.2032
 41
0.2032
 70
0
  0
VERTEX
  8
48
 10
6.9596
 20
24.8920
 30
0.0000
 42
1.0000
  0
VERTEX
  8
48
 10
6.9596
 20
24.6888
 30
0.0000
  0
SEQEND
  8
0
  0
POLYLINE
  8
48
 66
1
 10
0.0000
 20
0.0000
 30
0.0000
 40
0.4064
 41
0.4064
 70
0
  0
VERTEX
  8
48
 10
6.5532
 20
25.1968
 30
0.0000
  0
VERTEX
  8
48
 10
58.8518
 20
25.1968
 30
0.0000
  0
SEQEND
  8
0
  0
POLYLINE
  8
48
 66
1
 10
0.0000
 20
0.0000
 30
0.0000
 40
0.2032
 41
0.2032
 70
0
  0
VERTEX
  8
48
 10
58.8518
 20
25.0952
 30
0.0000
 42
1.0000
  0
VERTEX
  8
48
 10
58.8518
 20
25.2984
 30
0.0000
  0
SEQEND
  8
0
  0
POLYLINE
  8
48
 66
1
 10
0.0000
 20
0.0000
 30
0.0000
 40
0.2032
 41
0.2032
 70
0
  0
VERTEX
  8
48
 10
6.5532
 20
25.2984
 30
0.0000
 42
1.0000
  0
VERTEX
  8
48
 10
6.5532
 20
25.0952
 30
0.0000
  0
SEQEND
  8
0
  0
POLYLINE
  8
48
 66
1
 10
0.0000
 20
0.0000
 30
0.0000
 40
0.4064
 41
0.4064
 70
0
  0
VERTEX
  8
48
 10
6.1468
 20
25.6032
 30
0.0000
  0
VERTEX
  8
48
 10
59.2582
 20
25.6032
 30
0.0000
  0
SEQEND
  8
0
  0
POLYLINE
  8
48
 66
1
 10
0.0000
 20
0.0000
 30
0.0000
 40
0.2032
 41
0.2032
 70
0
  0
VERTEX
  8
48
 10
59.2582
 20
25.5016
 30
0.0000
 42
1.0000
  0
VERTEX
  8
48
 10
59.2582
 20
25.7048
 30
0.0000
  0
SEQEND
  8
0
  0
POLYLINE
  8
48
 66
1
 10
0.0000
 20
0.0000
 30
0.0000
 40
0.2032
 41
0.2032
 70
0
  0
VERTEX
  8
48
 10
6.1468
 20
25.7048
 30
0.0000
 42
1.0000
  0
VERTEX
  8
48
 10
6.1468
 20
25.5016
 30
0.0000
  0
SEQEND
  8
0
  0
POLYLINE
  8
48
 66
1
 10
0.0000
 20
0.0000
 30
0.0000
 40
0.4064
 41
0.4064
 70
0
  0
VERTEX
  8
48
 10
5.7404
 20
26.0096
 30
0.0000
  0
VERTEX
  8
48
 10
59.6646
 20
26.0096
 30
0.0000
  0
SEQEND
  8
0
  0
POLYLINE
  8
48
 66
1
 10
0.0000
 20
0.0000
 30
0.0000
 40
0.2032
 41
0.2032
 70
0
  0
VERTEX
  8
48
 10
59.6646
 20
25.9080
 30
0.0000
 42
1.0000
  0
VERTEX
  8
48
 10
59.6646
 20
26.1112
 30
0.0000
  0
SEQEND
  8
0
  0
POLYLINE
  8
48
 66
1
 10
0.0000
 20
0.0000
 30
0.0000
 40
0.2032
 41
0.2032
 70
0
  0
VERTEX
  8
48
 10
5.7404
 20
26.1112
 30
0.0000
 42
1.0000
  0
VERTEX
  8
48
 10
5.7404
 20
25.9080
 30
0.0000
  0
SEQEND
  8
0
  0
POLYLINE
  8
48
 66
1
 10
0.0000
 20
0.0000
 30
0.0000
 40
0.4064
 41
0.4064
 70
0
  0
VERTEX
  8
48
 10
5.7150
 20
26.4160
 30
0.0000
  0
VERTEX
  8
48
 10
59.6900
 20
26.4160
 30
0.0000
  0
SEQEND
  8
0
  0
POLYLINE
  8
48
 66
1
 10
0.0000
 20
0.0000
 30
0.0000
 40
0.2032
 41
0.2032
 70
0
  0
VERTEX
  8
48
 10
59.6900
 20
26.3144
 30
0.0000
 42
1.0000
  0
VERTEX
  8
48
 10
59.6900
 20
26.5176
 30
0.0000
  0
SEQEND
  8
0
  0
POLYLINE
  8
48
 66
1
 10
0.0000
 20
0.0000
 30
0.0000
 40
0.2032
 41
0.2032
 70
0
  0
VERTEX
  8
48
 10
5.7150
 20
26.5176
 30
0.0000
 42
1.0000
  0
VERTEX
  8
48
 10
5.7150
 20
26.3144
 30
0.0000
  0
SEQEND
  8
0
  0
POLYLINE
  8
48
 66
1
 10
0.0000
 20
0.0000
 30
0.0000
 40
0.4064
 41
0.4064
 70
0
  0
VERTEX
  8
48
 10
5.7150
 20
26.8224
 30
0.0000
  0
VERTEX
  8
48
 10
59.6900
 20
26.8224
 30
0.0000
  0
SEQEND
  8
0
  0
POLYLINE
  8
48
 66
1
 10
0.0000
 20
0.0000
 30
0.0000
 40
0.2032
 41
0.2032
 70
0
  0
VERTEX
  8
48
 10
59.6900
 20
26.7208
 30
0.0000
 42
1.0000
  0
VERTEX
  8
48
 10
59.6900
 20
26.9240
 30
0.0000
  0
SEQEND
  8
0
  0
POLYLINE
  8
48
 66
1
 10
0.0000
 20
0.0000
 30
0.0000
 40
0.2032
 41
0.2032
 70
0
  0
VERTEX
  8
48
 10
5.7150
 20
26.9240
 30
0.0000
 42
1.0000
  0
VERTEX
  8
48
 10
5.7150
 20
26.7208
 30
0.0000
  0
SEQEND
  8
0
  0
POLYLINE
  8
48
 66
1
 10
0.0000
 20
0.0000
 30
0.0000
 40
0.4064
 41
0.4064
 70
0
  0
VERTEX
  8
48
 10
5.7150
 20
27.2288
 30
0.0000
  0
VERTEX
  8
48
 10
59.6900
 20
27.2288
 30
0.0000
  0
SEQEND
  8
0
  0
POLYLINE
  8
48
 66
1
 10
0.0000
 20
0.0000
 30
0.0000
 40
0.2032
 41
0.2032
 70
0
  0
VERTEX
  8
48
 10
59.6900
 20
27.1272
 30
0.0000
 42
1.0000
  0
VERTEX
  8
48
 10
59.6900
 20
27.3304
 30
0.0000
  0
SEQEND
  8
0
  0
POLYLINE
  8
48
 66
1
 10
0.0000
 20
0.0000
 30
0.0000
 40
0.2032
 41
0.2032
 70
0
  0
VERTEX
  8
48
 10
5.7150
 20
27.3304
 30
0.0000
 42
1.0000
  0
VERTEX
  8
48
 10
5.7150
 20
27.1272
 30
0.0000
  0
SEQEND
  8
0
  0
POLYLINE
  8
48
 66
1
 10
0.0000
 20
0.0000
 30
0.0000
 40
0.4064
 41
0.4064
 70
0
  0
VERTEX
  8
48
 10
5.7150
 20
27.6352
 30
0.0000
  0
VERTEX
  8
48
 10
59.6900
 20
27.6352
 30
0.0000
  0
SEQEND
  8
0
  0
POLYLINE
  8
48
 66
1
 10
0.0000
 20
0.0000
 30
0.0000
 40
0.2032
 41
0.2032
 70
0
  0
VERTEX
  8
48
 10
59.6900
 20
27.5336
 30
0.0000
 42
1.0000
  0
VERTEX
  8
48
 10
59.6900
 20
27.7368
 30
0.0000
  0
SEQEND
  8
0
  0
POLYLINE
  8
48
 66
1
 10
0.0000
 20
0.0000
 30
0.0000
 40
0.2032
 41
0.2032
 70
0
  0
VERTEX
  8
48
 10
5.7150
 20
27.7368
 30
0.0000
 42
1.0000
  0
VERTEX
  8
48
 10
5.7150
 20
27.5336
 30
0.0000
  0
SEQEND
  8
0
  0
POLYLINE
  8
48
 66
1
 10
0.0000
 20
0.0000
 30
0.0000
 40
0.4064
 41
0.4064
 70
0
  0
VERTEX
  8
48
 10
5.7150
 20
28.0416
 30
0.0000
  0
VERTEX
  8
48
 10
59.6900
 20
28.0416
 30
0.0000
  0
SEQEND
  8
0
  0
POLYLINE
  8
48
 66
1
 10
0.0000
 20
0.0000
 30
0.0000
 40
0.2032
 41
0.2032
 70
0
  0
VERTEX
  8
48
 10
59.6900
 20
27.9400
 30
0.0000
 42
1.0000
  0
VERTEX
  8
48
 10
59.6900
 20
28.1432
 30
0.0000
  0
SEQEND
  8
0
  0
POLYLINE
  8
48
 66
1
 10
0.0000
 20
0.0000
 30
0.0000
 40
0.2032
 41
0.2032
 70
0
  0
VERTEX
  8
48
 10
5.7150
 20
28.1432
 30
0.0000
 42
1.0000
  0
VERTEX
  8
48
 10
5.7150
 20
27.9400
 30
0.0000
  0
SEQEND
  8
0
  0
POLYLINE
  8
48
 66
1
 10
0.0000
 20
0.0000
 30
0.0000
 40
0.4064
 41
0.4064
 70
0
  0
VERTEX
  8
48
 10
5.7150
 20
28.4480
 30
0.0000
  0
VERTEX
  8
48
 10
59.6900
 20
28.4480
 30
0.0000
  0
SEQEND
  8
0
  0
POLYLINE
  8
48
 66
1
 10
0.0000
 20
0.0000
 30
0.0000
 40
0.2032
 41
0.2032
 70
0
  0
VERTEX
  8
48
 10
59.6900
 20
28.3464
 30
0.0000
 42
1.0000
  0
VERTEX
  8
48
 10
59.6900
 20
28.5496
 30
0.0000
  0
SEQEND
  8
0
  0
POLYLINE
  8
48
 66
1
 10
0.0000
 20
0.0000
 30
0.0000
 40
0.2032
 41
0.2032
 70
0
  0
VERTEX
  8
48
 10
5.7150
 20
28.5496
 30
0.0000
 42
1.0000
  0
VERTEX
  8
48
 10
5.7150
 20
28.3464
 30
0.0000
  0
SEQEND
  8
0
  0
POLYLINE
  8
48
 66
1
 10
0.0000
 20
0.0000
 30
0.0000
 40
0.4064
 41
0.4064
 70
0
  0
VERTEX
  8
48
 10
5.7150
 20
28.8544
 30
0.0000
  0
VERTEX
  8
48
 10
59.6900
 20
28.8544
 30
0.0000
  0
SEQEND
  8
0
  0
POLYLINE
  8
48
 66
1
 10
0.0000
 20
0.0000
 30
0.0000
 40
0.2032
 41
0.2032
 70
0
  0
VERTEX
  8
48
 10
59.6900
 20
28.7528
 30
0.0000
 42
1.0000
  0
VERTEX
  8
48
 10
59.6900
 20
28.9560
 30
0.0000
  0
SEQEND
  8
0
  0
POLYLINE
  8
48
 66
1
 10
0.0000
 20
0.0000
 30
0.0000
 40
0.2032
 41
0.2032
 70
0
  0
VERTEX
  8
48
 10
5.7150
 20
28.9560
 30
0.0000
 42
1.0000
  0
VERTEX
  8
48
 10
5.7150
 20
28.7528
 30
0.0000
  0
SEQEND
  8
0
  0
POLYLINE
  8
48
 66
1
 10
0.0000
 20
0.0000
 30
0.0000
 40
0.4064
 41
0.4064
 70
0
  0
VERTEX
  8
48
 10
5.7150
 20
29.2608
 30
0.0000
  0
VERTEX
  8
48
 10
59.6900
 20
29.2608
 30
0.0000
  0
SEQEND
  8
0
  0
POLYLINE
  8
48
 66
1
 10
0.0000
 20
0.0000
 30
0.0000
 40
0.2032
 41
0.2032
 70
0
  0
VERTEX
  8
48
 10
59.6900
 20
29.1592
 30
0.0000
 42
1.0000
  0
VERTEX
  8
48
 10
59.6900
 20
29.3624
 30
0.0000
  0
SEQEND
  8
0
  0
POLYLINE
  8
48
 66
1
 10
0.0000
 20
0.0000
 30
0.0000
 40
0.2032
 41
0.2032
 70
0
  0
VERTEX
  8
48
 10
5.7150
 20
29.3624
 30
0.0000
 42
1.0000
  0
VERTEX
  8
48
 10
5.7150
 20
29.1592
 30
0.0000
  0
SEQEND
  8
0
  0
POLYLINE
  8
48
 66
1
 10
0.0000
 20
0.0000
 30
0.0000
 40
0.4064
 41
0.4064
 70
0
  0
VERTEX
  8
48
 10
5.7150
 20
29.6672
 30
0.0000
  0
VERTEX
  8
48
 10
59.6900
 20
29.6672
 30
0.0000
  0
SEQEND
  8
0
  0
POLYLINE
  8
48
 66
1
 10
0.0000
 20
0.0000
 30
0.0000
 40
0.2032
 41
0.2032
 70
0
  0
VERTEX
  8
48
 10
59.6900
 20
29.5656
 30
0.0000
 42
1.0000
  0
VERTEX
  8
48
 10
59.6900
 20
29.7688
 30
0.0000
  0
SEQEND
  8
0
  0
POLYLINE
  8
48
 66
1
 10
0.0000
 20
0.0000
 30
0.0000
 40
0.2032
 41
0.2032
 70
0
  0
VERTEX
  8
48
 10
5.7150
 20
29.7688
 30
0.0000
 42
1.0000
  0
VERTEX
  8
48
 10
5.7150
 20
29.5656
 30
0.0000
  0
SEQEND
  8
0
  0
POLYLINE
  8
48
 66
1
 10
0.0000
 20
0.0000
 30
0.0000
 40
0.4064
 41
0.4064
 70
0
  0
VERTEX
  8
48
 10
5.7150
 20
30.0736
 30
0.0000
  0
VERTEX
  8
48
 10
59.6900
 20
30.0736
 30
0.0000
  0
SEQEND
  8
0
  0
POLYLINE
  8
48
 66
1
 10
0.0000
 20
0.0000
 30
0.0000
 40
0.2032
 41
0.2032
 70
0
  0
VERTEX
  8
48
 10
59.6900
 20
29.9720
 30
0.0000
 42
1.0000
  0
VERTEX
  8
48
 10
59.6900
 20
30.1752
 30
0.0000
  0
SEQEND
  8
0
  0
POLYLINE
  8
48
 66
1
 10
0.0000
 20
0.0000
 30
0.0000
 40
0.2032
 41
0.2032
 70
0
  0
VERTEX
  8
48
 10
5.7150
 20
30.1752
 30
0.0000
 42
1.0000
  0
VERTEX
  8
48
 10
5.7150
 20
29.9720
 30
0.0000
  0
SEQEND
  8
0
  0
POLYLINE
  8
48
 66
1
 10
0.0000
 20
0.0000
 30
0.0000
 40
0.4064
 41
0.4064
 70
0
  0
VERTEX
  8
48
 10
5.7150
 20
30.4800
 30
0.0000
  0
VERTEX
  8
48
 10
59.6900
 20
30.4800
 30
0.0000
  0
SEQEND
  8
0
  0
POLYLINE
  8
48
 66
1
 10
0.0000
 20
0.0000
 30
0.0000
 40
0.2032
 41
0.2032
 70
0
  0
VERTEX
  8
48
 10
59.6900
 20
30.3784
 30
0.0000
 42
1.0000
  0
VERTEX
  8
48
 10
59.6900
 20
30.5816
 30
0.0000
  0
SEQEND
  8
0
  0
POLYLINE
  8
48
 66
1
 10
0.0000
 20
0.0000
 30
0.0000
 40
0.2032
 41
0.2032
 70
0
  0
VERTEX
  8
48
 10
5.7150
 20
30.5816
 30
0.0000
 42
1.0000
  0
VERTEX
  8
48
 10
5.7150
 20
30.3784
 30
0.0000
  0
SEQEND
  8
0
  0
POLYLINE
  8
48
 66
1
 10
0.0000
 20
0.0000
 30
0.0000
 40
0.4064
 41
0.4064
 70
0
  0
VERTEX
  8
48
 10
5.7150
 20
30.8864
 30
0.0000
  0
VERTEX
  8
48
 10
59.6900
 20
30.8864
 30
0.0000
  0
SEQEND
  8
0
  0
POLYLINE
  8
48
 66
1
 10
0.0000
 20
0.0000
 30
0.0000
 40
0.2032
 41
0.2032
 70
0
  0
VERTEX
  8
48
 10
59.6900
 20
30.7848
 30
0.0000
 42
1.0000
  0
VERTEX
  8
48
 10
59.6900
 20
30.9880
 30
0.0000
  0
SEQEND
  8
0
  0
POLYLINE
  8
48
 66
1
 10
0.0000
 20
0.0000
 30
0.0000
 40
0.2032
 41
0.2032
 70
0
  0
VERTEX
  8
48
 10
5.7150
 20
30.9880
 30
0.0000
 42
1.0000
  0
VERTEX
  8
48
 10
5.7150
 20
30.7848
 30
0.0000
  0
SEQEND
  8
0
  0
POLYLINE
  8
48
 66
1
 10
0.0000
 20
0.0000
 30
0.0000
 40
0.4064
 41
0.4064
 70
0
  0
VERTEX
  8
48
 10
5.7150
 20
31.2928
 30
0.0000
  0
VERTEX
  8
48
 10
59.6900
 20
31.2928
 30
0.0000
  0
SEQEND
  8
0
  0
POLYLINE
  8
48
 66
1
 10
0.0000
 20
0.0000
 30
0.0000
 40
0.2032
 41
0.2032
 70
0
  0
VERTEX
  8
48
 10
59.6900
 20
31.1912
 30
0.0000
 42
1.0000
  0
VERTEX
  8
48
 10
59.6900
 20
31.3944
 30
0.0000
  0
SEQEND
  8
0
  0
POLYLINE
  8
48
 66
1
 10
0.0000
 20
0.0000
 30
0.0000
 40
0.2032
 41
0.2032
 70
0
  0
VERTEX
  8
48
 10
5.7150
 20
31.3944
 30
0.0000
 42
1.0000
  0
VERTEX
  8
48
 10
5.7150
 20
31.1912
 30
0.0000
  0
SEQEND
  8
0
  0
POLYLINE
  8
48
 66
1
 10
0.0000
 20
0.0000
 30
0.0000
 40
0.4064
 41
0.4064
 70
0
  0
VERTEX
  8
48
 10
5.7150
 20
31.6992
 30
0.0000
  0
VERTEX
  8
48
 10
59.6900
 20
31.6992
 30
0.0000
  0
SEQEND
  8
0
  0
POLYLINE
  8
48
 66
1
 10
0.0000
 20
0.0000
 30
0.0000
 40
0.2032
 41
0.2032
 70
0
  0
VERTEX
  8
48
 10
59.6900
 20
31.5976
 30
0.0000
 42
1.0000
  0
VERTEX
  8
48
 10
59.6900
 20
31.8008
 30
0.0000
  0
SEQEND
  8
0
  0
POLYLINE
  8
48
 66
1
 10
0.0000
 20
0.0000
 30
0.0000
 40
0.2032
 41
0.2032
 70
0
  0
VERTEX
  8
48
 10
5.7150
 20
31.8008
 30
0.0000
 42
1.0000
  0
VERTEX
  8
48
 10
5.7150
 20
31.5976
 30
0.0000
  0
SEQEND
  8
0
  0
POLYLINE
  8
48
 66
1
 10
0.0000
 20
0.0000
 30
0.0000
 40
0.4064
 41
0.4064
 70
0
  0
VERTEX
  8
48
 10
5.7150
 20
32.1056
 30
0.0000
  0
VERTEX
  8
48
 10
59.6900
 20
32.1056
 30
0.0000
  0
SEQEND
  8
0
  0
POLYLINE
  8
48
 66
1
 10
0.0000
 20
0.0000
 30
0.0000
 40
0.2032
 41
0.2032
 70
0
  0
VERTEX
  8
48
 10
59.6900
 20
32.0040
 30
0.0000
 42
1.0000
  0
VERTEX
  8
48
 10
59.6900
 20
32.2072
 30
0.0000
  0
SEQEND
  8
0
  0
POLYLINE
  8
48
 66
1
 10
0.0000
 20
0.0000
 30
0.0000
 40
0.2032
 41
0.2032
 70
0
  0
VERTEX
  8
48
 10
5.7150
 20
32.2072
 30
0.0000
 42
1.0000
  0
VERTEX
  8
48
 10
5.7150
 20
32.0040
 30
0.0000
  0
SEQEND
  8
0
  0
POLYLINE
  8
48
 66
1
 10
0.0000
 20
0.0000
 30
0.0000
 40
0.4064
 41
0.4064
 70
0
  0
VERTEX
  8
48
 10
5.7150
 20
32.5120
 30
0.0000
  0
VERTEX
  8
48
 10
59.6900
 20
32.5120
 30
0.0000
  0
SEQEND
  8
0
  0
POLYLINE
  8
48
 66
1
 10
0.0000
 20
0.0000
 30
0.0000
 40
0.2032
 41
0.2032
 70
0
  0
VERTEX
  8
48
 10
59.6900
 20
32.4104
 30
0.0000
 42
1.0000
  0
VERTEX
  8
48
 10
59.6900
 20
32.6136
 30
0.0000
  0
SEQEND
  8
0
  0
POLYLINE
  8
48
 66
1
 10
0.0000
 20
0.0000
 30
0.0000
 40
0.2032
 41
0.2032
 70
0
  0
VERTEX
  8
48
 10
5.7150
 20
32.6136
 30
0.0000
 42
1.0000
  0
VERTEX
  8
48
 10
5.7150
 20
32.4104
 30
0.0000
  0
SEQEND
  8
0
  0
POLYLINE
  8
48
 66
1
 10
0.0000
 20
0.0000
 30
0.0000
 40
0.4064
 41
0.4064
 70
0
  0
VERTEX
  8
48
 10
5.7150
 20
32.9184
 30
0.0000
  0
VERTEX
  8
48
 10
59.6900
 20
32.9184
 30
0.0000
  0
SEQEND
  8
0
  0
POLYLINE
  8
48
 66
1
 10
0.0000
 20
0.0000
 30
0.0000
 40
0.2032
 41
0.2032
 70
0
  0
VERTEX
  8
48
 10
59.6900
 20
32.8168
 30
0.0000
 42
1.0000
  0
VERTEX
  8
48
 10
59.6900
 20
33.0200
 30
0.0000
  0
SEQEND
  8
0
  0
POLYLINE
  8
48
 66
1
 10
0.0000
 20
0.0000
 30
0.0000
 40
0.2032
 41
0.2032
 70
0
  0
VERTEX
  8
48
 10
5.7150
 20
33.0200
 30
0.0000
 42
1.0000
  0
VERTEX
  8
48
 10
5.7150
 20
32.8168
 30
0.0000
  0
SEQEND
  8
0
  0
POLYLINE
  8
48
 66
1
 10
0.0000
 20
0.0000
 30
0.0000
 40
0.4064
 41
0.4064
 70
0
  0
VERTEX
  8
48
 10
5.7150
 20
33.3248
 30
0.0000
  0
VERTEX
  8
48
 10
59.6900
 20
33.3248
 30
0.0000
  0
SEQEND
  8
0
  0
POLYLINE
  8
48
 66
1
 10
0.0000
 20
0.0000
 30
0.0000
 40
0.2032
 41
0.2032
 70
0
  0
VERTEX
  8
48
 10
59.6900
 20
33.2232
 30
0.0000
 42
1.0000
  0
VERTEX
  8
48
 10
59.6900
 20
33.4264
 30
0.0000
  0
SEQEND
  8
0
  0
POLYLINE
  8
48
 66
1
 10
0.0000
 20
0.0000
 30
0.0000
 40
0.2032
 41
0.2032
 70
0
  0
VERTEX
  8
48
 10
5.7150
 20
33.4264
 30
0.0000
 42
1.0000
  0
VERTEX
  8
48
 10
5.7150
 20
33.2232
 30
0.0000
  0
SEQEND
  8
0
  0
POLYLINE
  8
48
 66
1
 10
0.0000
 20
0.0000
 30
0.0000
 40
0.4064
 41
0.4064
 70
0
  0
VERTEX
  8
48
 10
5.7150
 20
33.7312
 30
0.0000
  0
VERTEX
  8
48
 10
59.6900
 20
33.7312
 30
0.0000
  0
SEQEND
  8
0
  0
POLYLINE
  8
48
 66
1
 10
0.0000
 20
0.0000
 30
0.0000
 40
0.2032
 41
0.2032
 70
0
  0
VERTEX
  8
48
 10
59.6900
 20
33.6296
 30
0.0000
 42
1.0000
  0
VERTEX
  8
48
 10
59.6900
 20
33.8328
 30
0.0000
  0
SEQEND
  8
0
  0
POLYLINE
  8
48
 66
1
 10
0.0000
 20
0.0000
 30
0.0000
 40
0.2032
 41
0.2032
 70
0
  0
VERTEX
  8
48
 10
5.7150
 20
33.8328
 30
0.0000
 42
1.0000
  0
VERTEX
  8
48
 10
5.7150
 20
33.6296
 30
0.0000
  0
SEQEND
  8
0
  0
POLYLINE
  8
48
 66
1
 10
0.0000
 20
0.0000
 30
0.0000
 40
0.4064
 41
0.4064
 70
0
  0
VERTEX
  8
48
 10
5.7150
 20
34.1376
 30
0.0000
  0
VERTEX
  8
48
 10
59.6900
 20
34.1376
 30
0.0000
  0
SEQEND
  8
0
  0
POLYLINE
  8
48
 66
1
 10
0.0000
 20
0.0000
 30
0.0000
 40
0.2032
 41
0.2032
 70
0
  0
VERTEX
  8
48
 10
59.6900
 20
34.0360
 30
0.0000
 42
1.0000
  0
VERTEX
  8
48
 10
59.6900
 20
34.2392
 30
0.0000
  0
SEQEND
  8
0
  0
POLYLINE
  8
48
 66
1
 10
0.0000
 20
0.0000
 30
0.0000
 40
0.2032
 41
0.2032
 70
0
  0
VERTEX
  8
48
 10
5.7150
 20
34.2392
 30
0.0000
 42
1.0000
  0
VERTEX
  8
48
 10
5.7150
 20
34.0360
 30
0.0000
  0
SEQEND
  8
0
  0
POLYLINE
  8
48
 66
1
 10
0.0000
 20
0.0000
 30
0.0000
 40
0.4064
 41
0.4064
 70
0
  0
VERTEX
  8
48
 10
5.7150
 20
34.5440
 30
0.0000
  0
VERTEX
  8
48
 10
59.6900
 20
34.5440
 30
0.0000
  0
SEQEND
  8
0
  0
POLYLINE
  8
48
 66
1
 10
0.0000
 20
0.0000
 30
0.0000
 40
0.2032
 41
0.2032
 70
0
  0
VERTEX
  8
48
 10
59.6900
 20
34.4424
 30
0.0000
 42
1.0000
  0
VERTEX
  8
48
 10
59.6900
 20
34.6456
 30
0.0000
  0
SEQEND
  8
0
  0
POLYLINE
  8
48
 66
1
 10
0.0000
 20
0.0000
 30
0.0000
 40
0.2032
 41
0.2032
 70
0
  0
VERTEX
  8
48
 10
5.7150
 20
34.6456
 30
0.0000
 42
1.0000
  0
VERTEX
  8
48
 10
5.7150
 20
34.4424
 30
0.0000
  0
SEQEND
  8
0
  0
POLYLINE
  8
48
 66
1
 10
0.0000
 20
0.0000
 30
0.0000
 40
0.4064
 41
0.4064
 70
0
  0
VERTEX
  8
48
 10
5.7150
 20
34.9504
 30
0.0000
  0
VERTEX
  8
48
 10
59.6900
 20
34.9504
 30
0.0000
  0
SEQEND
  8
0
  0
POLYLINE
  8
48
 66
1
 10
0.0000
 20
0.0000
 30
0.0000
 40
0.2032
 41
0.2032
 70
0
  0
VERTEX
  8
48
 10
59.6900
 20
34.8488
 30
0.0000
 42
1.0000
  0
VERTEX
  8
48
 10
59.6900
 20
35.0520
 30
0.0000
  0
SEQEND
  8
0
  0
POLYLINE
  8
48
 66
1
 10
0.0000
 20
0.0000
 30
0.0000
 40
0.2032
 41
0.2032
 70
0
  0
VERTEX
  8
48
 10
5.7150
 20
35.0520
 30
0.0000
 42
1.0000
  0
VERTEX
  8
48
 10
5.7150
 20
34.8488
 30
0.0000
  0
SEQEND
  8
0
  0
POLYLINE
  8
48
 66
1
 10
0.0000
 20
0.0000
 30
0.0000
 40
0.4064
 41
0.4064
 70
0
  0
VERTEX
  8
48
 10
5.7150
 20
35.3568
 30
0.0000
  0
VERTEX
  8
48
 10
59.6900
 20
35.3568
 30
0.0000
  0
SEQEND
  8
0
  0
POLYLINE
  8
48
 66
1
 10
0.0000
 20
0.0000
 30
0.0000
 40
0.2032
 41
0.2032
 70
0
  0
VERTEX
  8
48
 10
59.6900
 20
35.2552
 30
0.0000
 42
1.0000
  0
VERTEX
  8
48
 10
59.6900
 20
35.4584
 30
0.0000
  0
SEQEND
  8
0
  0
POLYLINE
  8
48
 66
1
 10
0.0000
 20
0.0000
 30
0.0000
 40
0.2032
 41
0.2032
 70
0
  0
VERTEX
  8
48
 10
5.7150
 20
35.4584
 30
0.0000
 42
1.0000
  0
VERTEX
  8
48
 10
5.7150
 20
35.2552
 30
0.0000
  0
SEQEND
  8
0
  0
POLYLINE
  8
48
 66
1
 10
0.0000
 20
0.0000
 30
0.0000
 40
0.4064
 41
0.4064
 70
0
  0
VERTEX
  8
48
 10
5.7150
 20
35.7632
 30
0.0000
  0
VERTEX
  8
48
 10
59.6900
 20
35.7632
 30
0.0000
  0
SEQEND
  8
0
  0
POLYLINE
  8
48
 66
1
 10
0.0000
 20
0.0000
 30
0.0000
 40
0.2032
 41
0.2032
 70
0
  0
VERTEX
  8
48
 10
59.6900
 20
35.6616
 30
0.0000
 42
1.0000
  0
VERTEX
  8
48
 10
59.6900
 20
35.8648
 30
0.0000
  0
SEQEND
  8
0
  0
POLYLINE
  8
48
 66
1
 10
0.0000
 20
0.0000
 30
0.0000
 40
0.2032
 41
0.2032
 70
0
  0
VERTEX
  8
48
 10
5.7150
 20
35.8648
 30
0.0000
 42
1.0000
  0
VERTEX
  8
48
 10
5.7150
 20
35.6616
 30
0.0000
  0
SEQEND
  8
0
  0
POLYLINE
  8
48
 66
1
 10
0.0000
 20
0.0000
 30
0.0000
 40
0.4064
 41
0.4064
 70
0
  0
VERTEX
  8
48
 10
5.7150
 20
36.1696
 30
0.0000
  0
VERTEX
  8
48
 10
59.6900
 20
36.1696
 30
0.0000
  0
SEQEND
  8
0
  0
POLYLINE
  8
48
 66
1
 10
0.0000
 20
0.0000
 30
0.0000
 40
0.2032
 41
0.2032
 70
0
  0
VERTEX
  8
48
 10
59.6900
 20
36.0680
 30
0.0000
 42
1.0000
  0
VERTEX
  8
48
 10
59.6900
 20
36.2712
 30
0.0000
  0
SEQEND
  8
0
  0
POLYLINE
  8
48
 66
1
 10
0.0000
 20
0.0000
 30
0.0000
 40
0.2032
 41
0.2032
 70
0
  0
VERTEX
  8
48
 10
5.7150
 20
36.2712
 30
0.0000
 42
1.0000
  0
VERTEX
  8
48
 10
5.7150
 20
36.0680
 30
0.0000
  0
SEQEND
  8
0
  0
POLYLINE
  8
48
 66
1
 10
0.0000
 20
0.0000
 30
0.0000
 40
0.4064
 41
0.4064
 70
0
  0
VERTEX
  8
48
 10
5.7150
 20
36.5760
 30
0.0000
  0
VERTEX
  8
48
 10
59.6900
 20
36.5760
 30
0.0000
  0
SEQEND
  8
0
  0
POLYLINE
  8
48
 66
1
 10
0.0000
 20
0.0000
 30
0.0000
 40
0.2032
 41
0.2032
 70
0
  0
VERTEX
  8
48
 10
59.6900
 20
36.4744
 30
0.0000
 42
1.0000
  0
VERTEX
  8
48
 10
59.6900
 20
36.6776
 30
0.0000
  0
SEQEND
  8
0
  0
POLYLINE
  8
48
 66
1
 10
0.0000
 20
0.0000
 30
0.0000
 40
0.2032
 41
0.2032
 70
0
  0
VERTEX
  8
48
 10
5.7150
 20
36.6776
 30
0.0000
 42
1.0000
  0
VERTEX
  8
48
 10
5.7150
 20
36.4744
 30
0.0000
  0
SEQEND
  8
0
  0
POLYLINE
  8
48
 66
1
 10
0.0000
 20
0.0000
 30
0.0000
 40
0.4064
 41
0.4064
 70
0
  0
VERTEX
  8
48
 10
5.7150
 20
36.9824
 30
0.0000
  0
VERTEX
  8
48
 10
59.6900
 20
36.9824
 30
0.0000
  0
SEQEND
  8
0
  0
POLYLINE
  8
48
 66
1
 10
0.0000
 20
0.0000
 30
0.0000
 40
0.2032
 41
0.2032
 70
0
  0
VERTEX
  8
48
 10
59.6900
 20
36.8808
 30
0.0000
 42
1.0000
  0
VERTEX
  8
48
 10
59.6900
 20
37.0840
 30
0.0000
  0
SEQEND
  8
0
  0
POLYLINE
  8
48
 66
1
 10
0.0000
 20
0.0000
 30
0.0000
 40
0.2032
 41
0.2032
 70
0
  0
VERTEX
  8
48
 10
5.7150
 20
37.0840
 30
0.0000
 42
1.0000
  0
VERTEX
  8
48
 10
5.7150
 20
36.8808
 30
0.0000
  0
SEQEND
  8
0
  0
POLYLINE
  8
48
 66
1
 10
0.0000
 20
0.0000
 30
0.0000
 40
0.4064
 41
0.4064
 70
0
  0
VERTEX
  8
48
 10
5.7150
 20
37.3888
 30
0.0000
  0
VERTEX
  8
48
 10
59.6900
 20
37.3888
 30
0.0000
  0
SEQEND
  8
0
  0
POLYLINE
  8
48
 66
1
 10
0.0000
 20
0.0000
 30
0.0000
 40
0.2032
 41
0.2032
 70
0
  0
VERTEX
  8
48
 10
59.6900
 20
37.2872
 30
0.0000
 42
1.0000
  0
VERTEX
  8
48
 10
59.6900
 20
37.4904
 30
0.0000
  0
SEQEND
  8
0
  0
POLYLINE
  8
48
 66
1
 10
0.0000
 20
0.0000
 30
0.0000
 40
0.2032
 41
0.2032
 70
0
  0
VERTEX
  8
48
 10
5.7150
 20
37.4904
 30
0.0000
 42
1.0000
  0
VERTEX
  8
48
 10
5.7150
 20
37.2872
 30
0.0000
  0
SEQEND
  8
0
  0
POLYLINE
  8
48
 66
1
 10
0.0000
 20
0.0000
 30
0.0000
 40
0.4064
 41
0.4064
 70
0
  0
VERTEX
  8
48
 10
5.7150
 20
37.7952
 30
0.0000
  0
VERTEX
  8
48
 10
59.6900
 20
37.7952
 30
0.0000
  0
SEQEND
  8
0
  0
POLYLINE
  8
48
 66
1
 10
0.0000
 20
0.0000
 30
0.0000
 40
0.2032
 41
0.2032
 70
0
  0
VERTEX
  8
48
 10
59.6900
 20
37.6936
 30
0.0000
 42
1.0000
  0
VERTEX
  8
48
 10
59.6900
 20
37.8968
 30
0.0000
  0
SEQEND
  8
0
  0
POLYLINE
  8
48
 66
1
 10
0.0000
 20
0.0000
 30
0.0000
 40
0.2032
 41
0.2032
 70
0
  0
VERTEX
  8
48
 10
5.7150
 20
37.8968
 30
0.0000
 42
1.0000
  0
VERTEX
  8
48
 10
5.7150
 20
37.6936
 30
0.0000
  0
SEQEND
  8
0
  0
POLYLINE
  8
48
 66
1
 10
0.0000
 20
0.0000
 30
0.0000
 40
0.4064
 41
0.4064
 70
0
  0
VERTEX
  8
48
 10
5.7150
 20
38.2016
 30
0.0000
  0
VERTEX
  8
48
 10
59.6900
 20
38.2016
 30
0.0000
  0
SEQEND
  8
0
  0
POLYLINE
  8
48
 66
1
 10
0.0000
 20
0.0000
 30
0.0000
 40
0.2032
 41
0.2032
 70
0
  0
VERTEX
  8
48
 10
59.6900
 20
38.1000
 30
0.0000
 42
1.0000
  0
VERTEX
  8
48
 10
59.6900
 20
38.3032
 30
0.0000
  0
SEQEND
  8
0
  0
POLYLINE
  8
48
 66
1
 10
0.0000
 20
0.0000
 30
0.0000
 40
0.2032
 41
0.2032
 70
0
  0
VERTEX
  8
48
 10
5.7150
 20
38.3032
 30
0.0000
 42
1.0000
  0
VERTEX
  8
48
 10
5.7150
 20
38.1000
 30
0.0000
  0
SEQEND
  8
0
  0
POLYLINE
  8
48
 66
1
 10
0.0000
 20
0.0000
 30
0.0000
 40
0.4064
 41
0.4064
 70
0
  0
VERTEX
  8
48
 10
5.7150
 20
38.6080
 30
0.0000
  0
VERTEX
  8
48
 10
59.6900
 20
38.6080
 30
0.0000
  0
SEQEND
  8
0
  0
POLYLINE
  8
48
 66
1
 10
0.0000
 20
0.0000
 30
0.0000
 40
0.2032
 41
0.2032
 70
0
  0
VERTEX
  8
48
 10
59.6900
 20
38.5064
 30
0.0000
 42
1.0000
  0
VERTEX
  8
48
 10
59.6900
 20
38.7096
 30
0.0000
  0
SEQEND
  8
0
  0
POLYLINE
  8
48
 66
1
 10
0.0000
 20
0.0000
 30
0.0000
 40
0.2032
 41
0.2032
 70
0
  0
VERTEX
  8
48
 10
5.7150
 20
38.7096
 30
0.0000
 42
1.0000
  0
VERTEX
  8
48
 10
5.7150
 20
38.5064
 30
0.0000
  0
SEQEND
  8
0
  0
POLYLINE
  8
48
 66
1
 10
0.0000
 20
0.0000
 30
0.0000
 40
0.4064
 41
0.4064
 70
0
  0
VERTEX
  8
48
 10
5.7150
 20
39.0144
 30
0.0000
  0
VERTEX
  8
48
 10
59.6900
 20
39.0144
 30
0.0000
  0
SEQEND
  8
0
  0
POLYLINE
  8
48
 66
1
 10
0.0000
 20
0.0000
 30
0.0000
 40
0.2032
 41
0.2032
 70
0
  0
VERTEX
  8
48
 10
59.6900
 20
38.9128
 30
0.0000
 42
1.0000
  0
VERTEX
  8
48
 10
59.6900
 20
39.1160
 30
0.0000
  0
SEQEND
  8
0
  0
POLYLINE
  8
48
 66
1
 10
0.0000
 20
0.0000
 30
0.0000
 40
0.2032
 41
0.2032
 70
0
  0
VERTEX
  8
48
 10
5.7150
 20
39.1160
 30
0.0000
 42
1.0000
  0
VERTEX
  8
48
 10
5.7150
 20
38.9128
 30
0.0000
  0
SEQEND
  8
0
  0
POLYLINE
  8
48
 66
1
 10
0.0000
 20
0.0000
 30
0.0000
 40
0.4064
 41
0.4064
 70
0
  0
VERTEX
  8
48
 10
5.7150
 20
39.4208
 30
0.0000
  0
VERTEX
  8
48
 10
59.6900
 20
39.4208
 30
0.0000
  0
SEQEND
  8
0
  0
POLYLINE
  8
48
 66
1
 10
0.0000
 20
0.0000
 30
0.0000
 40
0.2032
 41
0.2032
 70
0
  0
VERTEX
  8
48
 10
59.6900
 20
39.3192
 30
0.0000
 42
1.0000
  0
VERTEX
  8
48
 10
59.6900
 20
39.5224
 30
0.0000
  0
SEQEND
  8
0
  0
POLYLINE
  8
48
 66
1
 10
0.0000
 20
0.0000
 30
0.0000
 40
0.2032
 41
0.2032
 70
0
  0
VERTEX
  8
48
 10
5.7150
 20
39.5224
 30
0.0000
 42
1.0000
  0
VERTEX
  8
48
 10
5.7150
 20
39.3192
 30
0.0000
  0
SEQEND
  8
0
  0
POLYLINE
  8
48
 66
1
 10
0.0000
 20
0.0000
 30
0.0000
 40
0.4064
 41
0.4064
 70
0
  0
VERTEX
  8
48
 10
5.7150
 20
39.8272
 30
0.0000
  0
VERTEX
  8
48
 10
59.6900
 20
39.8272
 30
0.0000
  0
SEQEND
  8
0
  0
POLYLINE
  8
48
 66
1
 10
0.0000
 20
0.0000
 30
0.0000
 40
0.2032
 41
0.2032
 70
0
  0
VERTEX
  8
48
 10
59.6900
 20
39.7256
 30
0.0000
 42
1.0000
  0
VERTEX
  8
48
 10
59.6900
 20
39.9288
 30
0.0000
  0
SEQEND
  8
0
  0
POLYLINE
  8
48
 66
1
 10
0.0000
 20
0.0000
 30
0.0000
 40
0.2032
 41
0.2032
 70
0
  0
VERTEX
  8
48
 10
5.7150
 20
39.9288
 30
0.0000
 42
1.0000
  0
VERTEX
  8
48
 10
5.7150
 20
39.7256
 30
0.0000
  0
SEQEND
  8
0
  0
POLYLINE
  8
48
 66
1
 10
0.0000
 20
0.0000
 30
0.0000
 40
0.4064
 41
0.4064
 70
0
  0
VERTEX
  8
48
 10
5.7150
 20
40.2336
 30
0.0000
  0
VERTEX
  8
48
 10
59.6900
 20
40.2336
 30
0.0000
  0
SEQEND
  8
0
  0
POLYLINE
  8
48
 66
1
 10
0.0000
 20
0.0000
 30
0.0000
 40
0.2032
 41
0.2032
 70
0
  0
VERTEX
  8
48
 10
59.6900
 20
40.1320
 30
0.0000
 42
1.0000
  0
VERTEX
  8
48
 10
59.6900
 20
40.3352
 30
0.0000
  0
SEQEND
  8
0
  0
POLYLINE
  8
48
 66
1
 10
0.0000
 20
0.0000
 30
0.0000
 40
0.2032
 41
0.2032
 70
0
  0
VERTEX
  8
48
 10
5.7150
 20
40.3352
 30
0.0000
 42
1.0000
  0
VERTEX
  8
48
 10
5.7150
 20
40.1320
 30
0.0000
  0
SEQEND
  8
0
  0
POLYLINE
  8
48
 66
1
 10
0.0000
 20
0.0000
 30
0.0000
 40
0.4064
 41
0.4064
 70
0
  0
VERTEX
  8
48
 10
5.7150
 20
40.6400
 30
0.0000
  0
VERTEX
  8
48
 10
59.6900
 20
40.6400
 30
0.0000
  0
SEQEND
  8
0
  0
POLYLINE
  8
48
 66
1
 10
0.0000
 20
0.0000
 30
0.0000
 40
0.2032
 41
0.2032
 70
0
  0
VERTEX
  8
48
 10
59.6900
 20
40.5384
 30
0.0000
 42
1.0000
  0
VERTEX
  8
48
 10
59.6900
 20
40.7416
 30
0.0000
  0
SEQEND
  8
0
  0
POLYLINE
  8
48
 66
1
 10
0.0000
 20
0.0000
 30
0.0000
 40
0.2032
 41
0.2032
 70
0
  0
VERTEX
  8
48
 10
5.7150
 20
40.7416
 30
0.0000
 42
1.0000
  0
VERTEX
  8
48
 10
5.7150
 20
40.5384
 30
0.0000
  0
SEQEND
  8
0
  0
POLYLINE
  8
48
 66
1
 10
0.0000
 20
0.0000
 30
0.0000
 40
0.4064
 41
0.4064
 70
0
  0
VERTEX
  8
48
 10
5.7150
 20
41.0464
 30
0.0000
  0
VERTEX
  8
48
 10
59.6900
 20
41.0464
 30
0.0000
  0
SEQEND
  8
0
  0
POLYLINE
  8
48
 66
1
 10
0.0000
 20
0.0000
 30
0.0000
 40
0.2032
 41
0.2032
 70
0
  0
VERTEX
  8
48
 10
59.6900
 20
40.9448
 30
0.0000
 42
1.0000
  0
VERTEX
  8
48
 10
59.6900
 20
41.1480
 30
0.0000
  0
SEQEND
  8
0
  0
POLYLINE
  8
48
 66
1
 10
0.0000
 20
0.0000
 30
0.0000
 40
0.2032
 41
0.2032
 70
0
  0
VERTEX
  8
48
 10
5.7150
 20
41.1480
 30
0.0000
 42
1.0000
  0
VERTEX
  8
48
 10
5.7150
 20
40.9448
 30
0.0000
  0
SEQEND
  8
0
  0
POLYLINE
  8
48
 66
1
 10
0.0000
 20
0.0000
 30
0.0000
 40
0.4064
 41
0.4064
 70
0
  0
VERTEX
  8
48
 10
5.7150
 20
41.4528
 30
0.0000
  0
VERTEX
  8
48
 10
59.6900
 20
41.4528
 30
0.0000
  0
SEQEND
  8
0
  0
POLYLINE
  8
48
 66
1
 10
0.0000
 20
0.0000
 30
0.0000
 40
0.2032
 41
0.2032
 70
0
  0
VERTEX
  8
48
 10
59.6900
 20
41.3512
 30
0.0000
 42
1.0000
  0
VERTEX
  8
48
 10
59.6900
 20
41.5544
 30
0.0000
  0
SEQEND
  8
0
  0
POLYLINE
  8
48
 66
1
 10
0.0000
 20
0.0000
 30
0.0000
 40
0.2032
 41
0.2032
 70
0
  0
VERTEX
  8
48
 10
5.7150
 20
41.5544
 30
0.0000
 42
1.0000
  0
VERTEX
  8
48
 10
5.7150
 20
41.3512
 30
0.0000
  0
SEQEND
  8
0
  0
POLYLINE
  8
48
 66
1
 10
0.0000
 20
0.0000
 30
0.0000
 40
0.4064
 41
0.4064
 70
0
  0
VERTEX
  8
48
 10
5.7150
 20
41.8592
 30
0.0000
  0
VERTEX
  8
48
 10
59.6900
 20
41.8592
 30
0.0000
  0
SEQEND
  8
0
  0
POLYLINE
  8
48
 66
1
 10
0.0000
 20
0.0000
 30
0.0000
 40
0.2032
 41
0.2032
 70
0
  0
VERTEX
  8
48
 10
59.6900
 20
41.7576
 30
0.0000
 42
1.0000
  0
VERTEX
  8
48
 10
59.6900
 20
41.9608
 30
0.0000
  0
SEQEND
  8
0
  0
POLYLINE
  8
48
 66
1
 10
0.0000
 20
0.0000
 30
0.0000
 40
0.2032
 41
0.2032
 70
0
  0
VERTEX
  8
48
 10
5.7150
 20
41.9608
 30
0.0000
 42
1.0000
  0
VERTEX
  8
48
 10
5.7150
 20
41.7576
 30
0.0000
  0
SEQEND
  8
0
  0
POLYLINE
  8
48
 66
1
 10
0.0000
 20
0.0000
 30
0.0000
 40
0.4064
 41
0.4064
 70
0
  0
VERTEX
  8
48
 10
5.7150
 20
42.2656
 30
0.0000
  0
VERTEX
  8
48
 10
59.6900
 20
42.2656
 30
0.0000
  0
SEQEND
  8
0
  0
POLYLINE
  8
48
 66
1
 10
0.0000
 20
0.0000
 30
0.0000
 40
0.2032
 41
0.2032
 70
0
  0
VERTEX
  8
48
 10
59.6900
 20
42.1640
 30
0.0000
 42
1.0000
  0
VERTEX
  8
48
 10
59.6900
 20
42.3672
 30
0.0000
  0
SEQEND
  8
0
  0
POLYLINE
  8
48
 66
1
 10
0.0000
 20
0.0000
 30
0.0000
 40
0.2032
 41
0.2032
 70
0
  0
VERTEX
  8
48
 10
5.7150
 20
42.3672
 30
0.0000
 42
1.0000
  0
VERTEX
  8
48
 10
5.7150
 20
42.1640
 30
0.0000
  0
SEQEND
  8
0
  0
POLYLINE
  8
48
 66
1
 10
0.0000
 20
0.0000
 30
0.0000
 40
0.4064
 41
0.4064
 70
0
  0
VERTEX
  8
48
 10
5.7150
 20
42.6720
 30
0.0000
  0
VERTEX
  8
48
 10
59.6900
 20
42.6720
 30
0.0000
  0
SEQEND
  8
0
  0
POLYLINE
  8
48
 66
1
 10
0.0000
 20
0.0000
 30
0.0000
 40
0.2032
 41
0.2032
 70
0
  0
VERTEX
  8
48
 10
59.6900
 20
42.5704
 30
0.0000
 42
1.0000
  0
VERTEX
  8
48
 10
59.6900
 20
42.7736
 30
0.0000
  0
SEQEND
  8
0
  0
POLYLINE
  8
48
 66
1
 10
0.0000
 20
0.0000
 30
0.0000
 40
0.2032
 41
0.2032
 70
0
  0
VERTEX
  8
48
 10
5.7150
 20
42.7736
 30
0.0000
 42
1.0000
  0
VERTEX
  8
48
 10
5.7150
 20
42.5704
 30
0.0000
  0
SEQEND
  8
0
  0
POLYLINE
  8
48
 66
1
 10
0.0000
 20
0.0000
 30
0.0000
 40
0.4064
 41
0.4064
 70
0
  0
VERTEX
  8
48
 10
5.7150
 20
43.0784
 30
0.0000
  0
VERTEX
  8
48
 10
59.6900
 20
43.0784
 30
0.0000
  0
SEQEND
  8
0
  0
POLYLINE
  8
48
 66
1
 10
0.0000
 20
0.0000
 30
0.0000
 40
0.2032
 41
0.2032
 70
0
  0
VERTEX
  8
48
 10
59.6900
 20
42.9768
 30
0.0000
 42
1.0000
  0
VERTEX
  8
48
 10
59.6900
 20
43.1800
 30
0.0000
  0
SEQEND
  8
0
  0
POLYLINE
  8
48
 66
1
 10
0.0000
 20
0.0000
 30
0.0000
 40
0.2032
 41
0.2032
 70
0
  0
VERTEX
  8
48
 10
5.7150
 20
43.1800
 30
0.0000
 42
1.0000
  0
VERTEX
  8
48
 10
5.7150
 20
42.9768
 30
0.0000
  0
SEQEND
  8
0
  0
POLYLINE
  8
48
 66
1
 10
0.0000
 20
0.0000
 30
0.0000
 40
0.4064
 41
0.4064
 70
0
  0
VERTEX
  8
48
 10
5.7150
 20
43.4848
 30
0.0000
  0
VERTEX
  8
48
 10
59.6900
 20
43.4848
 30
0.0000
  0
SEQEND
  8
0
  0
POLYLINE
  8
48
 66
1
 10
0.0000
 20
0.0000
 30
0.0000
 40
0.2032
 41
0.2032
 70
0
  0
VERTEX
  8
48
 10
59.6900
 20
43.3832
 30
0.0000
 42
1.0000
  0
VERTEX
  8
48
 10
59.6900
 20
43.5864
 30
0.0000
  0
SEQEND
  8
0
  0
POLYLINE
  8
48
 66
1
 10
0.0000
 20
0.0000
 30
0.0000
 40
0.2032
 41
0.2032
 70
0
  0
VERTEX
  8
48
 10
5.7150
 20
43.5864
 30
0.0000
 42
1.0000
  0
VERTEX
  8
48
 10
5.7150
 20
43.3832
 30
0.0000
  0
SEQEND
  8
0
  0
POLYLINE
  8
48
 66
1
 10
0.0000
 20
0.0000
 30
0.0000
 40
0.4064
 41
0.4064
 70
0
  0
VERTEX
  8
48
 10
5.7150
 20
43.8912
 30
0.0000
  0
VERTEX
  8
48
 10
59.6900
 20
43.8912
 30
0.0000
  0
SEQEND
  8
0
  0
POLYLINE
  8
48
 66
1
 10
0.0000
 20
0.0000
 30
0.0000
 40
0.2032
 41
0.2032
 70
0
  0
VERTEX
  8
48
 10
59.6900
 20
43.7896
 30
0.0000
 42
1.0000
  0
VERTEX
  8
48
 10
59.6900
 20
43.9928
 30
0.0000
  0
SEQEND
  8
0
  0
POLYLINE
  8
48
 66
1
 10
0.0000
 20
0.0000
 30
0.0000
 40
0.2032
 41
0.2032
 70
0
  0
VERTEX
  8
48
 10
5.7150
 20
43.9928
 30
0.0000
 42
1.0000
  0
VERTEX
  8
48
 10
5.7150
 20
43.7896
 30
0.0000
  0
SEQEND
  8
0
  0
POLYLINE
  8
48
 66
1
 10
0.0000
 20
0.0000
 30
0.0000
 40
0.4064
 41
0.4064
 70
0
  0
VERTEX
  8
48
 10
5.7150
 20
44.2976
 30
0.0000
  0
VERTEX
  8
48
 10
59.6900
 20
44.2976
 30
0.0000
  0
SEQEND
  8
0
  0
POLYLINE
  8
48
 66
1
 10
0.0000
 20
0.0000
 30
0.0000
 40
0.2032
 41
0.2032
 70
0
  0
VERTEX
  8
48
 10
59.6900
 20
44.1960
 30
0.0000
 42
1.0000
  0
VERTEX
  8
48
 10
59.6900
 20
44.3992
 30
0.0000
  0
SEQEND
  8
0
  0
POLYLINE
  8
48
 66
1
 10
0.0000
 20
0.0000
 30
0.0000
 40
0.2032
 41
0.2032
 70
0
  0
VERTEX
  8
48
 10
5.7150
 20
44.3992
 30
0.0000
 42
1.0000
  0
VERTEX
  8
48
 10
5.7150
 20
44.1960
 30
0.0000
  0
SEQEND
  8
0
  0
POLYLINE
  8
48
 66
1
 10
0.0000
 20
0.0000
 30
0.0000
 40
0.4064
 41
0.4064
 70
0
  0
VERTEX
  8
48
 10
5.7150
 20
44.7040
 30
0.0000
  0
VERTEX
  8
48
 10
59.6900
 20
44.7040
 30
0.0000
  0
SEQEND
  8
0
  0
POLYLINE
  8
48
 66
1
 10
0.0000
 20
0.0000
 30
0.0000
 40
0.2032
 41
0.2032
 70
0
  0
VERTEX
  8
48
 10
59.6900
 20
44.6024
 30
0.0000
 42
1.0000
  0
VERTEX
  8
48
 10
59.6900
 20
44.8056
 30
0.0000
  0
SEQEND
  8
0
  0
POLYLINE
  8
48
 66
1
 10
0.0000
 20
0.0000
 30
0.0000
 40
0.2032
 41
0.2032
 70
0
  0
VERTEX
  8
48
 10
5.7150
 20
44.8056
 30
0.0000
 42
1.0000
  0
VERTEX
  8
48
 10
5.7150
 20
44.6024
 30
0.0000
  0
SEQEND
  8
0
  0
POLYLINE
  8
48
 66
1
 10
0.0000
 20
0.0000
 30
0.0000
 40
0.4064
 41
0.4064
 70
0
  0
VERTEX
  8
48
 10
5.7150
 20
45.1104
 30
0.0000
  0
VERTEX
  8
48
 10
59.6900
 20
45.1104
 30
0.0000
  0
SEQEND
  8
0
  0
POLYLINE
  8
48
 66
1
 10
0.0000
 20
0.0000
 30
0.0000
 40
0.2032
 41
0.2032
 70
0
  0
VERTEX
  8
48
 10
59.6900
 20
45.0088
 30
0.0000
 42
1.0000
  0
VERTEX
  8
48
 10
59.6900
 20
45.2120
 30
0.0000
  0
SEQEND
  8
0
  0
POLYLINE
  8
48
 66
1
 10
0.0000
 20
0.0000
 30
0.0000
 40
0.2032
 41
0.2032
 70
0
  0
VERTEX
  8
48
 10
5.7150
 20
45.2120
 30
0.0000
 42
1.0000
  0
VERTEX
  8
48
 10
5.7150
 20
45.0088
 30
0.0000
  0
SEQEND
  8
0
  0
POLYLINE
  8
48
 66
1
 10
0.0000
 20
0.0000
 30
0.0000
 40
0.4064
 41
0.4064
 70
0
  0
VERTEX
  8
48
 10
5.7150
 20
45.5168
 30
0.0000
  0
VERTEX
  8
48
 10
59.6900
 20
45.5168
 30
0.0000
  0
SEQEND
  8
0
  0
POLYLINE
  8
48
 66
1
 10
0.0000
 20
0.0000
 30
0.0000
 40
0.2032
 41
0.2032
 70
0
  0
VERTEX
  8
48
 10
59.6900
 20
45.4152
 30
0.0000
 42
1.0000
  0
VERTEX
  8
48
 10
59.6900
 20
45.6184
 30
0.0000
  0
SEQEND
  8
0
  0
POLYLINE
  8
48
 66
1
 10
0.0000
 20
0.0000
 30
0.0000
 40
0.2032
 41
0.2032
 70
0
  0
VERTEX
  8
48
 10
5.7150
 20
45.6184
 30
0.0000
 42
1.0000
  0
VERTEX
  8
48
 10
5.7150
 20
45.4152
 30
0.0000
  0
SEQEND
  8
0
  0
POLYLINE
  8
48
 66
1
 10
0.0000
 20
0.0000
 30
0.0000
 40
0.4064
 41
0.4064
 70
0
  0
VERTEX
  8
48
 10
5.7150
 20
45.9232
 30
0.0000
  0
VERTEX
  8
48
 10
59.6900
 20
45.9232
 30
0.0000
  0
SEQEND
  8
0
  0
POLYLINE
  8
48
 66
1
 10
0.0000
 20
0.0000
 30
0.0000
 40
0.2032
 41
0.2032
 70
0
  0
VERTEX
  8
48
 10
59.6900
 20
45.8216
 30
0.0000
 42
1.0000
  0
VERTEX
  8
48
 10
59.6900
 20
46.0248
 30
0.0000
  0
SEQEND
  8
0
  0
POLYLINE
  8
48
 66
1
 10
0.0000
 20
0.0000
 30
0.0000
 40
0.2032
 41
0.2032
 70
0
  0
VERTEX
  8
48
 10
5.7150
 20
46.0248
 30
0.0000
 42
1.0000
  0
VERTEX
  8
48
 10
5.7150
 20
45.8216
 30
0.0000
  0
SEQEND
  8
0
  0
POLYLINE
  8
48
 66
1
 10
0.0000
 20
0.0000
 30
0.0000
 40
0.4064
 41
0.4064
 70
0
  0
VERTEX
  8
48
 10
5.7150
 20
46.3296
 30
0.0000
  0
VERTEX
  8
48
 10
59.6900
 20
46.3296
 30
0.0000
  0
SEQEND
  8
0
  0
POLYLINE
  8
48
 66
1
 10
0.0000
 20
0.0000
 30
0.0000
 40
0.2032
 41
0.2032
 70
0
  0
VERTEX
  8
48
 10
59.6900
 20
46.2280
 30
0.0000
 42
1.0000
  0
VERTEX
  8
48
 10
59.6900
 20
46.4312
 30
0.0000
  0
SEQEND
  8
0
  0
POLYLINE
  8
48
 66
1
 10
0.0000
 20
0.0000
 30
0.0000
 40
0.2032
 41
0.2032
 70
0
  0
VERTEX
  8
48
 10
5.7150
 20
46.4312
 30
0.0000
 42
1.0000
  0
VERTEX
  8
48
 10
5.7150
 20
46.2280
 30
0.0000
  0
SEQEND
  8
0
  0
POLYLINE
  8
48
 66
1
 10
0.0000
 20
0.0000
 30
0.0000
 40
0.4064
 41
0.4064
 70
0
  0
VERTEX
  8
48
 10
5.7150
 20
46.7360
 30
0.0000
  0
VERTEX
  8
48
 10
59.6900
 20
46.7360
 30
0.0000
  0
SEQEND
  8
0
  0
POLYLINE
  8
48
 66
1
 10
0.0000
 20
0.0000
 30
0.0000
 40
0.2032
 41
0.2032
 70
0
  0
VERTEX
  8
48
 10
59.6900
 20
46.6344
 30
0.0000
 42
1.0000
  0
VERTEX
  8
48
 10
59.6900
 20
46.8376
 30
0.0000
  0
SEQEND
  8
0
  0
POLYLINE
  8
48
 66
1
 10
0.0000
 20
0.0000
 30
0.0000
 40
0.2032
 41
0.2032
 70
0
  0
VERTEX
  8
48
 10
5.7150
 20
46.8376
 30
0.0000
 42
1.0000
  0
VERTEX
  8
48
 10
5.7150
 20
46.6344
 30
0.0000
  0
SEQEND
  8
0
  0
POLYLINE
  8
48
 66
1
 10
0.0000
 20
0.0000
 30
0.0000
 40
0.4064
 41
0.4064
 70
0
  0
VERTEX
  8
48
 10
5.7150
 20
47.1424
 30
0.0000
  0
VERTEX
  8
48
 10
59.6900
 20
47.1424
 30
0.0000
  0
SEQEND
  8
0
  0
POLYLINE
  8
48
 66
1
 10
0.0000
 20
0.0000
 30
0.0000
 40
0.2032
 41
0.2032
 70
0
  0
VERTEX
  8
48
 10
59.6900
 20
47.0408
 30
0.0000
 42
1.0000
  0
VERTEX
  8
48
 10
59.6900
 20
47.2440
 30
0.0000
  0
SEQEND
  8
0
  0
POLYLINE
  8
48
 66
1
 10
0.0000
 20
0.0000
 30
0.0000
 40
0.2032
 41
0.2032
 70
0
  0
VERTEX
  8
48
 10
5.7150
 20
47.2440
 30
0.0000
 42
1.0000
  0
VERTEX
  8
48
 10
5.7150
 20
47.0408
 30
0.0000
  0
SEQEND
  8
0
  0
POLYLINE
  8
48
 66
1
 10
0.0000
 20
0.0000
 30
0.0000
 40
0.4064
 41
0.4064
 70
0
  0
VERTEX
  8
48
 10
5.7150
 20
47.5488
 30
0.0000
  0
VERTEX
  8
48
 10
59.6900
 20
47.5488
 30
0.0000
  0
SEQEND
  8
0
  0
POLYLINE
  8
48
 66
1
 10
0.0000
 20
0.0000
 30
0.0000
 40
0.2032
 41
0.2032
 70
0
  0
VERTEX
  8
48
 10
59.6900
 20
47.4472
 30
0.0000
 42
1.0000
  0
VERTEX
  8
48
 10
59.6900
 20
47.6504
 30
0.0000
  0
SEQEND
  8
0
  0
POLYLINE
  8
48
 66
1
 10
0.0000
 20
0.0000
 30
0.0000
 40
0.2032
 41
0.2032
 70
0
  0
VERTEX
  8
48
 10
5.7150
 20
47.6504
 30
0.0000
 42
1.0000
  0
VERTEX
  8
48
 10
5.7150
 20
47.4472
 30
0.0000
  0
SEQEND
  8
0
  0
POLYLINE
  8
48
 66
1
 10
0.0000
 20
0.0000
 30
0.0000
 40
0.4064
 41
0.4064
 70
0
  0
VERTEX
  8
48
 10
5.7150
 20
47.9552
 30
0.0000
  0
VERTEX
  8
48
 10
59.6900
 20
47.9552
 30
0.0000
  0
SEQEND
  8
0
  0
POLYLINE
  8
48
 66
1
 10
0.0000
 20
0.0000
 30
0.0000
 40
0.2032
 41
0.2032
 70
0
  0
VERTEX
  8
48
 10
59.6900
 20
47.8536
 30
0.0000
 42
1.0000
  0
VERTEX
  8
48
 10
59.6900
 20
48.0568
 30
0.0000
  0
SEQEND
  8
0
  0
POLYLINE
  8
48
 66
1
 10
0.0000
 20
0.0000
 30
0.0000
 40
0.2032
 41
0.2032
 70
0
  0
VERTEX
  8
48
 10
5.7150
 20
48.0568
 30
0.0000
 42
1.0000
  0
VERTEX
  8
48
 10
5.7150
 20
47.8536
 30
0.0000
  0
SEQEND
  8
0
  0
POLYLINE
  8
48
 66
1
 10
0.0000
 20
0.0000
 30
0.0000
 40
0.4064
 41
0.4064
 70
0
  0
VERTEX
  8
48
 10
5.7150
 20
48.3616
 30
0.0000
  0
VERTEX
  8
48
 10
59.6900
 20
48.3616
 30
0.0000
  0
SEQEND
  8
0
  0
POLYLINE
  8
48
 66
1
 10
0.0000
 20
0.0000
 30
0.0000
 40
0.2032
 41
0.2032
 70
0
  0
VERTEX
  8
48
 10
59.6900
 20
48.2600
 30
0.0000
 42
1.0000
  0
VERTEX
  8
48
 10
59.6900
 20
48.4632
 30
0.0000
  0
SEQEND
  8
0
  0
POLYLINE
  8
48
 66
1
 10
0.0000
 20
0.0000
 30
0.0000
 40
0.2032
 41
0.2032
 70
0
  0
VERTEX
  8
48
 10
5.7150
 20
48.4632
 30
0.0000
 42
1.0000
  0
VERTEX
  8
48
 10
5.7150
 20
48.2600
 30
0.0000
  0
SEQEND
  8
0
  0
POLYLINE
  8
48
 66
1
 10
0.0000
 20
0.0000
 30
0.0000
 40
0.4064
 41
0.4064
 70
0
  0
VERTEX
  8
48
 10
5.7150
 20
48.7680
 30
0.0000
  0
VERTEX
  8
48
 10
59.6900
 20
48.7680
 30
0.0000
  0
SEQEND
  8
0
  0
POLYLINE
  8
48
 66
1
 10
0.0000
 20
0.0000
 30
0.0000
 40
0.2032
 41
0.2032
 70
0
  0
VERTEX
  8
48
 10
59.6900
 20
48.6664
 30
0.0000
 42
1.0000
  0
VERTEX
  8
48
 10
59.6900
 20
48.8696
 30
0.0000
  0
SEQEND
  8
0
  0
POLYLINE
  8
48
 66
1
 10
0.0000
 20
0.0000
 30
0.0000
 40
0.2032
 41
0.2032
 70
0
  0
VERTEX
  8
48
 10
5.7150
 20
48.8696
 30
0.0000
 42
1.0000
  0
VERTEX
  8
48
 10
5.7150
 20
48.6664
 30
0.0000
  0
SEQEND
  8
0
  0
POLYLINE
  8
48
 66
1
 10
0.0000
 20
0.0000
 30
0.0000
 40
0.4064
 41
0.4064
 70
0
  0
VERTEX
  8
48
 10
5.7150
 20
49.1744
 30
0.0000
  0
VERTEX
  8
48
 10
59.6900
 20
49.1744
 30
0.0000
  0
SEQEND
  8
0
  0
POLYLINE
  8
48
 66
1
 10
0.0000
 20
0.0000
 30
0.0000
 40
0.2032
 41
0.2032
 70
0
  0
VERTEX
  8
48
 10
59.6900
 20
49.0728
 30
0.0000
 42
1.0000
  0
VERTEX
  8
48
 10
59.6900
 20
49.2760
 30
0.0000
  0
SEQEND
  8
0
  0
POLYLINE
  8
48
 66
1
 10
0.0000
 20
0.0000
 30
0.0000
 40
0.2032
 41
0.2032
 70
0
  0
VERTEX
  8
48
 10
5.7150
 20
49.2760
 30
0.0000
 42
1.0000
  0
VERTEX
  8
48
 10
5.7150
 20
49.0728
 30
0.0000
  0
SEQEND
  8
0
  0
POLYLINE
  8
48
 66
1
 10
0.0000
 20
0.0000
 30
0.0000
 40
0.4064
 41
0.4064
 70
0
  0
VERTEX
  8
48
 10
5.7150
 20
49.5808
 30
0.0000
  0
VERTEX
  8
48
 10
59.6900
 20
49.5808
 30
0.0000
  0
SEQEND
  8
0
  0
POLYLINE
  8
48
 66
1
 10
0.0000
 20
0.0000
 30
0.0000
 40
0.2032
 41
0.2032
 70
0
  0
VERTEX
  8
48
 10
59.6900
 20
49.4792
 30
0.0000
 42
1.0000
  0
VERTEX
  8
48
 10
59.6900
 20
49.6824
 30
0.0000
  0
SEQEND
  8
0
  0
POLYLINE
  8
48
 66
1
 10
0.0000
 20
0.0000
 30
0.0000
 40
0.2032
 41
0.2032
 70
0
  0
VERTEX
  8
48
 10
5.7150
 20
49.6824
 30
0.0000
 42
1.0000
  0
VERTEX
  8
48
 10
5.7150
 20
49.4792
 30
0.0000
  0
SEQEND
  8
0
  0
POLYLINE
  8
48
 66
1
 10
0.0000
 20
0.0000
 30
0.0000
 40
0.4064
 41
0.4064
 70
0
  0
VERTEX
  8
48
 10
5.7150
 20
49.9872
 30
0.0000
  0
VERTEX
  8
48
 10
59.6900
 20
49.9872
 30
0.0000
  0
SEQEND
  8
0
  0
POLYLINE
  8
48
 66
1
 10
0.0000
 20
0.0000
 30
0.0000
 40
0.2032
 41
0.2032
 70
0
  0
VERTEX
  8
48
 10
59.6900
 20
49.8856
 30
0.0000
 42
1.0000
  0
VERTEX
  8
48
 10
59.6900
 20
50.0888
 30
0.0000
  0
SEQEND
  8
0
  0
POLYLINE
  8
48
 66
1
 10
0.0000
 20
0.0000
 30
0.0000
 40
0.2032
 41
0.2032
 70
0
  0
VERTEX
  8
48
 10
5.7150
 20
50.0888
 30
0.0000
 42
1.0000
  0
VERTEX
  8
48
 10
5.7150
 20
49.8856
 30
0.0000
  0
SEQEND
  8
0
  0
POLYLINE
  8
48
 66
1
 10
0.0000
 20
0.0000
 30
0.0000
 40
0.4064
 41
0.4064
 70
0
  0
VERTEX
  8
48
 10
5.7150
 20
50.3936
 30
0.0000
  0
VERTEX
  8
48
 10
59.6900
 20
50.3936
 30
0.0000
  0
SEQEND
  8
0
  0
POLYLINE
  8
48
 66
1
 10
0.0000
 20
0.0000
 30
0.0000
 40
0.2032
 41
0.2032
 70
0
  0
VERTEX
  8
48
 10
59.6900
 20
50.2920
 30
0.0000
 42
1.0000
  0
VERTEX
  8
48
 10
59.6900
 20
50.4952
 30
0.0000
  0
SEQEND
  8
0
  0
POLYLINE
  8
48
 66
1
 10
0.0000
 20
0.0000
 30
0.0000
 40
0.2032
 41
0.2032
 70
0
  0
VERTEX
  8
48
 10
5.7150
 20
50.4952
 30
0.0000
 42
1.0000
  0
VERTEX
  8
48
 10
5.7150
 20
50.2920
 30
0.0000
  0
SEQEND
  8
0
  0
POLYLINE
  8
48
 66
1
 10
0.0000
 20
0.0000
 30
0.0000
 40
0.4064
 41
0.4064
 70
0
  0
VERTEX
  8
48
 10
5.7150
 20
50.8000
 30
0.0000
  0
VERTEX
  8
48
 10
59.6900
 20
50.8000
 30
0.0000
  0
SEQEND
  8
0
  0
POLYLINE
  8
48
 66
1
 10
0.0000
 20
0.0000
 30
0.0000
 40
0.2032
 41
0.2032
 70
0
  0
VERTEX
  8
48
 10
59.6900
 20
50.6984
 30
0.0000
 42
1.0000
  0
VERTEX
  8
48
 10
59.6900
 20
50.9016
 30
0.0000
  0
SEQEND
  8
0
  0
POLYLINE
  8
48
 66
1
 10
0.0000
 20
0.0000
 30
0.0000
 40
0.2032
 41
0.2032
 70
0
  0
VERTEX
  8
48
 10
5.7150
 20
50.9016
 30
0.0000
 42
1.0000
  0
VERTEX
  8
48
 10
5.7150
 20
50.6984
 30
0.0000
  0
SEQEND
  8
0
  0
POLYLINE
  8
48
 66
1
 10
0.0000
 20
0.0000
 30
0.0000
 40
0.4064
 41
0.4064
 70
0
  0
VERTEX
  8
48
 10
5.7150
 20
51.2064
 30
0.0000
  0
VERTEX
  8
48
 10
59.6900
 20
51.2064
 30
0.0000
  0
SEQEND
  8
0
  0
POLYLINE
  8
48
 66
1
 10
0.0000
 20
0.0000
 30
0.0000
 40
0.2032
 41
0.2032
 70
0
  0
VERTEX
  8
48
 10
59.6900
 20
51.1048
 30
0.0000
 42
1.0000
  0
VERTEX
  8
48
 10
59.6900
 20
51.3080
 30
0.0000
  0
SEQEND
  8
0
  0
POLYLINE
  8
48
 66
1
 10
0.0000
 20
0.0000
 30
0.0000
 40
0.2032
 41
0.2032
 70
0
  0
VERTEX
  8
48
 10
5.7150
 20
51.3080
 30
0.0000
 42
1.0000
  0
VERTEX
  8
48
 10
5.7150
 20
51.1048
 30
0.0000
  0
SEQEND
  8
0
  0
POLYLINE
  8
48
 66
1
 10
0.0000
 20
0.0000
 30
0.0000
 40
0.4064
 41
0.4064
 70
0
  0
VERTEX
  8
48
 10
5.7150
 20
51.6128
 30
0.0000
  0
VERTEX
  8
48
 10
59.6900
 20
51.6128
 30
0.0000
  0
SEQEND
  8
0
  0
POLYLINE
  8
48
 66
1
 10
0.0000
 20
0.0000
 30
0.0000
 40
0.2032
 41
0.2032
 70
0
  0
VERTEX
  8
48
 10
59.6900
 20
51.5112
 30
0.0000
 42
1.0000
  0
VERTEX
  8
48
 10
59.6900
 20
51.7144
 30
0.0000
  0
SEQEND
  8
0
  0
POLYLINE
  8
48
 66
1
 10
0.0000
 20
0.0000
 30
0.0000
 40
0.2032
 41
0.2032
 70
0
  0
VERTEX
  8
48
 10
5.7150
 20
51.7144
 30
0.0000
 42
1.0000
  0
VERTEX
  8
48
 10
5.7150
 20
51.5112
 30
0.0000
  0
SEQEND
  8
0
  0
POLYLINE
  8
48
 66
1
 10
0.0000
 20
0.0000
 30
0.0000
 40
0.4064
 41
0.4064
 70
0
  0
VERTEX
  8
48
 10
5.7150
 20
52.0192
 30
0.0000
  0
VERTEX
  8
48
 10
59.6900
 20
52.0192
 30
0.0000
  0
SEQEND
  8
0
  0
POLYLINE
  8
48
 66
1
 10
0.0000
 20
0.0000
 30
0.0000
 40
0.2032
 41
0.2032
 70
0
  0
VERTEX
  8
48
 10
59.6900
 20
51.9176
 30
0.0000
 42
1.0000
  0
VERTEX
  8
48
 10
59.6900
 20
52.1208
 30
0.0000
  0
SEQEND
  8
0
  0
POLYLINE
  8
48
 66
1
 10
0.0000
 20
0.0000
 30
0.0000
 40
0.2032
 41
0.2032
 70
0
  0
VERTEX
  8
48
 10
5.7150
 20
52.1208
 30
0.0000
 42
1.0000
  0
VERTEX
  8
48
 10
5.7150
 20
51.9176
 30
0.0000
  0
SEQEND
  8
0
  0
POLYLINE
  8
48
 66
1
 10
0.0000
 20
0.0000
 30
0.0000
 40
0.4064
 41
0.4064
 70
0
  0
VERTEX
  8
48
 10
5.7150
 20
52.4256
 30
0.0000
  0
VERTEX
  8
48
 10
59.6900
 20
52.4256
 30
0.0000
  0
SEQEND
  8
0
  0
POLYLINE
  8
48
 66
1
 10
0.0000
 20
0.0000
 30
0.0000
 40
0.2032
 41
0.2032
 70
0
  0
VERTEX
  8
48
 10
59.6900
 20
52.3240
 30
0.0000
 42
1.0000
  0
VERTEX
  8
48
 10
59.6900
 20
52.5272
 30
0.0000
  0
SEQEND
  8
0
  0
POLYLINE
  8
48
 66
1
 10
0.0000
 20
0.0000
 30
0.0000
 40
0.2032
 41
0.2032
 70
0
  0
VERTEX
  8
48
 10
5.7150
 20
52.5272
 30
0.0000
 42
1.0000
  0
VERTEX
  8
48
 10
5.7150
 20
52.3240
 30
0.0000
  0
SEQEND
  8
0
  0
POLYLINE
  8
48
 66
1
 10
0.0000
 20
0.0000
 30
0.0000
 40
0.4064
 41
0.4064
 70
0
  0
VERTEX
  8
48
 10
5.7150
 20
52.8320
 30
0.0000
  0
VERTEX
  8
48
 10
59.6900
 20
52.8320
 30
0.0000
  0
SEQEND
  8
0
  0
POLYLINE
  8
48
 66
1
 10
0.0000
 20
0.0000
 30
0.0000
 40
0.2032
 41
0.2032
 70
0
  0
VERTEX
  8
48
 10
59.6900
 20
52.7304
 30
0.0000
 42
1.0000
  0
VERTEX
  8
48
 10
59.6900
 20
52.9336
 30
0.0000
  0
SEQEND
  8
0
  0
POLYLINE
  8
48
 66
1
 10
0.0000
 20
0.0000
 30
0.0000
 40
0.2032
 41
0.2032
 70
0
  0
VERTEX
  8
48
 10
5.7150
 20
52.9336
 30
0.0000
 42
1.0000
  0
VERTEX
  8
48
 10
5.7150
 20
52.7304
 30
0.0000
  0
SEQEND
  8
0
  0
POLYLINE
  8
48
 66
1
 10
0.0000
 20
0.0000
 30
0.0000
 40
0.4064
 41
0.4064
 70
0
  0
VERTEX
  8
48
 10
5.7150
 20
53.2384
 30
0.0000
  0
VERTEX
  8
48
 10
59.6900
 20
53.2384
 30
0.0000
  0
SEQEND
  8
0
  0
POLYLINE
  8
48
 66
1
 10
0.0000
 20
0.0000
 30
0.0000
 40
0.2032
 41
0.2032
 70
0
  0
VERTEX
  8
48
 10
59.6900
 20
53.1368
 30
0.0000
 42
1.0000
  0
VERTEX
  8
48
 10
59.6900
 20
53.3400
 30
0.0000
  0
SEQEND
  8
0
  0
POLYLINE
  8
48
 66
1
 10
0.0000
 20
0.0000
 30
0.0000
 40
0.2032
 41
0.2032
 70
0
  0
VERTEX
  8
48
 10
5.7150
 20
53.3400
 30
0.0000
 42
1.0000
  0
VERTEX
  8
48
 10
5.7150
 20
53.1368
 30
0.0000
  0
SEQEND
  8
0
  0
POLYLINE
  8
48
 66
1
 10
0.0000
 20
0.0000
 30
0.0000
 40
0.4064
 41
0.4064
 70
0
  0
VERTEX
  8
48
 10
5.7150
 20
53.6448
 30
0.0000
  0
VERTEX
  8
48
 10
59.6900
 20
53.6448
 30
0.0000
  0
SEQEND
  8
0
  0
POLYLINE
  8
48
 66
1
 10
0.0000
 20
0.0000
 30
0.0000
 40
0.2032
 41
0.2032
 70
0
  0
VERTEX
  8
48
 10
59.6900
 20
53.5432
 30
0.0000
 42
1.0000
  0
VERTEX
  8
48
 10
59.6900
 20
53.7464
 30
0.0000
  0
SEQEND
  8
0
  0
POLYLINE
  8
48
 66
1
 10
0.0000
 20
0.0000
 30
0.0000
 40
0.2032
 41
0.2032
 70
0
  0
VERTEX
  8
48
 10
5.7150
 20
53.7464
 30
0.0000
 42
1.0000
  0
VERTEX
  8
48
 10
5.7150
 20
53.5432
 30
0.0000
  0
SEQEND
  8
0
  0
POLYLINE
  8
48
 66
1
 10
0.0000
 20
0.0000
 30
0.0000
 40
0.4064
 41
0.4064
 70
0
  0
VERTEX
  8
48
 10
5.7150
 20
54.0512
 30
0.0000
  0
VERTEX
  8
48
 10
59.6900
 20
54.0512
 30
0.0000
  0
SEQEND
  8
0
  0
POLYLINE
  8
48
 66
1
 10
0.0000
 20
0.0000
 30
0.0000
 40
0.2032
 41
0.2032
 70
0
  0
VERTEX
  8
48
 10
59.6900
 20
53.9496
 30
0.0000
 42
1.0000
  0
VERTEX
  8
48
 10
59.6900
 20
54.1528
 30
0.0000
  0
SEQEND
  8
0
  0
POLYLINE
  8
48
 66
1
 10
0.0000
 20
0.0000
 30
0.0000
 40
0.2032
 41
0.2032
 70
0
  0
VERTEX
  8
48
 10
5.7150
 20
54.1528
 30
0.0000
 42
1.0000
  0
VERTEX
  8
48
 10
5.7150
 20
53.9496
 30
0.0000
  0
SEQEND
  8
0
  0
POLYLINE
  8
48
 66
1
 10
0.0000
 20
0.0000
 30
0.0000
 40
0.4064
 41
0.4064
 70
0
  0
VERTEX
  8
48
 10
5.7150
 20
54.4576
 30
0.0000
  0
VERTEX
  8
48
 10
59.6900
 20
54.4576
 30
0.0000
  0
SEQEND
  8
0
  0
POLYLINE
  8
48
 66
1
 10
0.0000
 20
0.0000
 30
0.0000
 40
0.2032
 41
0.2032
 70
0
  0
VERTEX
  8
48
 10
59.6900
 20
54.3560
 30
0.0000
 42
1.0000
  0
VERTEX
  8
48
 10
59.6900
 20
54.5592
 30
0.0000
  0
SEQEND
  8
0
  0
POLYLINE
  8
48
 66
1
 10
0.0000
 20
0.0000
 30
0.0000
 40
0.2032
 41
0.2032
 70
0
  0
VERTEX
  8
48
 10
5.7150
 20
54.5592
 30
0.0000
 42
1.0000
  0
VERTEX
  8
48
 10
5.7150
 20
54.3560
 30
0.0000
  0
SEQEND
  8
0
  0
POLYLINE
  8
48
 66
1
 10
0.0000
 20
0.0000
 30
0.0000
 40
0.4064
 41
0.4064
 70
0
  0
VERTEX
  8
48
 10
5.7150
 20
54.8640
 30
0.0000
  0
VERTEX
  8
48
 10
59.6900
 20
54.8640
 30
0.0000
  0
SEQEND
  8
0
  0
POLYLINE
  8
48
 66
1
 10
0.0000
 20
0.0000
 30
0.0000
 40
0.2032
 41
0.2032
 70
0
  0
VERTEX
  8
48
 10
59.6900
 20
54.7624
 30
0.0000
 42
1.0000
  0
VERTEX
  8
48
 10
59.6900
 20
54.9656
 30
0.0000
  0
SEQEND
  8
0
  0
POLYLINE
  8
48
 66
1
 10
0.0000
 20
0.0000
 30
0.0000
 40
0.2032
 41
0.2032
 70
0
  0
VERTEX
  8
48
 10
5.7150
 20
54.9656
 30
0.0000
 42
1.0000
  0
VERTEX
  8
48
 10
5.7150
 20
54.7624
 30
0.0000
  0
SEQEND
  8
0
  0
POLYLINE
  8
48
 66
1
 10
0.0000
 20
0.0000
 30
0.0000
 40
0.4064
 41
0.4064
 70
0
  0
VERTEX
  8
48
 10
5.7150
 20
55.2704
 30
0.0000
  0
VERTEX
  8
48
 10
59.6900
 20
55.2704
 30
0.0000
  0
SEQEND
  8
0
  0
POLYLINE
  8
48
 66
1
 10
0.0000
 20
0.0000
 30
0.0000
 40
0.2032
 41
0.2032
 70
0
  0
VERTEX
  8
48
 10
59.6900
 20
55.1688
 30
0.0000
 42
1.0000
  0
VERTEX
  8
48
 10
59.6900
 20
55.3720
 30
0.0000
  0
SEQEND
  8
0
  0
POLYLINE
  8
48
 66
1
 10
0.0000
 20
0.0000
 30
0.0000
 40
0.2032
 41
0.2032
 70
0
  0
VERTEX
  8
48
 10
5.7150
 20
55.3720
 30
0.0000
 42
1.0000
  0
VERTEX
  8
48
 10
5.7150
 20
55.1688
 30
0.0000
  0
SEQEND
  8
0
  0
POLYLINE
  8
48
 66
1
 10
0.0000
 20
0.0000
 30
0.0000
 40
0.4064
 41
0.4064
 70
0
  0
VERTEX
  8
48
 10
5.7150
 20
55.6768
 30
0.0000
  0
VERTEX
  8
48
 10
59.6900
 20
55.6768
 30
0.0000
  0
SEQEND
  8
0
  0
POLYLINE
  8
48
 66
1
 10
0.0000
 20
0.0000
 30
0.0000
 40
0.2032
 41
0.2032
 70
0
  0
VERTEX
  8
48
 10
59.6900
 20
55.5752
 30
0.0000
 42
1.0000
  0
VERTEX
  8
48
 10
59.6900
 20
55.7784
 30
0.0000
  0
SEQEND
  8
0
  0
POLYLINE
  8
48
 66
1
 10
0.0000
 20
0.0000
 30
0.0000
 40
0.2032
 41
0.2032
 70
0
  0
VERTEX
  8
48
 10
5.7150
 20
55.7784
 30
0.0000
 42
1.0000
  0
VERTEX
  8
48
 10
5.7150
 20
55.5752
 30
0.0000
  0
SEQEND
  8
0
  0
POLYLINE
  8
48
 66
1
 10
0.0000
 20
0.0000
 30
0.0000
 40
0.4064
 41
0.4064
 70
0
  0
VERTEX
  8
48
 10
5.7150
 20
56.0832
 30
0.0000
  0
VERTEX
  8
48
 10
59.6900
 20
56.0832
 30
0.0000
  0
SEQEND
  8
0
  0
POLYLINE
  8
48
 66
1
 10
0.0000
 20
0.0000
 30
0.0000
 40
0.2032
 41
0.2032
 70
0
  0
VERTEX
  8
48
 10
59.6900
 20
55.9816
 30
0.0000
 42
1.0000
  0
VERTEX
  8
48
 10
59.6900
 20
56.1848
 30
0.0000
  0
SEQEND
  8
0
  0
POLYLINE
  8
48
 66
1
 10
0.0000
 20
0.0000
 30
0.0000
 40
0.2032
 41
0.2032
 70
0
  0
VERTEX
  8
48
 10
5.7150
 20
56.1848
 30
0.0000
 42
1.0000
  0
VERTEX
  8
48
 10
5.7150
 20
55.9816
 30
0.0000
  0
SEQEND
  8
0
  0
POLYLINE
  8
48
 66
1
 10
0.0000
 20
0.0000
 30
0.0000
 40
0.4064
 41
0.4064
 70
0
  0
VERTEX
  8
48
 10
5.7150
 20
56.4896
 30
0.0000
  0
VERTEX
  8
48
 10
59.6900
 20
56.4896
 30
0.0000
  0
SEQEND
  8
0
  0
POLYLINE
  8
48
 66
1
 10
0.0000
 20
0.0000
 30
0.0000
 40
0.2032
 41
0.2032
 70
0
  0
VERTEX
  8
48
 10
59.6900
 20
56.3880
 30
0.0000
 42
1.0000
  0
VERTEX
  8
48
 10
59.6900
 20
56.5912
 30
0.0000
  0
SEQEND
  8
0
  0
POLYLINE
  8
48
 66
1
 10
0.0000
 20
0.0000
 30
0.0000
 40
0.2032
 41
0.2032
 70
0
  0
VERTEX
  8
48
 10
5.7150
 20
56.5912
 30
0.0000
 42
1.0000
  0
VERTEX
  8
48
 10
5.7150
 20
56.3880
 30
0.0000
  0
SEQEND
  8
0
  0
POLYLINE
  8
48
 66
1
 10
0.0000
 20
0.0000
 30
0.0000
 40
0.4064
 41
0.4064
 70
0
  0
VERTEX
  8
48
 10
5.7150
 20
56.8960
 30
0.0000
  0
VERTEX
  8
48
 10
59.6900
 20
56.8960
 30
0.0000
  0
SEQEND
  8
0
  0
POLYLINE
  8
48
 66
1
 10
0.0000
 20
0.0000
 30
0.0000
 40
0.2032
 41
0.2032
 70
0
  0
VERTEX
  8
48
 10
59.6900
 20
56.7944
 30
0.0000
 42
1.0000
  0
VERTEX
  8
48
 10
59.6900
 20
56.9976
 30
0.0000
  0
SEQEND
  8
0
  0
POLYLINE
  8
48
 66
1
 10
0.0000
 20
0.0000
 30
0.0000
 40
0.2032
 41
0.2032
 70
0
  0
VERTEX
  8
48
 10
5.7150
 20
56.9976
 30
0.0000
 42
1.0000
  0
VERTEX
  8
48
 10
5.7150
 20
56.7944
 30
0.0000
  0
SEQEND
  8
0
  0
POLYLINE
  8
48
 66
1
 10
0.0000
 20
0.0000
 30
0.0000
 40
0.4064
 41
0.4064
 70
0
  0
VERTEX
  8
48
 10
5.7150
 20
57.3024
 30
0.0000
  0
VERTEX
  8
48
 10
59.6900
 20
57.3024
 30
0.0000
  0
SEQEND
  8
0
  0
POLYLINE
  8
48
 66
1
 10
0.0000
 20
0.0000
 30
0.0000
 40
0.2032
 41
0.2032
 70
0
  0
VERTEX
  8
48
 10
59.6900
 20
57.2008
 30
0.0000
 42
1.0000
  0
VERTEX
  8
48
 10
59.6900
 20
57.4040
 30
0.0000
  0
SEQEND
  8
0
  0
POLYLINE
  8
48
 66
1
 10
0.0000
 20
0.0000
 30
0.0000
 40
0.2032
 41
0.2032
 70
0
  0
VERTEX
  8
48
 10
5.7150
 20
57.4040
 30
0.0000
 42
1.0000
  0
VERTEX
  8
48
 10
5.7150
 20
57.2008
 30
0.0000
  0
SEQEND
  8
0
  0
POLYLINE
  8
48
 66
1
 10
0.0000
 20
0.0000
 30
0.0000
 40
0.4064
 41
0.4064
 70
0
  0
VERTEX
  8
48
 10
5.7150
 20
57.7088
 30
0.0000
  0
VERTEX
  8
48
 10
59.6900
 20
57.7088
 30
0.0000
  0
SEQEND
  8
0
  0
POLYLINE
  8
48
 66
1
 10
0.0000
 20
0.0000
 30
0.0000
 40
0.2032
 41
0.2032
 70
0
  0
VERTEX
  8
48
 10
59.6900
 20
57.6072
 30
0.0000
 42
1.0000
  0
VERTEX
  8
48
 10
59.6900
 20
57.8104
 30
0.0000
  0
SEQEND
  8
0
  0
POLYLINE
  8
48
 66
1
 10
0.0000
 20
0.0000
 30
0.0000
 40
0.2032
 41
0.2032
 70
0
  0
VERTEX
  8
48
 10
5.7150
 20
57.8104
 30
0.0000
 42
1.0000
  0
VERTEX
  8
48
 10
5.7150
 20
57.6072
 30
0.0000
  0
SEQEND
  8
0
  0
POLYLINE
  8
48
 66
1
 10
0.0000
 20
0.0000
 30
0.0000
 40
0.4064
 41
0.4064
 70
0
  0
VERTEX
  8
48
 10
5.7150
 20
58.1152
 30
0.0000
  0
VERTEX
  8
48
 10
59.6900
 20
58.1152
 30
0.0000
  0
SEQEND
  8
0
  0
POLYLINE
  8
48
 66
1
 10
0.0000
 20
0.0000
 30
0.0000
 40
0.2032
 41
0.2032
 70
0
  0
VERTEX
  8
48
 10
59.6900
 20
58.0136
 30
0.0000
 42
1.0000
  0
VERTEX
  8
48
 10
59.6900
 20
58.2168
 30
0.0000
  0
SEQEND
  8
0
  0
POLYLINE
  8
48
 66
1
 10
0.0000
 20
0.0000
 30
0.0000
 40
0.2032
 41
0.2032
 70
0
  0
VERTEX
  8
48
 10
5.7150
 20
58.2168
 30
0.0000
 42
1.0000
  0
VERTEX
  8
48
 10
5.7150
 20
58.0136
 30
0.0000
  0
SEQEND
  8
0
  0
POLYLINE
  8
48
 66
1
 10
0.0000
 20
0.0000
 30
0.0000
 40
0.4064
 41
0.4064
 70
0
  0
VERTEX
  8
48
 10
5.7150
 20
58.5216
 30
0.0000
  0
VERTEX
  8
48
 10
59.6900
 20
58.5216
 30
0.0000
  0
SEQEND
  8
0
  0
POLYLINE
  8
48
 66
1
 10
0.0000
 20
0.0000
 30
0.0000
 40
0.2032
 41
0.2032
 70
0
  0
VERTEX
  8
48
 10
59.6900
 20
58.4200
 30
0.0000
 42
1.0000
  0
VERTEX
  8
48
 10
59.6900
 20
58.6232
 30
0.0000
  0
SEQEND
  8
0
  0
POLYLINE
  8
48
 66
1
 10
0.0000
 20
0.0000
 30
0.0000
 40
0.2032
 41
0.2032
 70
0
  0
VERTEX
  8
48
 10
5.7150
 20
58.6232
 30
0.0000
 42
1.0000
  0
VERTEX
  8
48
 10
5.7150
 20
58.4200
 30
0.0000
  0
SEQEND
  8
0
  0
POLYLINE
  8
48
 66
1
 10
0.0000
 20
0.0000
 30
0.0000
 40
0.4064
 41
0.4064
 70
0
  0
VERTEX
  8
48
 10
5.7150
 20
58.9280
 30
0.0000
  0
VERTEX
  8
48
 10
59.6900
 20
58.9280
 30
0.0000
  0
SEQEND
  8
0
  0
POLYLINE
  8
48
 66
1
 10
0.0000
 20
0.0000
 30
0.0000
 40
0.2032
 41
0.2032
 70
0
  0
VERTEX
  8
48
 10
59.6900
 20
58.8264
 30
0.0000
 42
1.0000
  0
VERTEX
  8
48
 10
59.6900
 20
59.0296
 30
0.0000
  0
SEQEND
  8
0
  0
POLYLINE
  8
48
 66
1
 10
0.0000
 20
0.0000
 30
0.0000
 40
0.2032
 41
0.2032
 70
0
  0
VERTEX
  8
48
 10
5.7150
 20
59.0296
 30
0.0000
 42
1.0000
  0
VERTEX
  8
48
 10
5.7150
 20
58.8264
 30
0.0000
  0
SEQEND
  8
0
  0
POLYLINE
  8
48
 66
1
 10
0.0000
 20
0.0000
 30
0.0000
 40
0.4064
 41
0.4064
 70
0
  0
VERTEX
  8
48
 10
5.7150
 20
59.3344
 30
0.0000
  0
VERTEX
  8
48
 10
59.6900
 20
59.3344
 30
0.0000
  0
SEQEND
  8
0
  0
POLYLINE
  8
48
 66
1
 10
0.0000
 20
0.0000
 30
0.0000
 40
0.2032
 41
0.2032
 70
0
  0
VERTEX
  8
48
 10
59.6900
 20
59.2328
 30
0.0000
 42
1.0000
  0
VERTEX
  8
48
 10
59.6900
 20
59.4360
 30
0.0000
  0
SEQEND
  8
0
  0
POLYLINE
  8
48
 66
1
 10
0.0000
 20
0.0000
 30
0.0000
 40
0.2032
 41
0.2032
 70
0
  0
VERTEX
  8
48
 10
5.7150
 20
59.4360
 30
0.0000
 42
1.0000
  0
VERTEX
  8
48
 10
5.7150
 20
59.2328
 30
0.0000
  0
SEQEND
  8
0
  0
POLYLINE
  8
48
 66
1
 10
0.0000
 20
0.0000
 30
0.0000
 40
0.4064
 41
0.4064
 70
0
  0
VERTEX
  8
48
 10
5.7150
 20
59.7408
 30
0.0000
  0
VERTEX
  8
48
 10
59.6900
 20
59.7408
 30
0.0000
  0
SEQEND
  8
0
  0
POLYLINE
  8
48
 66
1
 10
0.0000
 20
0.0000
 30
0.0000
 40
0.2032
 41
0.2032
 70
0
  0
VERTEX
  8
48
 10
59.6900
 20
59.6392
 30
0.0000
 42
1.0000
  0
VERTEX
  8
48
 10
59.6900
 20
59.8424
 30
0.0000
  0
SEQEND
  8
0
  0
POLYLINE
  8
48
 66
1
 10
0.0000
 20
0.0000
 30
0.0000
 40
0.2032
 41
0.2032
 70
0
  0
VERTEX
  8
48
 10
5.7150
 20
59.8424
 30
0.0000
 42
1.0000
  0
VERTEX
  8
48
 10
5.7150
 20
59.6392
 30
0.0000
  0
SEQEND
  8
0
  0
POLYLINE
  8
48
 66
1
 10
0.0000
 20
0.0000
 30
0.0000
 40
0.4064
 41
0.4064
 70
0
  0
VERTEX
  8
48
 10
5.7150
 20
60.1472
 30
0.0000
  0
VERTEX
  8
48
 10
59.6900
 20
60.1472
 30
0.0000
  0
SEQEND
  8
0
  0
POLYLINE
  8
48
 66
1
 10
0.0000
 20
0.0000
 30
0.0000
 40
0.2032
 41
0.2032
 70
0
  0
VERTEX
  8
48
 10
59.6900
 20
60.0456
 30
0.0000
 42
1.0000
  0
VERTEX
  8
48
 10
59.6900
 20
60.2488
 30
0.0000
  0
SEQEND
  8
0
  0
POLYLINE
  8
48
 66
1
 10
0.0000
 20
0.0000
 30
0.0000
 40
0.2032
 41
0.2032
 70
0
  0
VERTEX
  8
48
 10
5.7150
 20
60.2488
 30
0.0000
 42
1.0000
  0
VERTEX
  8
48
 10
5.7150
 20
60.0456
 30
0.0000
  0
SEQEND
  8
0
  0
POLYLINE
  8
48
 66
1
 10
0.0000
 20
0.0000
 30
0.0000
 40
0.4064
 41
0.4064
 70
0
  0
VERTEX
  8
48
 10
5.7150
 20
60.5536
 30
0.0000
  0
VERTEX
  8
48
 10
59.6900
 20
60.5536
 30
0.0000
  0
SEQEND
  8
0
  0
POLYLINE
  8
48
 66
1
 10
0.0000
 20
0.0000
 30
0.0000
 40
0.2032
 41
0.2032
 70
0
  0
VERTEX
  8
48
 10
59.6900
 20
60.4520
 30
0.0000
 42
1.0000
  0
VERTEX
  8
48
 10
59.6900
 20
60.6552
 30
0.0000
  0
SEQEND
  8
0
  0
POLYLINE
  8
48
 66
1
 10
0.0000
 20
0.0000
 30
0.0000
 40
0.2032
 41
0.2032
 70
0
  0
VERTEX
  8
48
 10
5.7150
 20
60.6552
 30
0.0000
 42
1.0000
  0
VERTEX
  8
48
 10
5.7150
 20
60.4520
 30
0.0000
  0
SEQEND
  8
0
  0
POLYLINE
  8
48
 66
1
 10
0.0000
 20
0.0000
 30
0.0000
 40
0.4064
 41
0.4064
 70
0
  0
VERTEX
  8
48
 10
5.7150
 20
60.9600
 30
0.0000
  0
VERTEX
  8
48
 10
59.6900
 20
60.9600
 30
0.0000
  0
SEQEND
  8
0
  0
POLYLINE
  8
48
 66
1
 10
0.0000
 20
0.0000
 30
0.0000
 40
0.2032
 41
0.2032
 70
0
  0
VERTEX
  8
48
 10
59.6900
 20
60.8584
 30
0.0000
 42
1.0000
  0
VERTEX
  8
48
 10
59.6900
 20
61.0616
 30
0.0000
  0
SEQEND
  8
0
  0
POLYLINE
  8
48
 66
1
 10
0.0000
 20
0.0000
 30
0.0000
 40
0.2032
 41
0.2032
 70
0
  0
VERTEX
  8
48
 10
5.7150
 20
61.0616
 30
0.0000
 42
1.0000
  0
VERTEX
  8
48
 10
5.7150
 20
60.8584
 30
0.0000
  0
SEQEND
  8
0
  0
POLYLINE
  8
48
 66
1
 10
0.0000
 20
0.0000
 30
0.0000
 40
0.4064
 41
0.4064
 70
0
  0
VERTEX
  8
48
 10
6.1214
 20
61.3664
 30
0.0000
  0
VERTEX
  8
48
 10
59.2836
 20
61.3664
 30
0.0000
  0
SEQEND
  8
0
  0
POLYLINE
  8
48
 66
1
 10
0.0000
 20
0.0000
 30
0.0000
 40
0.2032
 41
0.2032
 70
0
  0
VERTEX
  8
48
 10
59.2836
 20
61.2648
 30
0.0000
 42
1.0000
  0
VERTEX
  8
48
 10
59.2836
 20
61.4680
 30
0.0000
  0
SEQEND
  8
0
  0
POLYLINE
  8
48
 66
1
 10
0.0000
 20
0.0000
 30
0.0000
 40
0.2032
 41
0.2032
 70
0
  0
VERTEX
  8
48
 10
6.1214
 20
61.4680
 30
0.0000
 42
1.0000
  0
VERTEX
  8
48
 10
6.1214
 20
61.2648
 30
0.0000
  0
SEQEND
  8
0
  0
POLYLINE
  8
48
 66
1
 10
0.0000
 20
0.0000
 30
0.0000
 40
0.4064
 41
0.4064
 70
0
  0
VERTEX
  8
48
 10
6.5278
 20
61.7728
 30
0.0000
  0
VERTEX
  8
48
 10
58.8772
 20
61.7728
 30
0.0000
  0
SEQEND
  8
0
  0
POLYLINE
  8
48
 66
1
 10
0.0000
 20
0.0000
 30
0.0000
 40
0.2032
 41
0.2032
 70
0
  0
VERTEX
  8
48
 10
58.8772
 20
61.6712
 30
0.0000
 42
1.0000
  0
VERTEX
  8
48
 10
58.8772
 20
61.8744
 30
0.0000
  0
SEQEND
  8
0
  0
POLYLINE
  8
48
 66
1
 10
0.0000
 20
0.0000
 30
0.0000
 40
0.2032
 41
0.2032
 70
0
  0
VERTEX
  8
48
 10
6.5278
 20
61.8744
 30
0.0000
 42
1.0000
  0
VERTEX
  8
48
 10
6.5278
 20
61.6712
 30
0.0000
  0
SEQEND
  8
0
  0
POLYLINE
  8
48
 66
1
 10
0.0000
 20
0.0000
 30
0.0000
 40
0.4064
 41
0.4064
 70
0
  0
VERTEX
  8
48
 10
6.9342
 20
62.1792
 30
0.0000
  0
VERTEX
  8
48
 10
58.4708
 20
62.1792
 30
0.0000
  0
SEQEND
  8
0
  0
POLYLINE
  8
48
 66
1
 10
0.0000
 20
0.0000
 30
0.0000
 40
0.2032
 41
0.2032
 70
0
  0
VERTEX
  8
48
 10
58.4708
 20
62.0776
 30
0.0000
 42
1.0000
  0
VERTEX
  8
48
 10
58.4708
 20
62.2808
 30
0.0000
  0
SEQEND
  8
0
  0
POLYLINE
  8
48
 66
1
 10
0.0000
 20
0.0000
 30
0.0000
 40
0.2032
 41
0.2032
 70
0
  0
VERTEX
  8
48
 10
6.9342
 20
62.2808
 30
0.0000
 42
1.0000
  0
VERTEX
  8
48
 10
6.9342
 20
62.0776
 30
0.0000
  0
SEQEND
  8
0
  0
POLYLINE
  8
116
 66
1
 10
0.0000
 20
0.0000
 30
0.0000
 40
1.6500
 41
1.6500
 70
0
  0
VERTEX
  8
116
 10
22.8600
 20
53.1500
 30
0.0000
 42
1.0000
  0
VERTEX
  8
116
 10
22.8600
 20
54.8000
 30
0.0000
 42
1.0000
  0
VERTEX
  8
116
 10
22.8600
 20
53.1500
 30
0.0000
  0
SEQEND
  8
0
  0
POLYLINE
  8
116
 66
1
 10
0.0000
 20
0.0000
 30
0.0000
 40
1.6500
 41
1.6500
 70
0
  0
VERTEX
  8
116
 10
55.8800
 20
27.1150
 30
0.0000
 42
1.0000
  0
VERTEX
  8
116
 10
55.8800
 20
28.7650
 30
0.0000
 42
1.0000
  0
VERTEX
  8
116
 10
55.8800
 20
27.1150
 30
0.0000
  0
SEQEND
  8
0
  0
POLYLINE
  8
116
 66
1
 10
0.0000
 20
0.0000
 30
0.0000
 40
0.5580
 41
0.5580
 70
0
  0
VERTEX
  8
116
 10
50.8000
 20
44.1710
 30
0.0000
 42
1.0000
  0
VERTEX
  8
116
 10
50.8000
 20
44.7290
 30
0.0000
 42
1.0000
  0
VERTEX
  8
116
 10
50.8000
 20
44.1710
 30
0.0000
  0
SEQEND
  8
0
  0
POLYLINE
  8
116
 66
1
 10
0.0000
 20
0.0000
 30
0.0000
 40
0.5580
 41
0.5580
 70
0
  0
VERTEX
  8
116
 10
50.8000
 20
41.6310
 30
0.0000
 42
1.0000
  0
VERTEX
  8
116
 10
50.8000
 20
42.1890
 30
0.0000
 42
1.0000
  0
VERTEX
  8
116
 10
50.8000
 20
41.6310
 30
0.0000
  0
SEQEND
  8
0
  0
INSERT
  8
17
  2
LONGP100
 10
50.8000
 20
44.4500
 30
0.0000
 41
1.5240
 42
1.5240
 43
1.0000
 50
0.0000
  0
INSERT
  8
17
  2
LONGP100
 10
50.8000
 20
44.4500
 30
0.0000
 41
1.5240
 42
1.5240
 43
1.0000
 50
0.0000
  0
INSERT
  8
17
  2
LONGP100
 10
50.8000
 20
41.9100
 30
0.0000
 41
1.5240
 42
1.5240
 43
1.0000
 50
0.0000
  0
INSERT
  8
17
  2
LONGP100
 10
50.8000
 20
41.9100
 30
0.0000
 41
1.5240
 42
1.5240
 43
1.0000
 50
0.0000
  0
ENDSEC
  0
EOF
