  0
SECTION
  2
HEADER
  9
$ACADVER
  1
AC1009
  9
$FILLMODE
 70
1
  9
$EXTMIN
 10
-9.6520
 20
-8.2550
 30
0.0000
  9
$EXTMAX
 10
9.5150
 20
9.4490
 30
0.0000
  0
ENDSEC
  0
SECTION
  2
TABLES
  0
TABLE
  2
LTYPE
 70
1
  0
LTYPE
  2
CONTINUOUS
 70
64
  3
Solid line
 72
65
 73
0
 40
0
  0
ENDTAB
  0
TABLE
  2
LAYER
 70
255
  0
LAYER
  2
1
 70
64
 62
12
  6
CONTINUOUS
  0
LAYER
  2
16
 70
64
 62
132
  6
CONTINUOUS
  0
LAYER
  2
17
 70
64
 62
110
  6
CONTINUOUS
  0
LAYER
  2
18
 70
64
 62
110
  6
CONTINUOUS
  0
LAYER
  2
19
 70
64
 62
53
  6
CONTINUOUS
  0
LAYER
  2
20
 70
64
 62
31
  6
CONTINUOUS
  0
LAYER
  2
21
 70
64
 62
253
  6
CONTINUOUS
  0
LAYER
  2
22
 70
64
 62
253
  6
CONTINUOUS
  0
LAYER
  2
23
 70
64
 62
53
  6
CONTINUOUS
  0
LAYER
  2
24
 70
64
 62
53
  6
CONTINUOUS
  0
LAYER
  2
25
 70
64
 62
253
  6
CONTINUOUS
  0
LAYER
  2
26
 70
64
 62
253
  6
CONTINUOUS
  0
LAYER
  2
39
 70
64
 62
12
  6
CONTINUOUS
  0
LAYER
  2
40
 70
64
 62
132
  6
CONTINUOUS
  0
LAYER
  2
41
 70
64
 62
12
  6
CONTINUOUS
  0
LAYER
  2
42
 70
64
 62
132
  6
CONTINUOUS
  0
LAYER
  2
51
 70
64
 62
253
  6
CONTINUOUS
  0
LAYER
  2
52
 70
64
 62
253
  6
CONTINUOUS
  0
ENDTAB
  0
ENDSEC
  0
SECTION
  2
BLOCKS
  0
BLOCK
  8
0
  2
RECT
 70
64
 10
0.0000
 20
0.0000
 30
0.0000
  3
RECT
  0
SOLID
  8
0
 10
-0.5000
 20
-0.5000
 30
0.0000
 11
0.5000
 21
-0.5000
 31
0.0000
 12
-0.5000
 22
0.5000
 32
0.0000
 13
0.5000
 23
0.5000
 33
0.0000
  0
ENDBLK
  8
0
  0
BLOCK
  8
0
  2
PIE
 70
64
 10
0.0000
 20
0.0000
 30
0.0000
  3
PIE
  0
POLYLINE
  8
0
 66
1
 10
0.0000
 20
0.0000
 30
0.0000
 40
0.5000
 41
0.5000
 70
0
  0
VERTEX
  8
0
 10
0.0000
 20
-0.2500
 30
0.0000
 42
1.0000
  0
VERTEX
  8
0
 10
0.0000
 20
0.2500
 30
0.0000
 42
1.0000
  0
VERTEX
  8
0
 10
0.0000
 20
-0.2500
 30
0.0000
  0
SEQEND
  8
0
  0
ENDBLK
  8
0
  0
BLOCK
  8
0
  2
OCTAGONP
 70
64
 10
0.0000
 20
0.0000
 30
0.0000
  3
OCTAGONP
  0
POLYLINE
  8
0
 66
1
 10
0.0000
 20
0.0000
 30
0.0000
 40
0.5000
 41
0.5000
 70
0
  0
VERTEX
  8
0
 10
-0.2500
 20
-0.1036
 30
0.0000
  0
VERTEX
  8
0
 10
-0.2500
 20
0.1036
 30
0.0000
  0
VERTEX
  8
0
 10
-0.1036
 20
0.2500
 30
0.0000
  0
VERTEX
  8
0
 10
0.1036
 20
0.2500
 30
0.0000
  0
VERTEX
  8
0
 10
0.2500
 20
0.1036
 30
0.0000
  0
VERTEX
  8
0
 10
0.2500
 20
-0.1036
 30
0.0000
  0
VERTEX
  8
0
 10
0.1036
 20
-0.2500
 30
0.0000
  0
VERTEX
  8
0
 10
-0.1036
 20
-0.2500
 30
0.0000
  0
VERTEX
  8
0
 10
-0.2500
 20
-0.1036
 30
0.0000
  0
VERTEX
  8
0
 10
-0.2500
 20
0.1036
 30
0.0000
  0
SEQEND
  8
0
  0
ENDBLK
  8
0
  0
BLOCK
  8
0
  2
SQUAREP
 70
64
 10
0.0000
 20
0.0000
 30
0.0000
  3
SQUAREP
  0
SOLID
  8
0
 10
-0.5000
 20
-0.5000
 30
0.0000
 11
0.5000
 21
-0.5000
 31
0.0000
 12
-0.5000
 22
0.5000
 32
0.0000
 13
0.5000
 23
0.5000
 33
0.0000
  0
ENDBLK
  8
0
  0
BLOCK
  8
0
  2
ROUNDP
 70
64
 10
0.0000
 20
0.0000
 30
0.0000
  3
ROUNDP
  0
POLYLINE
  8
0
 66
1
 10
0.0000
 20
0.0000
 30
0.0000
 40
0.5000
 41
0.5000
 70
0
  0
VERTEX
  8
0
 10
0.0000
 20
-0.2500
 30
0.0000
 42
1.0000
  0
VERTEX
  8
0
 10
0.0000
 20
0.2500
 30
0.0000
 42
1.0000
  0
VERTEX
  8
0
 10
0.0000
 20
-0.2500
 30
0.0000
  0
SEQEND
  8
0
  0
ENDBLK
  8
0
  0
BLOCK
  8
0
  2
ANNULUSP
 70
64
 10
0.0000
 20
0.0000
 30
0.0000
  3
ANNULUSP
  0
POLYLINE
  8
0
 66
1
 10
0.0000
 20
0.0000
 30
0.0000
 40
0.5000
 41
0.5000
 70
0
  0
VERTEX
  8
0
 10
0.0000
 20
-0.2500
 30
0.0000
 42
1.0000
  0
VERTEX
  8
0
 10
0.0000
 20
0.2500
 30
0.0000
 42
1.0000
  0
VERTEX
  8
0
 10
0.0000
 20
-0.2500
 30
0.0000
  0
SEQEND
  8
0
  0
ENDBLK
  8
0
  0
BLOCK
  8
0
  2
THERMALP
 70
64
 10
0.0000
 20
0.0000
 30
0.0000
  3
THERMALP
  0
POLYLINE
  8
0
 66
1
 10
0.0000
 20
0.0000
 30
0.0000
 40
0.1000
 41
0.1000
 70
0
  0
VERTEX
  8
0
 10
-0.2379
 20
0.4500
 30
0.0000
  0
VERTEX
  8
0
 10
0.2379
 20
0.4500
 30
0.0000
  0
SEQEND
  8
0
  0
POLYLINE
  8
0
 66
1
 10
0.0000
 20
0.0000
 30
0.0000
 40
0.0500
 41
0.0500
 70
0
  0
VERTEX
  8
0
 10
0.2379
 20
0.4250
 30
0.0000
 42
1.0000
  0
VERTEX
  8
0
 10
0.2379
 20
0.4750
 30
0.0000
  0
SEQEND
  8
0
  0
POLYLINE
  8
0
 66
1
 10
0.0000
 20
0.0000
 30
0.0000
 40
0.0500
 41
0.0500
 70
0
  0
VERTEX
  8
0
 10
-0.2379
 20
0.4750
 30
0.0000
 42
1.0000
  0
VERTEX
  8
0
 10
-0.2379
 20
0.4250
 30
0.0000
  0
SEQEND
  8
0
  0
POLYLINE
  8
0
 66
1
 10
0.0000
 20
0.0000
 30
0.0000
 40
0.1000
 41
0.1000
 70
0
  0
VERTEX
  8
0
 10
0.4500
 20
0.2379
 30
0.0000
  0
VERTEX
  8
0
 10
0.4500
 20
-0.2379
 30
0.0000
  0
SEQEND
  8
0
  0
POLYLINE
  8
0
 66
1
 10
0.0000
 20
0.0000
 30
0.0000
 40
0.0500
 41
0.0500
 70
0
  0
VERTEX
  8
0
 10
0.4250
 20
-0.2379
 30
0.0000
 42
1.0000
  0
VERTEX
  8
0
 10
0.4750
 20
-0.2379
 30
0.0000
  0
SEQEND
  8
0
  0
POLYLINE
  8
0
 66
1
 10
0.0000
 20
0.0000
 30
0.0000
 40
0.0500
 41
0.0500
 70
0
  0
VERTEX
  8
0
 10
0.4750
 20
0.2379
 30
0.0000
 42
1.0000
  0
VERTEX
  8
0
 10
0.4250
 20
0.2379
 30
0.0000
  0
SEQEND
  8
0
  0
POLYLINE
  8
0
 66
1
 10
0.0000
 20
0.0000
 30
0.0000
 40
0.1000
 41
0.1000
 70
0
  0
VERTEX
  8
0
 10
0.2379
 20
-0.4500
 30
0.0000
  0
VERTEX
  8
0
 10
-0.2379
 20
-0.4500
 30
0.0000
  0
SEQEND
  8
0
  0
POLYLINE
  8
0
 66
1
 10
0.0000
 20
0.0000
 30
0.0000
 40
0.0500
 41
0.0500
 70
0
  0
VERTEX
  8
0
 10
-0.2379
 20
-0.4250
 30
0.0000
 42
1.0000
  0
VERTEX
  8
0
 10
-0.2379
 20
-0.4750
 30
0.0000
  0
SEQEND
  8
0
  0
POLYLINE
  8
0
 66
1
 10
0.0000
 20
0.0000
 30
0.0000
 40
0.0500
 41
0.0500
 70
0
  0
VERTEX
  8
0
 10
0.2379
 20
-0.4750
 30
0.0000
 42
1.0000
  0
VERTEX
  8
0
 10
0.2379
 20
-0.4250
 30
0.0000
  0
SEQEND
  8
0
  0
POLYLINE
  8
0
 66
1
 10
0.0000
 20
0.0000
 30
0.0000
 40
0.1000
 41
0.1000
 70
0
  0
VERTEX
  8
0
 10
-0.4500
 20
-0.2379
 30
0.0000
  0
VERTEX
  8
0
 10
-0.4500
 20
0.2379
 30
0.0000
  0
SEQEND
  8
0
  0
POLYLINE
  8
0
 66
1
 10
0.0000
 20
0.0000
 30
0.0000
 40
0.0500
 41
0.0500
 70
0
  0
VERTEX
  8
0
 10
-0.4250
 20
0.2379
 30
0.0000
 42
1.0000
  0
VERTEX
  8
0
 10
-0.4750
 20
0.2379
 30
0.0000
  0
SEQEND
  8
0
  0
POLYLINE
  8
0
 66
1
 10
0.0000
 20
0.0000
 30
0.0000
 40
0.0500
 41
0.0500
 70
0
  0
VERTEX
  8
0
 10
-0.4750
 20
-0.2379
 30
0.0000
 42
1.0000
  0
VERTEX
  8
0
 10
-0.4250
 20
-0.2379
 30
0.0000
  0
SEQEND
  8
0
  0
ENDBLK
  8
0
  0
BLOCK
  8
0
  2
OCTAGONV
 70
64
 10
0.0000
 20
0.0000
 30
0.0000
  3
OCTAGONV
  0
POLYLINE
  8
0
 66
1
 10
0.0000
 20
0.0000
 30
0.0000
 40
0.5000
 41
0.5000
 70
0
  0
VERTEX
  8
0
 10
-0.2500
 20
-0.1036
 30
0.0000
  0
VERTEX
  8
0
 10
-0.2500
 20
0.1036
 30
0.0000
  0
VERTEX
  8
0
 10
-0.1036
 20
0.2500
 30
0.0000
  0
VERTEX
  8
0
 10
0.1036
 20
0.2500
 30
0.0000
  0
VERTEX
  8
0
 10
0.2500
 20
0.1036
 30
0.0000
  0
VERTEX
  8
0
 10
0.2500
 20
-0.1036
 30
0.0000
  0
VERTEX
  8
0
 10
0.1036
 20
-0.2500
 30
0.0000
  0
VERTEX
  8
0
 10
-0.1036
 20
-0.2500
 30
0.0000
  0
VERTEX
  8
0
 10
-0.2500
 20
-0.1036
 30
0.0000
  0
VERTEX
  8
0
 10
-0.2500
 20
0.1036
 30
0.0000
  0
SEQEND
  8
0
  0
ENDBLK
  8
0
  0
BLOCK
  8
0
  2
SQUAREV
 70
64
 10
0.0000
 20
0.0000
 30
0.0000
  3
SQUAREV
  0
SOLID
  8
0
 10
-0.5000
 20
-0.5000
 30
0.0000
 11
0.5000
 21
-0.5000
 31
0.0000
 12
-0.5000
 22
0.5000
 32
0.0000
 13
0.5000
 23
0.5000
 33
0.0000
  0
ENDBLK
  8
0
  0
BLOCK
  8
0
  2
ROUNDV
 70
64
 10
0.0000
 20
0.0000
 30
0.0000
  3
ROUNDV
  0
POLYLINE
  8
0
 66
1
 10
0.0000
 20
0.0000
 30
0.0000
 40
0.5000
 41
0.5000
 70
0
  0
VERTEX
  8
0
 10
0.0000
 20
-0.2500
 30
0.0000
 42
1.0000
  0
VERTEX
  8
0
 10
0.0000
 20
0.2500
 30
0.0000
 42
1.0000
  0
VERTEX
  8
0
 10
0.0000
 20
-0.2500
 30
0.0000
  0
SEQEND
  8
0
  0
ENDBLK
  8
0
  0
BLOCK
  8
0
  2
ANNULUSV
 70
64
 10
0.0000
 20
0.0000
 30
0.0000
  3
ANNULUSV
  0
POLYLINE
  8
0
 66
1
 10
0.0000
 20
0.0000
 30
0.0000
 40
0.5000
 41
0.5000
 70
0
  0
VERTEX
  8
0
 10
0.0000
 20
-0.2500
 30
0.0000
 42
1.0000
  0
VERTEX
  8
0
 10
0.0000
 20
0.2500
 30
0.0000
 42
1.0000
  0
VERTEX
  8
0
 10
0.0000
 20
-0.2500
 30
0.0000
  0
SEQEND
  8
0
  0
ENDBLK
  8
0
  0
BLOCK
  8
0
  2
THERMALV
 70
64
 10
0.0000
 20
0.0000
 30
0.0000
  3
THERMALV
  0
POLYLINE
  8
0
 66
1
 10
0.0000
 20
0.0000
 30
0.0000
 40
0.1000
 41
0.1000
 70
0
  0
VERTEX
  8
0
 10
-0.2379
 20
0.4500
 30
0.0000
  0
VERTEX
  8
0
 10
0.2379
 20
0.4500
 30
0.0000
  0
SEQEND
  8
0
  0
POLYLINE
  8
0
 66
1
 10
0.0000
 20
0.0000
 30
0.0000
 40
0.0500
 41
0.0500
 70
0
  0
VERTEX
  8
0
 10
0.2379
 20
0.4250
 30
0.0000
 42
1.0000
  0
VERTEX
  8
0
 10
0.2379
 20
0.4750
 30
0.0000
  0
SEQEND
  8
0
  0
POLYLINE
  8
0
 66
1
 10
0.0000
 20
0.0000
 30
0.0000
 40
0.0500
 41
0.0500
 70
0
  0
VERTEX
  8
0
 10
-0.2379
 20
0.4750
 30
0.0000
 42
1.0000
  0
VERTEX
  8
0
 10
-0.2379
 20
0.4250
 30
0.0000
  0
SEQEND
  8
0
  0
POLYLINE
  8
0
 66
1
 10
0.0000
 20
0.0000
 30
0.0000
 40
0.1000
 41
0.1000
 70
0
  0
VERTEX
  8
0
 10
0.4500
 20
0.2379
 30
0.0000
  0
VERTEX
  8
0
 10
0.4500
 20
-0.2379
 30
0.0000
  0
SEQEND
  8
0
  0
POLYLINE
  8
0
 66
1
 10
0.0000
 20
0.0000
 30
0.0000
 40
0.0500
 41
0.0500
 70
0
  0
VERTEX
  8
0
 10
0.4250
 20
-0.2379
 30
0.0000
 42
1.0000
  0
VERTEX
  8
0
 10
0.4750
 20
-0.2379
 30
0.0000
  0
SEQEND
  8
0
  0
POLYLINE
  8
0
 66
1
 10
0.0000
 20
0.0000
 30
0.0000
 40
0.0500
 41
0.0500
 70
0
  0
VERTEX
  8
0
 10
0.4750
 20
0.2379
 30
0.0000
 42
1.0000
  0
VERTEX
  8
0
 10
0.4250
 20
0.2379
 30
0.0000
  0
SEQEND
  8
0
  0
POLYLINE
  8
0
 66
1
 10
0.0000
 20
0.0000
 30
0.0000
 40
0.1000
 41
0.1000
 70
0
  0
VERTEX
  8
0
 10
0.2379
 20
-0.4500
 30
0.0000
  0
VERTEX
  8
0
 10
-0.2379
 20
-0.4500
 30
0.0000
  0
SEQEND
  8
0
  0
POLYLINE
  8
0
 66
1
 10
0.0000
 20
0.0000
 30
0.0000
 40
0.0500
 41
0.0500
 70
0
  0
VERTEX
  8
0
 10
-0.2379
 20
-0.4250
 30
0.0000
 42
1.0000
  0
VERTEX
  8
0
 10
-0.2379
 20
-0.4750
 30
0.0000
  0
SEQEND
  8
0
  0
POLYLINE
  8
0
 66
1
 10
0.0000
 20
0.0000
 30
0.0000
 40
0.0500
 41
0.0500
 70
0
  0
VERTEX
  8
0
 10
0.2379
 20
-0.4750
 30
0.0000
 42
1.0000
  0
VERTEX
  8
0
 10
0.2379
 20
-0.4250
 30
0.0000
  0
SEQEND
  8
0
  0
POLYLINE
  8
0
 66
1
 10
0.0000
 20
0.0000
 30
0.0000
 40
0.1000
 41
0.1000
 70
0
  0
VERTEX
  8
0
 10
-0.4500
 20
-0.2379
 30
0.0000
  0
VERTEX
  8
0
 10
-0.4500
 20
0.2379
 30
0.0000
  0
SEQEND
  8
0
  0
POLYLINE
  8
0
 66
1
 10
0.0000
 20
0.0000
 30
0.0000
 40
0.0500
 41
0.0500
 70
0
  0
VERTEX
  8
0
 10
-0.4250
 20
0.2379
 30
0.0000
 42
1.0000
  0
VERTEX
  8
0
 10
-0.4750
 20
0.2379
 30
0.0000
  0
SEQEND
  8
0
  0
POLYLINE
  8
0
 66
1
 10
0.0000
 20
0.0000
 30
0.0000
 40
0.0500
 41
0.0500
 70
0
  0
VERTEX
  8
0
 10
-0.4750
 20
-0.2379
 30
0.0000
 42
1.0000
  0
VERTEX
  8
0
 10
-0.4250
 20
-0.2379
 30
0.0000
  0
SEQEND
  8
0
  0
ENDBLK
  8
0
  0
BLOCK
  8
0
  2
LONGP100
 70
64
 10
0.0000
 20
0.0000
 30
0.0000
  3
LONGP100
  0
POLYLINE
  8
0
 66
1
 10
0.0000
 20
0.0000
 30
0.0000
 40
1.0000
 41
1.0000
 70
0
  0
VERTEX
  8
0
 10
-0.5000
 20
0.0000
 30
0.0000
  0
VERTEX
  8
0
 10
0.5000
 20
0.0000
 30
0.0000
  0
SEQEND
  8
0
  0
POLYLINE
  8
0
 66
1
 10
0.0000
 20
0.0000
 30
0.0000
 40
0.5000
 41
0.5000
 70
0
  0
VERTEX
  8
0
 10
0.5000
 20
-0.2500
 30
0.0000
 42
1.0000
  0
VERTEX
  8
0
 10
0.5000
 20
0.2500
 30
0.0000
  0
SEQEND
  8
0
  0
POLYLINE
  8
0
 66
1
 10
0.0000
 20
0.0000
 30
0.0000
 40
0.5000
 41
0.5000
 70
0
  0
VERTEX
  8
0
 10
-0.5000
 20
0.2500
 30
0.0000
 42
1.0000
  0
VERTEX
  8
0
 10
-0.5000
 20
-0.2500
 30
0.0000
  0
SEQEND
  8
0
  0
ENDBLK
  8
0
  0
ENDSEC
  0
SECTION
  2
ENTITIES
  0
LINE
  8
20
 10
-9.5150
 20
-8.2550
 30
0.0000
 11
9.5150
 21
-8.2550
 31
0.0000
  0
LINE
  8
20
 10
9.5150
 20
-8.2550
 30
0.0000
 11
9.3780
 21
9.4490
 31
0.0000
  0
LINE
  8
20
 10
9.3780
 20
9.4490
 30
0.0000
 11
-9.6520
 21
9.4490
 31
0.0000
  0
LINE
  8
20
 10
-9.6520
 20
9.4490
 30
0.0000
 11
-9.5150
 21
-8.2550
 31
0.0000
  0
POINT
  8
23
 10
-5.2070
 20
4.6990
 30
0.0000
  0
POLYLINE
  8
21
 66
1
 10
0.0000
 20
0.0000
 30
0.0000
 40
0.1270
 41
0.1270
 70
0
  0
VERTEX
  8
21
 10
-4.1910
 20
6.7310
 30
0.0000
  0
VERTEX
  8
21
 10
-4.1910
 20
2.6670
 30
0.0000
  0
SEQEND
  8
0
  0
POLYLINE
  8
21
 66
1
 10
0.0000
 20
0.0000
 30
0.0000
 40
0.0635
 41
0.0635
 70
0
  0
VERTEX
  8
21
 10
-4.2227
 20
2.6670
 30
0.0000
 42
1.0000
  0
VERTEX
  8
21
 10
-4.1593
 20
2.6670
 30
0.0000
  0
SEQEND
  8
0
  0
POLYLINE
  8
21
 66
1
 10
0.0000
 20
0.0000
 30
0.0000
 40
0.0635
 41
0.0635
 70
0
  0
VERTEX
  8
21
 10
-4.1593
 20
6.7310
 30
0.0000
 42
1.0000
  0
VERTEX
  8
21
 10
-4.2227
 20
6.7310
 30
0.0000
  0
SEQEND
  8
0
  0
POLYLINE
  8
21
 66
1
 10
0.0000
 20
0.0000
 30
0.0000
 40
0.1270
 41
0.1270
 70
0
  0
VERTEX
  8
21
 10
-4.1910
 20
2.6670
 30
0.0000
  0
VERTEX
  8
21
 10
-6.2230
 20
2.6670
 30
0.0000
  0
SEQEND
  8
0
  0
POLYLINE
  8
21
 66
1
 10
0.0000
 20
0.0000
 30
0.0000
 40
0.0635
 41
0.0635
 70
0
  0
VERTEX
  8
21
 10
-6.2230
 20
2.6988
 30
0.0000
 42
1.0000
  0
VERTEX
  8
21
 10
-6.2230
 20
2.6353
 30
0.0000
  0
SEQEND
  8
0
  0
POLYLINE
  8
21
 66
1
 10
0.0000
 20
0.0000
 30
0.0000
 40
0.0635
 41
0.0635
 70
0
  0
VERTEX
  8
21
 10
-4.1910
 20
2.6353
 30
0.0000
 42
1.0000
  0
VERTEX
  8
21
 10
-4.1910
 20
2.6988
 30
0.0000
  0
SEQEND
  8
0
  0
POLYLINE
  8
21
 66
1
 10
0.0000
 20
0.0000
 30
0.0000
 40
0.1270
 41
0.1270
 70
0
  0
VERTEX
  8
21
 10
-6.2230
 20
2.6670
 30
0.0000
  0
VERTEX
  8
21
 10
-6.2230
 20
6.7310
 30
0.0000
  0
SEQEND
  8
0
  0
POLYLINE
  8
21
 66
1
 10
0.0000
 20
0.0000
 30
0.0000
 40
0.0635
 41
0.0635
 70
0
  0
VERTEX
  8
21
 10
-6.1913
 20
6.7310
 30
0.0000
 42
1.0000
  0
VERTEX
  8
21
 10
-6.2547
 20
6.7310
 30
0.0000
  0
SEQEND
  8
0
  0
POLYLINE
  8
21
 66
1
 10
0.0000
 20
0.0000
 30
0.0000
 40
0.0635
 41
0.0635
 70
0
  0
VERTEX
  8
21
 10
-6.2547
 20
2.6670
 30
0.0000
 42
1.0000
  0
VERTEX
  8
21
 10
-6.1913
 20
2.6670
 30
0.0000
  0
SEQEND
  8
0
  0
POLYLINE
  8
21
 66
1
 10
0.0000
 20
0.0000
 30
0.0000
 40
0.1270
 41
0.1270
 70
0
  0
VERTEX
  8
21
 10
-6.2230
 20
6.7310
 30
0.0000
  0
VERTEX
  8
21
 10
-4.1910
 20
6.7310
 30
0.0000
  0
SEQEND
  8
0
  0
POLYLINE
  8
21
 66
1
 10
0.0000
 20
0.0000
 30
0.0000
 40
0.0635
 41
0.0635
 70
0
  0
VERTEX
  8
21
 10
-4.1910
 20
6.6993
 30
0.0000
 42
1.0000
  0
VERTEX
  8
21
 10
-4.1910
 20
6.7628
 30
0.0000
  0
SEQEND
  8
0
  0
POLYLINE
  8
21
 66
1
 10
0.0000
 20
0.0000
 30
0.0000
 40
0.0635
 41
0.0635
 70
0
  0
VERTEX
  8
21
 10
-6.2230
 20
6.7628
 30
0.0000
 42
1.0000
  0
VERTEX
  8
21
 10
-6.2230
 20
6.6993
 30
0.0000
  0
SEQEND
  8
0
  0
INSERT
  8
1
  2
RECT
 10
-5.2070
 20
6.3500
 30
0.0000
 41
1.2700
 42
1.9050
 43
1.0000
 50
270.0000
  0
INSERT
  8
1
  2
RECT
 10
-5.2070
 20
3.0480
 30
0.0000
 41
1.2700
 42
1.9050
 43
1.0000
 50
270.0000
  0
POLYLINE
  8
25
 66
1
 10
0.0000
 20
0.0000
 30
0.0000
 40
0.1524
 41
0.1524
 70
0
  0
VERTEX
  8
25
 10
-2.9972
 20
5.5390
 30
0.0000
  0
VERTEX
  8
25
 10
-2.9972
 20
5.3471
 30
0.0000
  0
SEQEND
  8
0
  0
POLYLINE
  8
25
 66
1
 10
0.0000
 20
0.0000
 30
0.0000
 40
0.0762
 41
0.0762
 70
0
  0
VERTEX
  8
25
 10
-3.0353
 20
5.3471
 30
0.0000
 42
1.0000
  0
VERTEX
  8
25
 10
-2.9591
 20
5.3471
 30
0.0000
  0
SEQEND
  8
0
  0
POLYLINE
  8
25
 66
1
 10
0.0000
 20
0.0000
 30
0.0000
 40
0.0762
 41
0.0762
 70
0
  0
VERTEX
  8
25
 10
-2.9591
 20
5.5390
 30
0.0000
 42
1.0000
  0
VERTEX
  8
25
 10
-3.0353
 20
5.5390
 30
0.0000
  0
SEQEND
  8
0
  0
POLYLINE
  8
25
 66
1
 10
0.0000
 20
0.0000
 30
0.0000
 40
0.1524
 41
0.1524
 70
0
  0
VERTEX
  8
25
 10
-3.1891
 20
5.1552
 30
0.0000
 42
0.4142
  0
VERTEX
  8
25
 10
-2.9972
 20
5.3471
 30
0.0000
  0
SEQEND
  8
0
  0
POLYLINE
  8
25
 66
1
 10
0.0000
 20
0.0000
 30
0.0000
 40
0.0762
 41
0.0762
 70
0
  0
VERTEX
  8
25
 10
-3.1891
 20
5.1933
 30
0.0000
 42
1.0000
  0
VERTEX
  8
25
 10
-3.1891
 20
5.1171
 30
0.0000
  0
SEQEND
  8
0
  0
POLYLINE
  8
25
 66
1
 10
0.0000
 20
0.0000
 30
0.0000
 40
0.0762
 41
0.0762
 70
0
  0
VERTEX
  8
25
 10
-2.9591
 20
5.3471
 30
0.0000
 42
1.0000
  0
VERTEX
  8
25
 10
-3.0353
 20
5.3471
 30
0.0000
  0
SEQEND
  8
0
  0
POLYLINE
  8
25
 66
1
 10
0.0000
 20
0.0000
 30
0.0000
 40
0.1524
 41
0.1524
 70
0
  0
VERTEX
  8
25
 10
-3.1891
 20
5.1552
 30
0.0000
  0
VERTEX
  8
25
 10
-3.6689
 20
5.1552
 30
0.0000
  0
SEQEND
  8
0
  0
POLYLINE
  8
25
 66
1
 10
0.0000
 20
0.0000
 30
0.0000
 40
0.0762
 41
0.0762
 70
0
  0
VERTEX
  8
25
 10
-3.6689
 20
5.1933
 30
0.0000
 42
1.0000
  0
VERTEX
  8
25
 10
-3.6689
 20
5.1171
 30
0.0000
  0
SEQEND
  8
0
  0
POLYLINE
  8
25
 66
1
 10
0.0000
 20
0.0000
 30
0.0000
 40
0.0762
 41
0.0762
 70
0
  0
VERTEX
  8
25
 10
-3.1891
 20
5.1171
 30
0.0000
 42
1.0000
  0
VERTEX
  8
25
 10
-3.1891
 20
5.1933
 30
0.0000
  0
SEQEND
  8
0
  0
POLYLINE
  8
25
 66
1
 10
0.0000
 20
0.0000
 30
0.0000
 40
0.1524
 41
0.1524
 70
0
  0
VERTEX
  8
25
 10
-3.8608
 20
5.3471
 30
0.0000
 42
0.4142
  0
VERTEX
  8
25
 10
-3.6689
 20
5.1552
 30
0.0000
  0
SEQEND
  8
0
  0
POLYLINE
  8
25
 66
1
 10
0.0000
 20
0.0000
 30
0.0000
 40
0.0762
 41
0.0762
 70
0
  0
VERTEX
  8
25
 10
-3.8227
 20
5.3471
 30
0.0000
 42
1.0000
  0
VERTEX
  8
25
 10
-3.8989
 20
5.3471
 30
0.0000
  0
SEQEND
  8
0
  0
POLYLINE
  8
25
 66
1
 10
0.0000
 20
0.0000
 30
0.0000
 40
0.0762
 41
0.0762
 70
0
  0
VERTEX
  8
25
 10
-3.6689
 20
5.1171
 30
0.0000
 42
1.0000
  0
VERTEX
  8
25
 10
-3.6689
 20
5.1933
 30
0.0000
  0
SEQEND
  8
0
  0
POLYLINE
  8
25
 66
1
 10
0.0000
 20
0.0000
 30
0.0000
 40
0.1524
 41
0.1524
 70
0
  0
VERTEX
  8
25
 10
-3.8608
 20
5.3471
 30
0.0000
  0
VERTEX
  8
25
 10
-3.8608
 20
5.5390
 30
0.0000
  0
SEQEND
  8
0
  0
POLYLINE
  8
25
 66
1
 10
0.0000
 20
0.0000
 30
0.0000
 40
0.0762
 41
0.0762
 70
0
  0
VERTEX
  8
25
 10
-3.8227
 20
5.5390
 30
0.0000
 42
1.0000
  0
VERTEX
  8
25
 10
-3.8989
 20
5.5390
 30
0.0000
  0
SEQEND
  8
0
  0
POLYLINE
  8
25
 66
1
 10
0.0000
 20
0.0000
 30
0.0000
 40
0.0762
 41
0.0762
 70
0
  0
VERTEX
  8
25
 10
-3.8989
 20
5.3471
 30
0.0000
 42
1.0000
  0
VERTEX
  8
25
 10
-3.8227
 20
5.3471
 30
0.0000
  0
SEQEND
  8
0
  0
POLYLINE
  8
25
 66
1
 10
0.0000
 20
0.0000
 30
0.0000
 40
0.1524
 41
0.1524
 70
0
  0
VERTEX
  8
25
 10
-3.6689
 20
5.9210
 30
0.0000
  0
VERTEX
  8
25
 10
-3.8608
 20
6.1609
 30
0.0000
  0
SEQEND
  8
0
  0
POLYLINE
  8
25
 66
1
 10
0.0000
 20
0.0000
 30
0.0000
 40
0.0762
 41
0.0762
 70
0
  0
VERTEX
  8
25
 10
-3.8310
 20
6.1847
 30
0.0000
 42
1.0000
  0
VERTEX
  8
25
 10
-3.8906
 20
6.1371
 30
0.0000
  0
SEQEND
  8
0
  0
POLYLINE
  8
25
 66
1
 10
0.0000
 20
0.0000
 30
0.0000
 40
0.0762
 41
0.0762
 70
0
  0
VERTEX
  8
25
 10
-3.6986
 20
5.8972
 30
0.0000
 42
1.0000
  0
VERTEX
  8
25
 10
-3.6391
 20
5.9448
 30
0.0000
  0
SEQEND
  8
0
  0
POLYLINE
  8
25
 66
1
 10
0.0000
 20
0.0000
 30
0.0000
 40
0.1524
 41
0.1524
 70
0
  0
VERTEX
  8
25
 10
-3.8608
 20
6.1609
 30
0.0000
  0
VERTEX
  8
25
 10
-2.9972
 20
6.1609
 30
0.0000
  0
SEQEND
  8
0
  0
POLYLINE
  8
25
 66
1
 10
0.0000
 20
0.0000
 30
0.0000
 40
0.0762
 41
0.0762
 70
0
  0
VERTEX
  8
25
 10
-2.9972
 20
6.1228
 30
0.0000
 42
1.0000
  0
VERTEX
  8
25
 10
-2.9972
 20
6.1990
 30
0.0000
  0
SEQEND
  8
0
  0
POLYLINE
  8
25
 66
1
 10
0.0000
 20
0.0000
 30
0.0000
 40
0.0762
 41
0.0762
 70
0
  0
VERTEX
  8
25
 10
-3.8608
 20
6.1990
 30
0.0000
 42
1.0000
  0
VERTEX
  8
25
 10
-3.8608
 20
6.1228
 30
0.0000
  0
SEQEND
  8
0
  0
POLYLINE
  8
25
 66
1
 10
0.0000
 20
0.0000
 30
0.0000
 40
0.1524
 41
0.1524
 70
0
  0
VERTEX
  8
25
 10
-2.9972
 20
5.9210
 30
0.0000
  0
VERTEX
  8
25
 10
-2.9972
 20
6.4008
 30
0.0000
  0
SEQEND
  8
0
  0
POLYLINE
  8
25
 66
1
 10
0.0000
 20
0.0000
 30
0.0000
 40
0.0762
 41
0.0762
 70
0
  0
VERTEX
  8
25
 10
-2.9591
 20
6.4008
 30
0.0000
 42
1.0000
  0
VERTEX
  8
25
 10
-3.0353
 20
6.4008
 30
0.0000
  0
SEQEND
  8
0
  0
POLYLINE
  8
25
 66
1
 10
0.0000
 20
0.0000
 30
0.0000
 40
0.0762
 41
0.0762
 70
0
  0
VERTEX
  8
25
 10
-3.0353
 20
5.9210
 30
0.0000
 42
1.0000
  0
VERTEX
  8
25
 10
-2.9591
 20
5.9210
 30
0.0000
  0
SEQEND
  8
0
  0
POINT
  8
23
 10
-5.2070
 20
-4.1910
 30
0.0000
  0
POLYLINE
  8
21
 66
1
 10
0.0000
 20
0.0000
 30
0.0000
 40
0.1270
 41
0.1270
 70
0
  0
VERTEX
  8
21
 10
-4.1910
 20
-2.1590
 30
0.0000
  0
VERTEX
  8
21
 10
-4.1910
 20
-6.2230
 30
0.0000
  0
SEQEND
  8
0
  0
POLYLINE
  8
21
 66
1
 10
0.0000
 20
0.0000
 30
0.0000
 40
0.0635
 41
0.0635
 70
0
  0
VERTEX
  8
21
 10
-4.2227
 20
-6.2230
 30
0.0000
 42
1.0000
  0
VERTEX
  8
21
 10
-4.1593
 20
-6.2230
 30
0.0000
  0
SEQEND
  8
0
  0
POLYLINE
  8
21
 66
1
 10
0.0000
 20
0.0000
 30
0.0000
 40
0.0635
 41
0.0635
 70
0
  0
VERTEX
  8
21
 10
-4.1593
 20
-2.1590
 30
0.0000
 42
1.0000
  0
VERTEX
  8
21
 10
-4.2227
 20
-2.1590
 30
0.0000
  0
SEQEND
  8
0
  0
POLYLINE
  8
21
 66
1
 10
0.0000
 20
0.0000
 30
0.0000
 40
0.1270
 41
0.1270
 70
0
  0
VERTEX
  8
21
 10
-4.1910
 20
-6.2230
 30
0.0000
  0
VERTEX
  8
21
 10
-6.2230
 20
-6.2230
 30
0.0000
  0
SEQEND
  8
0
  0
POLYLINE
  8
21
 66
1
 10
0.0000
 20
0.0000
 30
0.0000
 40
0.0635
 41
0.0635
 70
0
  0
VERTEX
  8
21
 10
-6.2230
 20
-6.1913
 30
0.0000
 42
1.0000
  0
VERTEX
  8
21
 10
-6.2230
 20
-6.2547
 30
0.0000
  0
SEQEND
  8
0
  0
POLYLINE
  8
21
 66
1
 10
0.0000
 20
0.0000
 30
0.0000
 40
0.0635
 41
0.0635
 70
0
  0
VERTEX
  8
21
 10
-4.1910
 20
-6.2547
 30
0.0000
 42
1.0000
  0
VERTEX
  8
21
 10
-4.1910
 20
-6.1913
 30
0.0000
  0
SEQEND
  8
0
  0
POLYLINE
  8
21
 66
1
 10
0.0000
 20
0.0000
 30
0.0000
 40
0.1270
 41
0.1270
 70
0
  0
VERTEX
  8
21
 10
-6.2230
 20
-6.2230
 30
0.0000
  0
VERTEX
  8
21
 10
-6.2230
 20
-2.1590
 30
0.0000
  0
SEQEND
  8
0
  0
POLYLINE
  8
21
 66
1
 10
0.0000
 20
0.0000
 30
0.0000
 40
0.0635
 41
0.0635
 70
0
  0
VERTEX
  8
21
 10
-6.1913
 20
-2.1590
 30
0.0000
 42
1.0000
  0
VERTEX
  8
21
 10
-6.2547
 20
-2.1590
 30
0.0000
  0
SEQEND
  8
0
  0
POLYLINE
  8
21
 66
1
 10
0.0000
 20
0.0000
 30
0.0000
 40
0.0635
 41
0.0635
 70
0
  0
VERTEX
  8
21
 10
-6.2547
 20
-6.2230
 30
0.0000
 42
1.0000
  0
VERTEX
  8
21
 10
-6.1913
 20
-6.2230
 30
0.0000
  0
SEQEND
  8
0
  0
POLYLINE
  8
21
 66
1
 10
0.0000
 20
0.0000
 30
0.0000
 40
0.1270
 41
0.1270
 70
0
  0
VERTEX
  8
21
 10
-6.2230
 20
-2.1590
 30
0.0000
  0
VERTEX
  8
21
 10
-4.1910
 20
-2.1590
 30
0.0000
  0
SEQEND
  8
0
  0
POLYLINE
  8
21
 66
1
 10
0.0000
 20
0.0000
 30
0.0000
 40
0.0635
 41
0.0635
 70
0
  0
VERTEX
  8
21
 10
-4.1910
 20
-2.1908
 30
0.0000
 42
1.0000
  0
VERTEX
  8
21
 10
-4.1910
 20
-2.1273
 30
0.0000
  0
SEQEND
  8
0
  0
POLYLINE
  8
21
 66
1
 10
0.0000
 20
0.0000
 30
0.0000
 40
0.0635
 41
0.0635
 70
0
  0
VERTEX
  8
21
 10
-6.2230
 20
-2.1273
 30
0.0000
 42
1.0000
  0
VERTEX
  8
21
 10
-6.2230
 20
-2.1908
 30
0.0000
  0
SEQEND
  8
0
  0
INSERT
  8
1
  2
RECT
 10
-5.2070
 20
-2.5400
 30
0.0000
 41
1.2700
 42
1.9050
 43
1.0000
 50
270.0000
  0
INSERT
  8
1
  2
RECT
 10
-5.2070
 20
-5.8420
 30
0.0000
 41
1.2700
 42
1.9050
 43
1.0000
 50
270.0000
  0
POLYLINE
  8
25
 66
1
 10
0.0000
 20
0.0000
 30
0.0000
 40
0.1524
 41
0.1524
 70
0
  0
VERTEX
  8
25
 10
-2.9972
 20
-3.3510
 30
0.0000
  0
VERTEX
  8
25
 10
-2.9972
 20
-3.5429
 30
0.0000
  0
SEQEND
  8
0
  0
POLYLINE
  8
25
 66
1
 10
0.0000
 20
0.0000
 30
0.0000
 40
0.0762
 41
0.0762
 70
0
  0
VERTEX
  8
25
 10
-3.0353
 20
-3.5429
 30
0.0000
 42
1.0000
  0
VERTEX
  8
25
 10
-2.9591
 20
-3.5429
 30
0.0000
  0
SEQEND
  8
0
  0
POLYLINE
  8
25
 66
1
 10
0.0000
 20
0.0000
 30
0.0000
 40
0.0762
 41
0.0762
 70
0
  0
VERTEX
  8
25
 10
-2.9591
 20
-3.3510
 30
0.0000
 42
1.0000
  0
VERTEX
  8
25
 10
-3.0353
 20
-3.3510
 30
0.0000
  0
SEQEND
  8
0
  0
POLYLINE
  8
25
 66
1
 10
0.0000
 20
0.0000
 30
0.0000
 40
0.1524
 41
0.1524
 70
0
  0
VERTEX
  8
25
 10
-3.1891
 20
-3.7348
 30
0.0000
 42
0.4142
  0
VERTEX
  8
25
 10
-2.9972
 20
-3.5429
 30
0.0000
  0
SEQEND
  8
0
  0
POLYLINE
  8
25
 66
1
 10
0.0000
 20
0.0000
 30
0.0000
 40
0.0762
 41
0.0762
 70
0
  0
VERTEX
  8
25
 10
-3.1891
 20
-3.6967
 30
0.0000
 42
1.0000
  0
VERTEX
  8
25
 10
-3.1891
 20
-3.7729
 30
0.0000
  0
SEQEND
  8
0
  0
POLYLINE
  8
25
 66
1
 10
0.0000
 20
0.0000
 30
0.0000
 40
0.0762
 41
0.0762
 70
0
  0
VERTEX
  8
25
 10
-2.9591
 20
-3.5429
 30
0.0000
 42
1.0000
  0
VERTEX
  8
25
 10
-3.0353
 20
-3.5429
 30
0.0000
  0
SEQEND
  8
0
  0
POLYLINE
  8
25
 66
1
 10
0.0000
 20
0.0000
 30
0.0000
 40
0.1524
 41
0.1524
 70
0
  0
VERTEX
  8
25
 10
-3.1891
 20
-3.7348
 30
0.0000
  0
VERTEX
  8
25
 10
-3.6689
 20
-3.7348
 30
0.0000
  0
SEQEND
  8
0
  0
POLYLINE
  8
25
 66
1
 10
0.0000
 20
0.0000
 30
0.0000
 40
0.0762
 41
0.0762
 70
0
  0
VERTEX
  8
25
 10
-3.6689
 20
-3.6967
 30
0.0000
 42
1.0000
  0
VERTEX
  8
25
 10
-3.6689
 20
-3.7729
 30
0.0000
  0
SEQEND
  8
0
  0
POLYLINE
  8
25
 66
1
 10
0.0000
 20
0.0000
 30
0.0000
 40
0.0762
 41
0.0762
 70
0
  0
VERTEX
  8
25
 10
-3.1891
 20
-3.7729
 30
0.0000
 42
1.0000
  0
VERTEX
  8
25
 10
-3.1891
 20
-3.6967
 30
0.0000
  0
SEQEND
  8
0
  0
POLYLINE
  8
25
 66
1
 10
0.0000
 20
0.0000
 30
0.0000
 40
0.1524
 41
0.1524
 70
0
  0
VERTEX
  8
25
 10
-3.8608
 20
-3.5429
 30
0.0000
 42
0.4142
  0
VERTEX
  8
25
 10
-3.6689
 20
-3.7348
 30
0.0000
  0
SEQEND
  8
0
  0
POLYLINE
  8
25
 66
1
 10
0.0000
 20
0.0000
 30
0.0000
 40
0.0762
 41
0.0762
 70
0
  0
VERTEX
  8
25
 10
-3.8227
 20
-3.5429
 30
0.0000
 42
1.0000
  0
VERTEX
  8
25
 10
-3.8989
 20
-3.5429
 30
0.0000
  0
SEQEND
  8
0
  0
POLYLINE
  8
25
 66
1
 10
0.0000
 20
0.0000
 30
0.0000
 40
0.0762
 41
0.0762
 70
0
  0
VERTEX
  8
25
 10
-3.6689
 20
-3.7729
 30
0.0000
 42
1.0000
  0
VERTEX
  8
25
 10
-3.6689
 20
-3.6967
 30
0.0000
  0
SEQEND
  8
0
  0
POLYLINE
  8
25
 66
1
 10
0.0000
 20
0.0000
 30
0.0000
 40
0.1524
 41
0.1524
 70
0
  0
VERTEX
  8
25
 10
-3.8608
 20
-3.5429
 30
0.0000
  0
VERTEX
  8
25
 10
-3.8608
 20
-3.3510
 30
0.0000
  0
SEQEND
  8
0
  0
POLYLINE
  8
25
 66
1
 10
0.0000
 20
0.0000
 30
0.0000
 40
0.0762
 41
0.0762
 70
0
  0
VERTEX
  8
25
 10
-3.8227
 20
-3.3510
 30
0.0000
 42
1.0000
  0
VERTEX
  8
25
 10
-3.8989
 20
-3.3510
 30
0.0000
  0
SEQEND
  8
0
  0
POLYLINE
  8
25
 66
1
 10
0.0000
 20
0.0000
 30
0.0000
 40
0.0762
 41
0.0762
 70
0
  0
VERTEX
  8
25
 10
-3.8989
 20
-3.5429
 30
0.0000
 42
1.0000
  0
VERTEX
  8
25
 10
-3.8227
 20
-3.5429
 30
0.0000
  0
SEQEND
  8
0
  0
POLYLINE
  8
25
 66
1
 10
0.0000
 20
0.0000
 30
0.0000
 40
0.1524
 41
0.1524
 70
0
  0
VERTEX
  8
25
 10
-3.6449
 20
-2.4892
 30
0.0000
 42
0.4142
  0
VERTEX
  8
25
 10
-3.8608
 20
-2.7051
 30
0.0000
  0
SEQEND
  8
0
  0
POLYLINE
  8
25
 66
1
 10
0.0000
 20
0.0000
 30
0.0000
 40
0.0762
 41
0.0762
 70
0
  0
VERTEX
  8
25
 10
-3.6449
 20
-2.5273
 30
0.0000
 42
1.0000
  0
VERTEX
  8
25
 10
-3.6449
 20
-2.4511
 30
0.0000
  0
SEQEND
  8
0
  0
POLYLINE
  8
25
 66
1
 10
0.0000
 20
0.0000
 30
0.0000
 40
0.0762
 41
0.0762
 70
0
  0
VERTEX
  8
25
 10
-3.8989
 20
-2.7051
 30
0.0000
 42
1.0000
  0
VERTEX
  8
25
 10
-3.8227
 20
-2.7051
 30
0.0000
  0
SEQEND
  8
0
  0
POLYLINE
  8
25
 66
1
 10
0.0000
 20
0.0000
 30
0.0000
 40
0.1524
 41
0.1524
 70
0
  0
VERTEX
  8
25
 10
-3.8608
 20
-2.7051
 30
0.0000
 42
0.3252
  0
VERTEX
  8
25
 10
-3.6689
 20
-2.9690
 30
0.0000
  0
SEQEND
  8
0
  0
POLYLINE
  8
25
 66
1
 10
0.0000
 20
0.0000
 30
0.0000
 40
0.0762
 41
0.0762
 70
0
  0
VERTEX
  8
25
 10
-3.8227
 20
-2.7051
 30
0.0000
 42
1.0000
  0
VERTEX
  8
25
 10
-3.8989
 20
-2.7051
 30
0.0000
  0
SEQEND
  8
0
  0
POLYLINE
  8
25
 66
1
 10
0.0000
 20
0.0000
 30
0.0000
 40
0.0762
 41
0.0762
 70
0
  0
VERTEX
  8
25
 10
-3.6806
 20
-3.0052
 30
0.0000
 42
1.0000
  0
VERTEX
  8
25
 10
-3.6571
 20
-2.9327
 30
0.0000
  0
SEQEND
  8
0
  0
POLYLINE
  8
25
 66
1
 10
0.0000
 20
0.0000
 30
0.0000
 40
0.1524
 41
0.1524
 70
0
  0
VERTEX
  8
25
 10
-3.4770
 20
-2.5612
 30
0.0000
 42
0.2053
  0
VERTEX
  8
25
 10
-3.6449
 20
-2.4892
 30
0.0000
  0
SEQEND
  8
0
  0
POLYLINE
  8
25
 66
1
 10
0.0000
 20
0.0000
 30
0.0000
 40
0.0762
 41
0.0762
 70
0
  0
VERTEX
  8
25
 10
-3.5046
 20
-2.5874
 30
0.0000
 42
1.0000
  0
VERTEX
  8
25
 10
-3.4494
 20
-2.5349
 30
0.0000
  0
SEQEND
  8
0
  0
POLYLINE
  8
25
 66
1
 10
0.0000
 20
0.0000
 30
0.0000
 40
0.0762
 41
0.0762
 70
0
  0
VERTEX
  8
25
 10
-3.6449
 20
-2.4511
 30
0.0000
 42
1.0000
  0
VERTEX
  8
25
 10
-3.6449
 20
-2.5273
 30
0.0000
  0
SEQEND
  8
0
  0
POLYLINE
  8
25
 66
1
 10
0.0000
 20
0.0000
 30
0.0000
 40
0.1524
 41
0.1524
 70
0
  0
VERTEX
  8
25
 10
-3.4770
 20
-2.5612
 30
0.0000
  0
VERTEX
  8
25
 10
-2.9972
 20
-2.9690
 30
0.0000
  0
SEQEND
  8
0
  0
POLYLINE
  8
25
 66
1
 10
0.0000
 20
0.0000
 30
0.0000
 40
0.0762
 41
0.0762
 70
0
  0
VERTEX
  8
25
 10
-3.0219
 20
-2.9980
 30
0.0000
 42
1.0000
  0
VERTEX
  8
25
 10
-2.9725
 20
-2.9399
 30
0.0000
  0
SEQEND
  8
0
  0
POLYLINE
  8
25
 66
1
 10
0.0000
 20
0.0000
 30
0.0000
 40
0.0762
 41
0.0762
 70
0
  0
VERTEX
  8
25
 10
-3.4523
 20
-2.5321
 30
0.0000
 42
1.0000
  0
VERTEX
  8
25
 10
-3.5017
 20
-2.5902
 30
0.0000
  0
SEQEND
  8
0
  0
POLYLINE
  8
25
 66
1
 10
0.0000
 20
0.0000
 30
0.0000
 40
0.1524
 41
0.1524
 70
0
  0
VERTEX
  8
25
 10
-2.9972
 20
-2.9690
 30
0.0000
  0
VERTEX
  8
25
 10
-2.9972
 20
-2.4892
 30
0.0000
  0
SEQEND
  8
0
  0
POLYLINE
  8
25
 66
1
 10
0.0000
 20
0.0000
 30
0.0000
 40
0.0762
 41
0.0762
 70
0
  0
VERTEX
  8
25
 10
-2.9591
 20
-2.4892
 30
0.0000
 42
1.0000
  0
VERTEX
  8
25
 10
-3.0353
 20
-2.4892
 30
0.0000
  0
SEQEND
  8
0
  0
POLYLINE
  8
25
 66
1
 10
0.0000
 20
0.0000
 30
0.0000
 40
0.0762
 41
0.0762
 70
0
  0
VERTEX
  8
25
 10
-3.0353
 20
-2.9690
 30
0.0000
 42
1.0000
  0
VERTEX
  8
25
 10
-2.9591
 20
-2.9690
 30
0.0000
  0
SEQEND
  8
0
  0
POINT
  8
23
 10
0.0000
 20
0.0000
 30
0.0000
  0
POLYLINE
  8
21
 66
1
 10
0.0000
 20
0.0000
 30
0.0000
 40
0.1524
 41
0.1524
 70
0
  0
VERTEX
  8
21
 10
-3.1750
 20
1.2700
 30
0.0000
  0
VERTEX
  8
21
 10
-1.9050
 20
1.2700
 30
0.0000
  0
SEQEND
  8
0
  0
POLYLINE
  8
21
 66
1
 10
0.0000
 20
0.0000
 30
0.0000
 40
0.0762
 41
0.0762
 70
0
  0
VERTEX
  8
21
 10
-1.9050
 20
1.2319
 30
0.0000
 42
1.0000
  0
VERTEX
  8
21
 10
-1.9050
 20
1.3081
 30
0.0000
  0
SEQEND
  8
0
  0
POLYLINE
  8
21
 66
1
 10
0.0000
 20
0.0000
 30
0.0000
 40
0.0762
 41
0.0762
 70
0
  0
VERTEX
  8
21
 10
-3.1750
 20
1.3081
 30
0.0000
 42
1.0000
  0
VERTEX
  8
21
 10
-3.1750
 20
1.2319
 30
0.0000
  0
SEQEND
  8
0
  0
POLYLINE
  8
21
 66
1
 10
0.0000
 20
0.0000
 30
0.0000
 40
0.1524
 41
0.1524
 70
0
  0
VERTEX
  8
21
 10
-1.9050
 20
1.2700
 30
0.0000
  0
VERTEX
  8
21
 10
-1.2700
 20
0.6350
 30
0.0000
  0
SEQEND
  8
0
  0
POLYLINE
  8
21
 66
1
 10
0.0000
 20
0.0000
 30
0.0000
 40
0.0762
 41
0.0762
 70
0
  0
VERTEX
  8
21
 10
-1.2969
 20
0.6081
 30
0.0000
 42
1.0000
  0
VERTEX
  8
21
 10
-1.2431
 20
0.6619
 30
0.0000
  0
SEQEND
  8
0
  0
POLYLINE
  8
21
 66
1
 10
0.0000
 20
0.0000
 30
0.0000
 40
0.0762
 41
0.0762
 70
0
  0
VERTEX
  8
21
 10
-1.8781
 20
1.2969
 30
0.0000
 42
1.0000
  0
VERTEX
  8
21
 10
-1.9319
 20
1.2431
 30
0.0000
  0
SEQEND
  8
0
  0
POLYLINE
  8
21
 66
1
 10
0.0000
 20
0.0000
 30
0.0000
 40
0.1524
 41
0.1524
 70
0
  0
VERTEX
  8
21
 10
-1.2700
 20
0.6350
 30
0.0000
  0
VERTEX
  8
21
 10
-1.2700
 20
-0.6350
 30
0.0000
  0
SEQEND
  8
0
  0
POLYLINE
  8
21
 66
1
 10
0.0000
 20
0.0000
 30
0.0000
 40
0.0762
 41
0.0762
 70
0
  0
VERTEX
  8
21
 10
-1.3081
 20
-0.6350
 30
0.0000
 42
1.0000
  0
VERTEX
  8
21
 10
-1.2319
 20
-0.6350
 30
0.0000
  0
SEQEND
  8
0
  0
POLYLINE
  8
21
 66
1
 10
0.0000
 20
0.0000
 30
0.0000
 40
0.0762
 41
0.0762
 70
0
  0
VERTEX
  8
21
 10
-1.2319
 20
0.6350
 30
0.0000
 42
1.0000
  0
VERTEX
  8
21
 10
-1.3081
 20
0.6350
 30
0.0000
  0
SEQEND
  8
0
  0
POLYLINE
  8
21
 66
1
 10
0.0000
 20
0.0000
 30
0.0000
 40
0.1524
 41
0.1524
 70
0
  0
VERTEX
  8
21
 10
-1.2700
 20
-0.6350
 30
0.0000
  0
VERTEX
  8
21
 10
-1.9050
 20
-1.2700
 30
0.0000
  0
SEQEND
  8
0
  0
POLYLINE
  8
21
 66
1
 10
0.0000
 20
0.0000
 30
0.0000
 40
0.0762
 41
0.0762
 70
0
  0
VERTEX
  8
21
 10
-1.9319
 20
-1.2431
 30
0.0000
 42
1.0000
  0
VERTEX
  8
21
 10
-1.8781
 20
-1.2969
 30
0.0000
  0
SEQEND
  8
0
  0
POLYLINE
  8
21
 66
1
 10
0.0000
 20
0.0000
 30
0.0000
 40
0.0762
 41
0.0762
 70
0
  0
VERTEX
  8
21
 10
-1.2431
 20
-0.6619
 30
0.0000
 42
1.0000
  0
VERTEX
  8
21
 10
-1.2969
 20
-0.6081
 30
0.0000
  0
SEQEND
  8
0
  0
POLYLINE
  8
21
 66
1
 10
0.0000
 20
0.0000
 30
0.0000
 40
0.1524
 41
0.1524
 70
0
  0
VERTEX
  8
21
 10
-1.2700
 20
0.6350
 30
0.0000
  0
VERTEX
  8
21
 10
-0.6350
 20
1.2700
 30
0.0000
  0
SEQEND
  8
0
  0
POLYLINE
  8
21
 66
1
 10
0.0000
 20
0.0000
 30
0.0000
 40
0.0762
 41
0.0762
 70
0
  0
VERTEX
  8
21
 10
-0.6081
 20
1.2431
 30
0.0000
 42
1.0000
  0
VERTEX
  8
21
 10
-0.6619
 20
1.2969
 30
0.0000
  0
SEQEND
  8
0
  0
POLYLINE
  8
21
 66
1
 10
0.0000
 20
0.0000
 30
0.0000
 40
0.0762
 41
0.0762
 70
0
  0
VERTEX
  8
21
 10
-1.2969
 20
0.6619
 30
0.0000
 42
1.0000
  0
VERTEX
  8
21
 10
-1.2431
 20
0.6081
 30
0.0000
  0
SEQEND
  8
0
  0
POLYLINE
  8
21
 66
1
 10
0.0000
 20
0.0000
 30
0.0000
 40
0.1524
 41
0.1524
 70
0
  0
VERTEX
  8
21
 10
-0.6350
 20
1.2700
 30
0.0000
  0
VERTEX
  8
21
 10
0.6350
 20
1.2700
 30
0.0000
  0
SEQEND
  8
0
  0
POLYLINE
  8
21
 66
1
 10
0.0000
 20
0.0000
 30
0.0000
 40
0.0762
 41
0.0762
 70
0
  0
VERTEX
  8
21
 10
0.6350
 20
1.2319
 30
0.0000
 42
1.0000
  0
VERTEX
  8
21
 10
0.6350
 20
1.3081
 30
0.0000
  0
SEQEND
  8
0
  0
POLYLINE
  8
21
 66
1
 10
0.0000
 20
0.0000
 30
0.0000
 40
0.0762
 41
0.0762
 70
0
  0
VERTEX
  8
21
 10
-0.6350
 20
1.3081
 30
0.0000
 42
1.0000
  0
VERTEX
  8
21
 10
-0.6350
 20
1.2319
 30
0.0000
  0
SEQEND
  8
0
  0
POLYLINE
  8
21
 66
1
 10
0.0000
 20
0.0000
 30
0.0000
 40
0.1524
 41
0.1524
 70
0
  0
VERTEX
  8
21
 10
0.6350
 20
1.2700
 30
0.0000
  0
VERTEX
  8
21
 10
1.2700
 20
0.6350
 30
0.0000
  0
SEQEND
  8
0
  0
POLYLINE
  8
21
 66
1
 10
0.0000
 20
0.0000
 30
0.0000
 40
0.0762
 41
0.0762
 70
0
  0
VERTEX
  8
21
 10
1.2431
 20
0.6081
 30
0.0000
 42
1.0000
  0
VERTEX
  8
21
 10
1.2969
 20
0.6619
 30
0.0000
  0
SEQEND
  8
0
  0
POLYLINE
  8
21
 66
1
 10
0.0000
 20
0.0000
 30
0.0000
 40
0.0762
 41
0.0762
 70
0
  0
VERTEX
  8
21
 10
0.6619
 20
1.2969
 30
0.0000
 42
1.0000
  0
VERTEX
  8
21
 10
0.6081
 20
1.2431
 30
0.0000
  0
SEQEND
  8
0
  0
POLYLINE
  8
21
 66
1
 10
0.0000
 20
0.0000
 30
0.0000
 40
0.1524
 41
0.1524
 70
0
  0
VERTEX
  8
21
 10
1.2700
 20
0.6350
 30
0.0000
  0
VERTEX
  8
21
 10
1.2700
 20
-0.6350
 30
0.0000
  0
SEQEND
  8
0
  0
POLYLINE
  8
21
 66
1
 10
0.0000
 20
0.0000
 30
0.0000
 40
0.0762
 41
0.0762
 70
0
  0
VERTEX
  8
21
 10
1.2319
 20
-0.6350
 30
0.0000
 42
1.0000
  0
VERTEX
  8
21
 10
1.3081
 20
-0.6350
 30
0.0000
  0
SEQEND
  8
0
  0
POLYLINE
  8
21
 66
1
 10
0.0000
 20
0.0000
 30
0.0000
 40
0.0762
 41
0.0762
 70
0
  0
VERTEX
  8
21
 10
1.3081
 20
0.6350
 30
0.0000
 42
1.0000
  0
VERTEX
  8
21
 10
1.2319
 20
0.6350
 30
0.0000
  0
SEQEND
  8
0
  0
POLYLINE
  8
21
 66
1
 10
0.0000
 20
0.0000
 30
0.0000
 40
0.1524
 41
0.1524
 70
0
  0
VERTEX
  8
21
 10
1.2700
 20
-0.6350
 30
0.0000
  0
VERTEX
  8
21
 10
0.6350
 20
-1.2700
 30
0.0000
  0
SEQEND
  8
0
  0
POLYLINE
  8
21
 66
1
 10
0.0000
 20
0.0000
 30
0.0000
 40
0.0762
 41
0.0762
 70
0
  0
VERTEX
  8
21
 10
0.6081
 20
-1.2431
 30
0.0000
 42
1.0000
  0
VERTEX
  8
21
 10
0.6619
 20
-1.2969
 30
0.0000
  0
SEQEND
  8
0
  0
POLYLINE
  8
21
 66
1
 10
0.0000
 20
0.0000
 30
0.0000
 40
0.0762
 41
0.0762
 70
0
  0
VERTEX
  8
21
 10
1.2969
 20
-0.6619
 30
0.0000
 42
1.0000
  0
VERTEX
  8
21
 10
1.2431
 20
-0.6081
 30
0.0000
  0
SEQEND
  8
0
  0
POLYLINE
  8
21
 66
1
 10
0.0000
 20
0.0000
 30
0.0000
 40
0.1524
 41
0.1524
 70
0
  0
VERTEX
  8
21
 10
0.6350
 20
-1.2700
 30
0.0000
  0
VERTEX
  8
21
 10
-0.6350
 20
-1.2700
 30
0.0000
  0
SEQEND
  8
0
  0
POLYLINE
  8
21
 66
1
 10
0.0000
 20
0.0000
 30
0.0000
 40
0.0762
 41
0.0762
 70
0
  0
VERTEX
  8
21
 10
-0.6350
 20
-1.2319
 30
0.0000
 42
1.0000
  0
VERTEX
  8
21
 10
-0.6350
 20
-1.3081
 30
0.0000
  0
SEQEND
  8
0
  0
POLYLINE
  8
21
 66
1
 10
0.0000
 20
0.0000
 30
0.0000
 40
0.0762
 41
0.0762
 70
0
  0
VERTEX
  8
21
 10
0.6350
 20
-1.3081
 30
0.0000
 42
1.0000
  0
VERTEX
  8
21
 10
0.6350
 20
-1.2319
 30
0.0000
  0
SEQEND
  8
0
  0
POLYLINE
  8
21
 66
1
 10
0.0000
 20
0.0000
 30
0.0000
 40
0.1524
 41
0.1524
 70
0
  0
VERTEX
  8
21
 10
-0.6350
 20
-1.2700
 30
0.0000
  0
VERTEX
  8
21
 10
-1.2700
 20
-0.6350
 30
0.0000
  0
SEQEND
  8
0
  0
POLYLINE
  8
21
 66
1
 10
0.0000
 20
0.0000
 30
0.0000
 40
0.0762
 41
0.0762
 70
0
  0
VERTEX
  8
21
 10
-1.2431
 20
-0.6081
 30
0.0000
 42
1.0000
  0
VERTEX
  8
21
 10
-1.2969
 20
-0.6619
 30
0.0000
  0
SEQEND
  8
0
  0
POLYLINE
  8
21
 66
1
 10
0.0000
 20
0.0000
 30
0.0000
 40
0.0762
 41
0.0762
 70
0
  0
VERTEX
  8
21
 10
-0.6619
 20
-1.2969
 30
0.0000
 42
1.0000
  0
VERTEX
  8
21
 10
-0.6081
 20
-1.2431
 30
0.0000
  0
SEQEND
  8
0
  0
POLYLINE
  8
21
 66
1
 10
0.0000
 20
0.0000
 30
0.0000
 40
0.1524
 41
0.1524
 70
0
  0
VERTEX
  8
21
 10
-3.8100
 20
0.6350
 30
0.0000
  0
VERTEX
  8
21
 10
-3.8100
 20
-0.6350
 30
0.0000
  0
SEQEND
  8
0
  0
POLYLINE
  8
21
 66
1
 10
0.0000
 20
0.0000
 30
0.0000
 40
0.0762
 41
0.0762
 70
0
  0
VERTEX
  8
21
 10
-3.8481
 20
-0.6350
 30
0.0000
 42
1.0000
  0
VERTEX
  8
21
 10
-3.7719
 20
-0.6350
 30
0.0000
  0
SEQEND
  8
0
  0
POLYLINE
  8
21
 66
1
 10
0.0000
 20
0.0000
 30
0.0000
 40
0.0762
 41
0.0762
 70
0
  0
VERTEX
  8
21
 10
-3.7719
 20
0.6350
 30
0.0000
 42
1.0000
  0
VERTEX
  8
21
 10
-3.8481
 20
0.6350
 30
0.0000
  0
SEQEND
  8
0
  0
POLYLINE
  8
21
 66
1
 10
0.0000
 20
0.0000
 30
0.0000
 40
0.1524
 41
0.1524
 70
0
  0
VERTEX
  8
21
 10
-3.1750
 20
1.2700
 30
0.0000
  0
VERTEX
  8
21
 10
-3.8100
 20
0.6350
 30
0.0000
  0
SEQEND
  8
0
  0
POLYLINE
  8
21
 66
1
 10
0.0000
 20
0.0000
 30
0.0000
 40
0.0762
 41
0.0762
 70
0
  0
VERTEX
  8
21
 10
-3.8369
 20
0.6619
 30
0.0000
 42
1.0000
  0
VERTEX
  8
21
 10
-3.7831
 20
0.6081
 30
0.0000
  0
SEQEND
  8
0
  0
POLYLINE
  8
21
 66
1
 10
0.0000
 20
0.0000
 30
0.0000
 40
0.0762
 41
0.0762
 70
0
  0
VERTEX
  8
21
 10
-3.1481
 20
1.2431
 30
0.0000
 42
1.0000
  0
VERTEX
  8
21
 10
-3.2019
 20
1.2969
 30
0.0000
  0
SEQEND
  8
0
  0
POLYLINE
  8
21
 66
1
 10
0.0000
 20
0.0000
 30
0.0000
 40
0.1524
 41
0.1524
 70
0
  0
VERTEX
  8
21
 10
-3.8100
 20
-0.6350
 30
0.0000
  0
VERTEX
  8
21
 10
-3.1750
 20
-1.2700
 30
0.0000
  0
SEQEND
  8
0
  0
POLYLINE
  8
21
 66
1
 10
0.0000
 20
0.0000
 30
0.0000
 40
0.0762
 41
0.0762
 70
0
  0
VERTEX
  8
21
 10
-3.2019
 20
-1.2969
 30
0.0000
 42
1.0000
  0
VERTEX
  8
21
 10
-3.1481
 20
-1.2431
 30
0.0000
  0
SEQEND
  8
0
  0
POLYLINE
  8
21
 66
1
 10
0.0000
 20
0.0000
 30
0.0000
 40
0.0762
 41
0.0762
 70
0
  0
VERTEX
  8
21
 10
-3.7831
 20
-0.6081
 30
0.0000
 42
1.0000
  0
VERTEX
  8
21
 10
-3.8369
 20
-0.6619
 30
0.0000
  0
SEQEND
  8
0
  0
POLYLINE
  8
21
 66
1
 10
0.0000
 20
0.0000
 30
0.0000
 40
0.1524
 41
0.1524
 70
0
  0
VERTEX
  8
21
 10
-1.9050
 20
-1.2700
 30
0.0000
  0
VERTEX
  8
21
 10
-3.1750
 20
-1.2700
 30
0.0000
  0
SEQEND
  8
0
  0
POLYLINE
  8
21
 66
1
 10
0.0000
 20
0.0000
 30
0.0000
 40
0.0762
 41
0.0762
 70
0
  0
VERTEX
  8
21
 10
-3.1750
 20
-1.2319
 30
0.0000
 42
1.0000
  0
VERTEX
  8
21
 10
-3.1750
 20
-1.3081
 30
0.0000
  0
SEQEND
  8
0
  0
POLYLINE
  8
21
 66
1
 10
0.0000
 20
0.0000
 30
0.0000
 40
0.0762
 41
0.0762
 70
0
  0
VERTEX
  8
21
 10
-1.9050
 20
-1.3081
 30
0.0000
 42
1.0000
  0
VERTEX
  8
21
 10
-1.9050
 20
-1.2319
 30
0.0000
  0
SEQEND
  8
0
  0
POLYLINE
  8
21
 66
1
 10
0.0000
 20
0.0000
 30
0.0000
 40
0.1524
 41
0.1524
 70
0
  0
VERTEX
  8
21
 10
1.2700
 20
0.6350
 30
0.0000
  0
VERTEX
  8
21
 10
1.9050
 20
1.2700
 30
0.0000
  0
SEQEND
  8
0
  0
POLYLINE
  8
21
 66
1
 10
0.0000
 20
0.0000
 30
0.0000
 40
0.0762
 41
0.0762
 70
0
  0
VERTEX
  8
21
 10
1.9319
 20
1.2431
 30
0.0000
 42
1.0000
  0
VERTEX
  8
21
 10
1.8781
 20
1.2969
 30
0.0000
  0
SEQEND
  8
0
  0
POLYLINE
  8
21
 66
1
 10
0.0000
 20
0.0000
 30
0.0000
 40
0.0762
 41
0.0762
 70
0
  0
VERTEX
  8
21
 10
1.2431
 20
0.6619
 30
0.0000
 42
1.0000
  0
VERTEX
  8
21
 10
1.2969
 20
0.6081
 30
0.0000
  0
SEQEND
  8
0
  0
POLYLINE
  8
21
 66
1
 10
0.0000
 20
0.0000
 30
0.0000
 40
0.1524
 41
0.1524
 70
0
  0
VERTEX
  8
21
 10
1.9050
 20
1.2700
 30
0.0000
  0
VERTEX
  8
21
 10
3.1750
 20
1.2700
 30
0.0000
  0
SEQEND
  8
0
  0
POLYLINE
  8
21
 66
1
 10
0.0000
 20
0.0000
 30
0.0000
 40
0.0762
 41
0.0762
 70
0
  0
VERTEX
  8
21
 10
3.1750
 20
1.2319
 30
0.0000
 42
1.0000
  0
VERTEX
  8
21
 10
3.1750
 20
1.3081
 30
0.0000
  0
SEQEND
  8
0
  0
POLYLINE
  8
21
 66
1
 10
0.0000
 20
0.0000
 30
0.0000
 40
0.0762
 41
0.0762
 70
0
  0
VERTEX
  8
21
 10
1.9050
 20
1.3081
 30
0.0000
 42
1.0000
  0
VERTEX
  8
21
 10
1.9050
 20
1.2319
 30
0.0000
  0
SEQEND
  8
0
  0
POLYLINE
  8
21
 66
1
 10
0.0000
 20
0.0000
 30
0.0000
 40
0.1524
 41
0.1524
 70
0
  0
VERTEX
  8
21
 10
3.1750
 20
1.2700
 30
0.0000
  0
VERTEX
  8
21
 10
3.8100
 20
0.6350
 30
0.0000
  0
SEQEND
  8
0
  0
POLYLINE
  8
21
 66
1
 10
0.0000
 20
0.0000
 30
0.0000
 40
0.0762
 41
0.0762
 70
0
  0
VERTEX
  8
21
 10
3.7831
 20
0.6081
 30
0.0000
 42
1.0000
  0
VERTEX
  8
21
 10
3.8369
 20
0.6619
 30
0.0000
  0
SEQEND
  8
0
  0
POLYLINE
  8
21
 66
1
 10
0.0000
 20
0.0000
 30
0.0000
 40
0.0762
 41
0.0762
 70
0
  0
VERTEX
  8
21
 10
3.2019
 20
1.2969
 30
0.0000
 42
1.0000
  0
VERTEX
  8
21
 10
3.1481
 20
1.2431
 30
0.0000
  0
SEQEND
  8
0
  0
POLYLINE
  8
21
 66
1
 10
0.0000
 20
0.0000
 30
0.0000
 40
0.1524
 41
0.1524
 70
0
  0
VERTEX
  8
21
 10
3.8100
 20
0.6350
 30
0.0000
  0
VERTEX
  8
21
 10
3.8100
 20
-0.6350
 30
0.0000
  0
SEQEND
  8
0
  0
POLYLINE
  8
21
 66
1
 10
0.0000
 20
0.0000
 30
0.0000
 40
0.0762
 41
0.0762
 70
0
  0
VERTEX
  8
21
 10
3.7719
 20
-0.6350
 30
0.0000
 42
1.0000
  0
VERTEX
  8
21
 10
3.8481
 20
-0.6350
 30
0.0000
  0
SEQEND
  8
0
  0
POLYLINE
  8
21
 66
1
 10
0.0000
 20
0.0000
 30
0.0000
 40
0.0762
 41
0.0762
 70
0
  0
VERTEX
  8
21
 10
3.8481
 20
0.6350
 30
0.0000
 42
1.0000
  0
VERTEX
  8
21
 10
3.7719
 20
0.6350
 30
0.0000
  0
SEQEND
  8
0
  0
POLYLINE
  8
21
 66
1
 10
0.0000
 20
0.0000
 30
0.0000
 40
0.1524
 41
0.1524
 70
0
  0
VERTEX
  8
21
 10
3.8100
 20
-0.6350
 30
0.0000
  0
VERTEX
  8
21
 10
3.1750
 20
-1.2700
 30
0.0000
  0
SEQEND
  8
0
  0
POLYLINE
  8
21
 66
1
 10
0.0000
 20
0.0000
 30
0.0000
 40
0.0762
 41
0.0762
 70
0
  0
VERTEX
  8
21
 10
3.1481
 20
-1.2431
 30
0.0000
 42
1.0000
  0
VERTEX
  8
21
 10
3.2019
 20
-1.2969
 30
0.0000
  0
SEQEND
  8
0
  0
POLYLINE
  8
21
 66
1
 10
0.0000
 20
0.0000
 30
0.0000
 40
0.0762
 41
0.0762
 70
0
  0
VERTEX
  8
21
 10
3.8369
 20
-0.6619
 30
0.0000
 42
1.0000
  0
VERTEX
  8
21
 10
3.7831
 20
-0.6081
 30
0.0000
  0
SEQEND
  8
0
  0
POLYLINE
  8
21
 66
1
 10
0.0000
 20
0.0000
 30
0.0000
 40
0.1524
 41
0.1524
 70
0
  0
VERTEX
  8
21
 10
3.1750
 20
-1.2700
 30
0.0000
  0
VERTEX
  8
21
 10
1.9050
 20
-1.2700
 30
0.0000
  0
SEQEND
  8
0
  0
POLYLINE
  8
21
 66
1
 10
0.0000
 20
0.0000
 30
0.0000
 40
0.0762
 41
0.0762
 70
0
  0
VERTEX
  8
21
 10
1.9050
 20
-1.2319
 30
0.0000
 42
1.0000
  0
VERTEX
  8
21
 10
1.9050
 20
-1.3081
 30
0.0000
  0
SEQEND
  8
0
  0
POLYLINE
  8
21
 66
1
 10
0.0000
 20
0.0000
 30
0.0000
 40
0.0762
 41
0.0762
 70
0
  0
VERTEX
  8
21
 10
3.1750
 20
-1.3081
 30
0.0000
 42
1.0000
  0
VERTEX
  8
21
 10
3.1750
 20
-1.2319
 30
0.0000
  0
SEQEND
  8
0
  0
POLYLINE
  8
21
 66
1
 10
0.0000
 20
0.0000
 30
0.0000
 40
0.1524
 41
0.1524
 70
0
  0
VERTEX
  8
21
 10
1.9050
 20
-1.2700
 30
0.0000
  0
VERTEX
  8
21
 10
1.2700
 20
-0.6350
 30
0.0000
  0
SEQEND
  8
0
  0
POLYLINE
  8
21
 66
1
 10
0.0000
 20
0.0000
 30
0.0000
 40
0.0762
 41
0.0762
 70
0
  0
VERTEX
  8
21
 10
1.2969
 20
-0.6081
 30
0.0000
 42
1.0000
  0
VERTEX
  8
21
 10
1.2431
 20
-0.6619
 30
0.0000
  0
SEQEND
  8
0
  0
POLYLINE
  8
21
 66
1
 10
0.0000
 20
0.0000
 30
0.0000
 40
0.0762
 41
0.0762
 70
0
  0
VERTEX
  8
21
 10
1.8781
 20
-1.2969
 30
0.0000
 42
1.0000
  0
VERTEX
  8
21
 10
1.9319
 20
-1.2431
 30
0.0000
  0
SEQEND
  8
0
  0
INSERT
  8
51
  2
RECT
 10
0.0000
 20
0.0000
 30
0.0000
 41
0.5080
 42
0.5080
 43
1.0000
 50
0.0000
  0
INSERT
  8
51
  2
RECT
 10
-2.5400
 20
0.0000
 30
0.0000
 41
0.5080
 42
0.5080
 43
1.0000
 50
0.0000
  0
INSERT
  8
51
  2
RECT
 10
2.5400
 20
0.0000
 30
0.0000
 41
0.5080
 42
0.5080
 43
1.0000
 50
0.0000
  0
INSERT
  8
17
  2
LONGP100
 10
-2.5400
 20
0.0000
 30
0.0000
 41
1.5240
 42
1.5240
 43
1.0000
 50
90.0000
  0
INSERT
  8
17
  2
LONGP100
 10
-2.5400
 20
0.0000
 30
0.0000
 41
1.5240
 42
1.5240
 43
1.0000
 50
90.0000
  0
INSERT
  8
17
  2
LONGP100
 10
0.0000
 20
0.0000
 30
0.0000
 41
1.5240
 42
1.5240
 43
1.0000
 50
90.0000
  0
INSERT
  8
17
  2
LONGP100
 10
0.0000
 20
0.0000
 30
0.0000
 41
1.5240
 42
1.5240
 43
1.0000
 50
90.0000
  0
INSERT
  8
17
  2
LONGP100
 10
2.5400
 20
0.0000
 30
0.0000
 41
1.5240
 42
1.5240
 43
1.0000
 50
90.0000
  0
INSERT
  8
17
  2
LONGP100
 10
2.5400
 20
0.0000
 30
0.0000
 41
1.5240
 42
1.5240
 43
1.0000
 50
90.0000
  0
POLYLINE
  8
25
 66
1
 10
0.0000
 20
0.0000
 30
0.0000
 40
0.1270
 41
0.1270
 70
0
  0
VERTEX
  8
25
 10
-3.4417
 20
3.0353
 30
0.0000
  0
VERTEX
  8
25
 10
-3.4417
 20
2.1463
 30
0.0000
  0
SEQEND
  8
0
  0
POLYLINE
  8
25
 66
1
 10
0.0000
 20
0.0000
 30
0.0000
 40
0.0635
 41
0.0635
 70
0
  0
VERTEX
  8
25
 10
-3.4735
 20
2.1463
 30
0.0000
 42
1.0000
  0
VERTEX
  8
25
 10
-3.4099
 20
2.1463
 30
0.0000
  0
SEQEND
  8
0
  0
POLYLINE
  8
25
 66
1
 10
0.0000
 20
0.0000
 30
0.0000
 40
0.0635
 41
0.0635
 70
0
  0
VERTEX
  8
25
 10
-3.4099
 20
3.0353
 30
0.0000
 42
1.0000
  0
VERTEX
  8
25
 10
-3.4735
 20
3.0353
 30
0.0000
  0
SEQEND
  8
0
  0
POLYLINE
  8
25
 66
1
 10
0.0000
 20
0.0000
 30
0.0000
 40
0.1270
 41
0.1270
 70
0
  0
VERTEX
  8
25
 10
-3.6957
 20
1.8923
 30
0.0000
 42
0.4142
  0
VERTEX
  8
25
 10
-3.4417
 20
2.1463
 30
0.0000
  0
SEQEND
  8
0
  0
POLYLINE
  8
25
 66
1
 10
0.0000
 20
0.0000
 30
0.0000
 40
0.0635
 41
0.0635
 70
0
  0
VERTEX
  8
25
 10
-3.6957
 20
1.9241
 30
0.0000
 42
1.0000
  0
VERTEX
  8
25
 10
-3.6957
 20
1.8606
 30
0.0000
  0
SEQEND
  8
0
  0
POLYLINE
  8
25
 66
1
 10
0.0000
 20
0.0000
 30
0.0000
 40
0.0635
 41
0.0635
 70
0
  0
VERTEX
  8
25
 10
-3.4099
 20
2.1463
 30
0.0000
 42
1.0000
  0
VERTEX
  8
25
 10
-3.4735
 20
2.1463
 30
0.0000
  0
SEQEND
  8
0
  0
POLYLINE
  8
25
 66
1
 10
0.0000
 20
0.0000
 30
0.0000
 40
0.1270
 41
0.1270
 70
0
  0
VERTEX
  8
25
 10
-3.6957
 20
1.8923
 30
0.0000
  0
VERTEX
  8
25
 10
-3.8227
 20
1.8923
 30
0.0000
  0
SEQEND
  8
0
  0
POLYLINE
  8
25
 66
1
 10
0.0000
 20
0.0000
 30
0.0000
 40
0.0635
 41
0.0635
 70
0
  0
VERTEX
  8
25
 10
-3.8227
 20
1.9241
 30
0.0000
 42
1.0000
  0
VERTEX
  8
25
 10
-3.8227
 20
1.8606
 30
0.0000
  0
SEQEND
  8
0
  0
POLYLINE
  8
25
 66
1
 10
0.0000
 20
0.0000
 30
0.0000
 40
0.0635
 41
0.0635
 70
0
  0
VERTEX
  8
25
 10
-3.6957
 20
1.8606
 30
0.0000
 42
1.0000
  0
VERTEX
  8
25
 10
-3.6957
 20
1.9241
 30
0.0000
  0
SEQEND
  8
0
  0
POLYLINE
  8
25
 66
1
 10
0.0000
 20
0.0000
 30
0.0000
 40
0.1270
 41
0.1270
 70
0
  0
VERTEX
  8
25
 10
-2.8437
 20
1.8923
 30
0.0000
  0
VERTEX
  8
25
 10
-2.8437
 20
3.0353
 30
0.0000
  0
SEQEND
  8
0
  0
POLYLINE
  8
25
 66
1
 10
0.0000
 20
0.0000
 30
0.0000
 40
0.0635
 41
0.0635
 70
0
  0
VERTEX
  8
25
 10
-2.8119
 20
3.0353
 30
0.0000
 42
1.0000
  0
VERTEX
  8
25
 10
-2.8754
 20
3.0353
 30
0.0000
  0
SEQEND
  8
0
  0
POLYLINE
  8
25
 66
1
 10
0.0000
 20
0.0000
 30
0.0000
 40
0.0635
 41
0.0635
 70
0
  0
VERTEX
  8
25
 10
-2.8754
 20
1.8923
 30
0.0000
 42
1.0000
  0
VERTEX
  8
25
 10
-2.8119
 20
1.8923
 30
0.0000
  0
SEQEND
  8
0
  0
POLYLINE
  8
25
 66
1
 10
0.0000
 20
0.0000
 30
0.0000
 40
0.1270
 41
0.1270
 70
0
  0
VERTEX
  8
25
 10
-2.8437
 20
3.0353
 30
0.0000
  0
VERTEX
  8
25
 10
-2.5262
 20
3.0353
 30
0.0000
  0
SEQEND
  8
0
  0
POLYLINE
  8
25
 66
1
 10
0.0000
 20
0.0000
 30
0.0000
 40
0.0635
 41
0.0635
 70
0
  0
VERTEX
  8
25
 10
-2.5262
 20
3.0036
 30
0.0000
 42
1.0000
  0
VERTEX
  8
25
 10
-2.5262
 20
3.0671
 30
0.0000
  0
SEQEND
  8
0
  0
POLYLINE
  8
25
 66
1
 10
0.0000
 20
0.0000
 30
0.0000
 40
0.0635
 41
0.0635
 70
0
  0
VERTEX
  8
25
 10
-2.8437
 20
3.0671
 30
0.0000
 42
1.0000
  0
VERTEX
  8
25
 10
-2.8437
 20
3.0036
 30
0.0000
  0
SEQEND
  8
0
  0
POLYLINE
  8
25
 66
1
 10
0.0000
 20
0.0000
 30
0.0000
 40
0.1270
 41
0.1270
 70
0
  0
VERTEX
  8
25
 10
-2.5262
 20
2.4003
 30
0.0000
 42
1.0000
  0
VERTEX
  8
25
 10
-2.5262
 20
3.0353
 30
0.0000
  0
SEQEND
  8
0
  0
POLYLINE
  8
25
 66
1
 10
0.0000
 20
0.0000
 30
0.0000
 40
0.0635
 41
0.0635
 70
0
  0
VERTEX
  8
25
 10
-2.5262
 20
2.4321
 30
0.0000
 42
1.0000
  0
VERTEX
  8
25
 10
-2.5262
 20
2.3685
 30
0.0000
  0
SEQEND
  8
0
  0
POLYLINE
  8
25
 66
1
 10
0.0000
 20
0.0000
 30
0.0000
 40
0.0635
 41
0.0635
 70
0
  0
VERTEX
  8
25
 10
-2.5262
 20
3.0671
 30
0.0000
 42
1.0000
  0
VERTEX
  8
25
 10
-2.5262
 20
3.0036
 30
0.0000
  0
SEQEND
  8
0
  0
POLYLINE
  8
25
 66
1
 10
0.0000
 20
0.0000
 30
0.0000
 40
0.1270
 41
0.1270
 70
0
  0
VERTEX
  8
25
 10
-2.5262
 20
2.4003
 30
0.0000
  0
VERTEX
  8
25
 10
-2.8437
 20
2.4003
 30
0.0000
  0
SEQEND
  8
0
  0
POLYLINE
  8
25
 66
1
 10
0.0000
 20
0.0000
 30
0.0000
 40
0.0635
 41
0.0635
 70
0
  0
VERTEX
  8
25
 10
-2.8437
 20
2.4321
 30
0.0000
 42
1.0000
  0
VERTEX
  8
25
 10
-2.8437
 20
2.3685
 30
0.0000
  0
SEQEND
  8
0
  0
POLYLINE
  8
25
 66
1
 10
0.0000
 20
0.0000
 30
0.0000
 40
0.0635
 41
0.0635
 70
0
  0
VERTEX
  8
25
 10
-2.5262
 20
2.3685
 30
0.0000
 42
1.0000
  0
VERTEX
  8
25
 10
-2.5262
 20
2.4321
 30
0.0000
  0
SEQEND
  8
0
  0
POLYLINE
  8
25
 66
1
 10
0.0000
 20
0.0000
 30
0.0000
 40
0.1270
 41
0.1270
 70
0
  0
VERTEX
  8
25
 10
-1.1228
 20
2.7496
 30
0.0000
 42
0.4142
  0
VERTEX
  8
25
 10
-1.4086
 20
3.0353
 30
0.0000
  0
SEQEND
  8
0
  0
POLYLINE
  8
25
 66
1
 10
0.0000
 20
0.0000
 30
0.0000
 40
0.0635
 41
0.0635
 70
0
  0
VERTEX
  8
25
 10
-1.1546
 20
2.7496
 30
0.0000
 42
1.0000
  0
VERTEX
  8
25
 10
-1.0911
 20
2.7496
 30
0.0000
  0
SEQEND
  8
0
  0
POLYLINE
  8
25
 66
1
 10
0.0000
 20
0.0000
 30
0.0000
 40
0.0635
 41
0.0635
 70
0
  0
VERTEX
  8
25
 10
-1.4086
 20
3.0671
 30
0.0000
 42
1.0000
  0
VERTEX
  8
25
 10
-1.4086
 20
3.0036
 30
0.0000
  0
SEQEND
  8
0
  0
POLYLINE
  8
25
 66
1
 10
0.0000
 20
0.0000
 30
0.0000
 40
0.1270
 41
0.1270
 70
0
  0
VERTEX
  8
25
 10
-1.4086
 20
3.0353
 30
0.0000
 42
0.3252
  0
VERTEX
  8
25
 10
-1.7578
 20
2.7813
 30
0.0000
  0
SEQEND
  8
0
  0
POLYLINE
  8
25
 66
1
 10
0.0000
 20
0.0000
 30
0.0000
 40
0.0635
 41
0.0635
 70
0
  0
VERTEX
  8
25
 10
-1.4086
 20
3.0036
 30
0.0000
 42
1.0000
  0
VERTEX
  8
25
 10
-1.4086
 20
3.0671
 30
0.0000
  0
SEQEND
  8
0
  0
POLYLINE
  8
25
 66
1
 10
0.0000
 20
0.0000
 30
0.0000
 40
0.0635
 41
0.0635
 70
0
  0
VERTEX
  8
25
 10
-1.7880
 20
2.7911
 30
0.0000
 42
1.0000
  0
VERTEX
  8
25
 10
-1.7276
 20
2.7715
 30
0.0000
  0
SEQEND
  8
0
  0
POLYLINE
  8
25
 66
1
 10
0.0000
 20
0.0000
 30
0.0000
 40
0.1270
 41
0.1270
 70
0
  0
VERTEX
  8
25
 10
-1.2181
 20
2.5273
 30
0.0000
 42
0.2053
  0
VERTEX
  8
25
 10
-1.1228
 20
2.7496
 30
0.0000
  0
SEQEND
  8
0
  0
POLYLINE
  8
25
 66
1
 10
0.0000
 20
0.0000
 30
0.0000
 40
0.0635
 41
0.0635
 70
0
  0
VERTEX
  8
25
 10
-1.2400
 20
2.5503
 30
0.0000
 42
1.0000
  0
VERTEX
  8
25
 10
-1.1962
 20
2.5043
 30
0.0000
  0
SEQEND
  8
0
  0
POLYLINE
  8
25
 66
1
 10
0.0000
 20
0.0000
 30
0.0000
 40
0.0635
 41
0.0635
 70
0
  0
VERTEX
  8
25
 10
-1.0911
 20
2.7496
 30
0.0000
 42
1.0000
  0
VERTEX
  8
25
 10
-1.1546
 20
2.7495
 30
0.0000
  0
SEQEND
  8
0
  0
POLYLINE
  8
25
 66
1
 10
0.0000
 20
0.0000
 30
0.0000
 40
0.1270
 41
0.1270
 70
0
  0
VERTEX
  8
25
 10
-1.2181
 20
2.5273
 30
0.0000
  0
VERTEX
  8
25
 10
-1.7578
 20
1.8923
 30
0.0000
  0
SEQEND
  8
0
  0
POLYLINE
  8
25
 66
1
 10
0.0000
 20
0.0000
 30
0.0000
 40
0.0635
 41
0.0635
 70
0
  0
VERTEX
  8
25
 10
-1.7820
 20
1.9129
 30
0.0000
 42
1.0000
  0
VERTEX
  8
25
 10
-1.7336
 20
1.8717
 30
0.0000
  0
SEQEND
  8
0
  0
POLYLINE
  8
25
 66
1
 10
0.0000
 20
0.0000
 30
0.0000
 40
0.0635
 41
0.0635
 70
0
  0
VERTEX
  8
25
 10
-1.1939
 20
2.5067
 30
0.0000
 42
1.0000
  0
VERTEX
  8
25
 10
-1.2423
 20
2.5479
 30
0.0000
  0
SEQEND
  8
0
  0
POLYLINE
  8
25
 66
1
 10
0.0000
 20
0.0000
 30
0.0000
 40
0.1270
 41
0.1270
 70
0
  0
VERTEX
  8
25
 10
-1.7578
 20
1.8923
 30
0.0000
  0
VERTEX
  8
25
 10
-1.1228
 20
1.8923
 30
0.0000
  0
SEQEND
  8
0
  0
POLYLINE
  8
25
 66
1
 10
0.0000
 20
0.0000
 30
0.0000
 40
0.0635
 41
0.0635
 70
0
  0
VERTEX
  8
25
 10
-1.1228
 20
1.8606
 30
0.0000
 42
1.0000
  0
VERTEX
  8
25
 10
-1.1228
 20
1.9241
 30
0.0000
  0
SEQEND
  8
0
  0
POLYLINE
  8
25
 66
1
 10
0.0000
 20
0.0000
 30
0.0000
 40
0.0635
 41
0.0635
 70
0
  0
VERTEX
  8
25
 10
-1.7578
 20
1.9241
 30
0.0000
 42
1.0000
  0
VERTEX
  8
25
 10
-1.7578
 20
1.8606
 30
0.0000
  0
SEQEND
  8
0
  0
POINT
  8
23
 10
4.9530
 20
4.6990
 30
0.0000
  0
POLYLINE
  8
21
 66
1
 10
0.0000
 20
0.0000
 30
0.0000
 40
0.1270
 41
0.1270
 70
0
  0
VERTEX
  8
21
 10
5.9690
 20
6.7310
 30
0.0000
  0
VERTEX
  8
21
 10
5.9690
 20
2.6670
 30
0.0000
  0
SEQEND
  8
0
  0
POLYLINE
  8
21
 66
1
 10
0.0000
 20
0.0000
 30
0.0000
 40
0.0635
 41
0.0635
 70
0
  0
VERTEX
  8
21
 10
5.9373
 20
2.6670
 30
0.0000
 42
1.0000
  0
VERTEX
  8
21
 10
6.0008
 20
2.6670
 30
0.0000
  0
SEQEND
  8
0
  0
POLYLINE
  8
21
 66
1
 10
0.0000
 20
0.0000
 30
0.0000
 40
0.0635
 41
0.0635
 70
0
  0
VERTEX
  8
21
 10
6.0008
 20
6.7310
 30
0.0000
 42
1.0000
  0
VERTEX
  8
21
 10
5.9373
 20
6.7310
 30
0.0000
  0
SEQEND
  8
0
  0
POLYLINE
  8
21
 66
1
 10
0.0000
 20
0.0000
 30
0.0000
 40
0.1270
 41
0.1270
 70
0
  0
VERTEX
  8
21
 10
5.9690
 20
2.6670
 30
0.0000
  0
VERTEX
  8
21
 10
3.9370
 20
2.6670
 30
0.0000
  0
SEQEND
  8
0
  0
POLYLINE
  8
21
 66
1
 10
0.0000
 20
0.0000
 30
0.0000
 40
0.0635
 41
0.0635
 70
0
  0
VERTEX
  8
21
 10
3.9370
 20
2.6988
 30
0.0000
 42
1.0000
  0
VERTEX
  8
21
 10
3.9370
 20
2.6353
 30
0.0000
  0
SEQEND
  8
0
  0
POLYLINE
  8
21
 66
1
 10
0.0000
 20
0.0000
 30
0.0000
 40
0.0635
 41
0.0635
 70
0
  0
VERTEX
  8
21
 10
5.9690
 20
2.6353
 30
0.0000
 42
1.0000
  0
VERTEX
  8
21
 10
5.9690
 20
2.6988
 30
0.0000
  0
SEQEND
  8
0
  0
POLYLINE
  8
21
 66
1
 10
0.0000
 20
0.0000
 30
0.0000
 40
0.1270
 41
0.1270
 70
0
  0
VERTEX
  8
21
 10
3.9370
 20
2.6670
 30
0.0000
  0
VERTEX
  8
21
 10
3.9370
 20
6.7310
 30
0.0000
  0
SEQEND
  8
0
  0
POLYLINE
  8
21
 66
1
 10
0.0000
 20
0.0000
 30
0.0000
 40
0.0635
 41
0.0635
 70
0
  0
VERTEX
  8
21
 10
3.9688
 20
6.7310
 30
0.0000
 42
1.0000
  0
VERTEX
  8
21
 10
3.9053
 20
6.7310
 30
0.0000
  0
SEQEND
  8
0
  0
POLYLINE
  8
21
 66
1
 10
0.0000
 20
0.0000
 30
0.0000
 40
0.0635
 41
0.0635
 70
0
  0
VERTEX
  8
21
 10
3.9053
 20
2.6670
 30
0.0000
 42
1.0000
  0
VERTEX
  8
21
 10
3.9688
 20
2.6670
 30
0.0000
  0
SEQEND
  8
0
  0
POLYLINE
  8
21
 66
1
 10
0.0000
 20
0.0000
 30
0.0000
 40
0.1270
 41
0.1270
 70
0
  0
VERTEX
  8
21
 10
3.9370
 20
6.7310
 30
0.0000
  0
VERTEX
  8
21
 10
5.9690
 20
6.7310
 30
0.0000
  0
SEQEND
  8
0
  0
POLYLINE
  8
21
 66
1
 10
0.0000
 20
0.0000
 30
0.0000
 40
0.0635
 41
0.0635
 70
0
  0
VERTEX
  8
21
 10
5.9690
 20
6.6993
 30
0.0000
 42
1.0000
  0
VERTEX
  8
21
 10
5.9690
 20
6.7628
 30
0.0000
  0
SEQEND
  8
0
  0
POLYLINE
  8
21
 66
1
 10
0.0000
 20
0.0000
 30
0.0000
 40
0.0635
 41
0.0635
 70
0
  0
VERTEX
  8
21
 10
3.9370
 20
6.7628
 30
0.0000
 42
1.0000
  0
VERTEX
  8
21
 10
3.9370
 20
6.6993
 30
0.0000
  0
SEQEND
  8
0
  0
INSERT
  8
1
  2
RECT
 10
4.9530
 20
6.3500
 30
0.0000
 41
1.2700
 42
1.9050
 43
1.0000
 50
270.0000
  0
INSERT
  8
1
  2
RECT
 10
4.9530
 20
3.0480
 30
0.0000
 41
1.2700
 42
1.9050
 43
1.0000
 50
270.0000
  0
POLYLINE
  8
25
 66
1
 10
0.0000
 20
0.0000
 30
0.0000
 40
0.1524
 41
0.1524
 70
0
  0
VERTEX
  8
25
 10
7.1628
 20
5.0151
 30
0.0000
  0
VERTEX
  8
25
 10
6.2992
 20
5.0151
 30
0.0000
  0
SEQEND
  8
0
  0
POLYLINE
  8
25
 66
1
 10
0.0000
 20
0.0000
 30
0.0000
 40
0.0762
 41
0.0762
 70
0
  0
VERTEX
  8
25
 10
6.2992
 20
5.0532
 30
0.0000
 42
1.0000
  0
VERTEX
  8
25
 10
6.2992
 20
4.9770
 30
0.0000
  0
SEQEND
  8
0
  0
POLYLINE
  8
25
 66
1
 10
0.0000
 20
0.0000
 30
0.0000
 40
0.0762
 41
0.0762
 70
0
  0
VERTEX
  8
25
 10
7.1628
 20
4.9770
 30
0.0000
 42
1.0000
  0
VERTEX
  8
25
 10
7.1628
 20
5.0532
 30
0.0000
  0
SEQEND
  8
0
  0
POLYLINE
  8
25
 66
1
 10
0.0000
 20
0.0000
 30
0.0000
 40
0.1524
 41
0.1524
 70
0
  0
VERTEX
  8
25
 10
6.2992
 20
5.0151
 30
0.0000
  0
VERTEX
  8
25
 10
6.2992
 20
5.2550
 30
0.0000
  0
SEQEND
  8
0
  0
POLYLINE
  8
25
 66
1
 10
0.0000
 20
0.0000
 30
0.0000
 40
0.0762
 41
0.0762
 70
0
  0
VERTEX
  8
25
 10
6.3373
 20
5.2550
 30
0.0000
 42
1.0000
  0
VERTEX
  8
25
 10
6.2611
 20
5.2550
 30
0.0000
  0
SEQEND
  8
0
  0
POLYLINE
  8
25
 66
1
 10
0.0000
 20
0.0000
 30
0.0000
 40
0.0762
 41
0.0762
 70
0
  0
VERTEX
  8
25
 10
6.2611
 20
5.0151
 30
0.0000
 42
1.0000
  0
VERTEX
  8
25
 10
6.3373
 20
5.0151
 30
0.0000
  0
SEQEND
  8
0
  0
POLYLINE
  8
25
 66
1
 10
0.0000
 20
0.0000
 30
0.0000
 40
0.1524
 41
0.1524
 70
0
  0
VERTEX
  8
25
 10
6.7790
 20
5.2550
 30
0.0000
 42
1.0000
  0
VERTEX
  8
25
 10
6.2992
 20
5.2550
 30
0.0000
  0
SEQEND
  8
0
  0
POLYLINE
  8
25
 66
1
 10
0.0000
 20
0.0000
 30
0.0000
 40
0.0762
 41
0.0762
 70
0
  0
VERTEX
  8
25
 10
6.7409
 20
5.2550
 30
0.0000
 42
1.0000
  0
VERTEX
  8
25
 10
6.8171
 20
5.2550
 30
0.0000
  0
SEQEND
  8
0
  0
POLYLINE
  8
25
 66
1
 10
0.0000
 20
0.0000
 30
0.0000
 40
0.0762
 41
0.0762
 70
0
  0
VERTEX
  8
25
 10
6.2611
 20
5.2550
 30
0.0000
 42
1.0000
  0
VERTEX
  8
25
 10
6.3373
 20
5.2550
 30
0.0000
  0
SEQEND
  8
0
  0
POLYLINE
  8
25
 66
1
 10
0.0000
 20
0.0000
 30
0.0000
 40
0.1524
 41
0.1524
 70
0
  0
VERTEX
  8
25
 10
6.7790
 20
5.2550
 30
0.0000
  0
VERTEX
  8
25
 10
6.7790
 20
5.0151
 30
0.0000
  0
SEQEND
  8
0
  0
POLYLINE
  8
25
 66
1
 10
0.0000
 20
0.0000
 30
0.0000
 40
0.0762
 41
0.0762
 70
0
  0
VERTEX
  8
25
 10
6.7409
 20
5.0151
 30
0.0000
 42
1.0000
  0
VERTEX
  8
25
 10
6.8171
 20
5.0151
 30
0.0000
  0
SEQEND
  8
0
  0
POLYLINE
  8
25
 66
1
 10
0.0000
 20
0.0000
 30
0.0000
 40
0.0762
 41
0.0762
 70
0
  0
VERTEX
  8
25
 10
6.8171
 20
5.2550
 30
0.0000
 42
1.0000
  0
VERTEX
  8
25
 10
6.7409
 20
5.2550
 30
0.0000
  0
SEQEND
  8
0
  0
POLYLINE
  8
25
 66
1
 10
0.0000
 20
0.0000
 30
0.0000
 40
0.1524
 41
0.1524
 70
0
  0
VERTEX
  8
25
 10
7.1628
 20
5.4949
 30
0.0000
  0
VERTEX
  8
25
 10
6.7790
 20
5.3030
 30
0.0000
  0
SEQEND
  8
0
  0
POLYLINE
  8
25
 66
1
 10
0.0000
 20
0.0000
 30
0.0000
 40
0.0762
 41
0.0762
 70
0
  0
VERTEX
  8
25
 10
6.7619
 20
5.3370
 30
0.0000
 42
1.0000
  0
VERTEX
  8
25
 10
6.7960
 20
5.2689
 30
0.0000
  0
SEQEND
  8
0
  0
POLYLINE
  8
25
 66
1
 10
0.0000
 20
0.0000
 30
0.0000
 40
0.0762
 41
0.0762
 70
0
  0
VERTEX
  8
25
 10
7.1798
 20
5.4608
 30
0.0000
 42
1.0000
  0
VERTEX
  8
25
 10
7.1458
 20
5.5289
 30
0.0000
  0
SEQEND
  8
0
  0
POLYLINE
  8
25
 66
1
 10
0.0000
 20
0.0000
 30
0.0000
 40
0.1524
 41
0.1524
 70
0
  0
VERTEX
  8
25
 10
6.4911
 20
5.9210
 30
0.0000
  0
VERTEX
  8
25
 10
6.2992
 20
6.1609
 30
0.0000
  0
SEQEND
  8
0
  0
POLYLINE
  8
25
 66
1
 10
0.0000
 20
0.0000
 30
0.0000
 40
0.0762
 41
0.0762
 70
0
  0
VERTEX
  8
25
 10
6.3290
 20
6.1847
 30
0.0000
 42
1.0000
  0
VERTEX
  8
25
 10
6.2694
 20
6.1371
 30
0.0000
  0
SEQEND
  8
0
  0
POLYLINE
  8
25
 66
1
 10
0.0000
 20
0.0000
 30
0.0000
 40
0.0762
 41
0.0762
 70
0
  0
VERTEX
  8
25
 10
6.4614
 20
5.8972
 30
0.0000
 42
1.0000
  0
VERTEX
  8
25
 10
6.5209
 20
5.9448
 30
0.0000
  0
SEQEND
  8
0
  0
POLYLINE
  8
25
 66
1
 10
0.0000
 20
0.0000
 30
0.0000
 40
0.1524
 41
0.1524
 70
0
  0
VERTEX
  8
25
 10
6.2992
 20
6.1609
 30
0.0000
  0
VERTEX
  8
25
 10
7.1628
 20
6.1609
 30
0.0000
  0
SEQEND
  8
0
  0
POLYLINE
  8
25
 66
1
 10
0.0000
 20
0.0000
 30
0.0000
 40
0.0762
 41
0.0762
 70
0
  0
VERTEX
  8
25
 10
7.1628
 20
6.1228
 30
0.0000
 42
1.0000
  0
VERTEX
  8
25
 10
7.1628
 20
6.1990
 30
0.0000
  0
SEQEND
  8
0
  0
POLYLINE
  8
25
 66
1
 10
0.0000
 20
0.0000
 30
0.0000
 40
0.0762
 41
0.0762
 70
0
  0
VERTEX
  8
25
 10
6.2992
 20
6.1990
 30
0.0000
 42
1.0000
  0
VERTEX
  8
25
 10
6.2992
 20
6.1228
 30
0.0000
  0
SEQEND
  8
0
  0
POLYLINE
  8
25
 66
1
 10
0.0000
 20
0.0000
 30
0.0000
 40
0.1524
 41
0.1524
 70
0
  0
VERTEX
  8
25
 10
7.1628
 20
5.9210
 30
0.0000
  0
VERTEX
  8
25
 10
7.1628
 20
6.4008
 30
0.0000
  0
SEQEND
  8
0
  0
POLYLINE
  8
25
 66
1
 10
0.0000
 20
0.0000
 30
0.0000
 40
0.0762
 41
0.0762
 70
0
  0
VERTEX
  8
25
 10
7.2009
 20
6.4008
 30
0.0000
 42
1.0000
  0
VERTEX
  8
25
 10
7.1247
 20
6.4008
 30
0.0000
  0
SEQEND
  8
0
  0
POLYLINE
  8
25
 66
1
 10
0.0000
 20
0.0000
 30
0.0000
 40
0.0762
 41
0.0762
 70
0
  0
VERTEX
  8
25
 10
7.1247
 20
5.9210
 30
0.0000
 42
1.0000
  0
VERTEX
  8
25
 10
7.2009
 20
5.9210
 30
0.0000
  0
SEQEND
  8
0
  0
POINT
  8
23
 10
4.9530
 20
-4.1910
 30
0.0000
  0
POLYLINE
  8
21
 66
1
 10
0.0000
 20
0.0000
 30
0.0000
 40
0.1270
 41
0.1270
 70
0
  0
VERTEX
  8
21
 10
3.9370
 20
-6.2230
 30
0.0000
  0
VERTEX
  8
21
 10
3.9370
 20
-2.1590
 30
0.0000
  0
SEQEND
  8
0
  0
POLYLINE
  8
21
 66
1
 10
0.0000
 20
0.0000
 30
0.0000
 40
0.0635
 41
0.0635
 70
0
  0
VERTEX
  8
21
 10
3.9688
 20
-2.1590
 30
0.0000
 42
1.0000
  0
VERTEX
  8
21
 10
3.9053
 20
-2.1590
 30
0.0000
  0
SEQEND
  8
0
  0
POLYLINE
  8
21
 66
1
 10
0.0000
 20
0.0000
 30
0.0000
 40
0.0635
 41
0.0635
 70
0
  0
VERTEX
  8
21
 10
3.9053
 20
-6.2230
 30
0.0000
 42
1.0000
  0
VERTEX
  8
21
 10
3.9688
 20
-6.2230
 30
0.0000
  0
SEQEND
  8
0
  0
POLYLINE
  8
21
 66
1
 10
0.0000
 20
0.0000
 30
0.0000
 40
0.1270
 41
0.1270
 70
0
  0
VERTEX
  8
21
 10
3.9370
 20
-2.1590
 30
0.0000
  0
VERTEX
  8
21
 10
5.9690
 20
-2.1590
 30
0.0000
  0
SEQEND
  8
0
  0
POLYLINE
  8
21
 66
1
 10
0.0000
 20
0.0000
 30
0.0000
 40
0.0635
 41
0.0635
 70
0
  0
VERTEX
  8
21
 10
5.9690
 20
-2.1908
 30
0.0000
 42
1.0000
  0
VERTEX
  8
21
 10
5.9690
 20
-2.1273
 30
0.0000
  0
SEQEND
  8
0
  0
POLYLINE
  8
21
 66
1
 10
0.0000
 20
0.0000
 30
0.0000
 40
0.0635
 41
0.0635
 70
0
  0
VERTEX
  8
21
 10
3.9370
 20
-2.1273
 30
0.0000
 42
1.0000
  0
VERTEX
  8
21
 10
3.9370
 20
-2.1908
 30
0.0000
  0
SEQEND
  8
0
  0
POLYLINE
  8
21
 66
1
 10
0.0000
 20
0.0000
 30
0.0000
 40
0.1270
 41
0.1270
 70
0
  0
VERTEX
  8
21
 10
5.9690
 20
-2.1590
 30
0.0000
  0
VERTEX
  8
21
 10
5.9690
 20
-6.2230
 30
0.0000
  0
SEQEND
  8
0
  0
POLYLINE
  8
21
 66
1
 10
0.0000
 20
0.0000
 30
0.0000
 40
0.0635
 41
0.0635
 70
0
  0
VERTEX
  8
21
 10
5.9373
 20
-6.2230
 30
0.0000
 42
1.0000
  0
VERTEX
  8
21
 10
6.0008
 20
-6.2230
 30
0.0000
  0
SEQEND
  8
0
  0
POLYLINE
  8
21
 66
1
 10
0.0000
 20
0.0000
 30
0.0000
 40
0.0635
 41
0.0635
 70
0
  0
VERTEX
  8
21
 10
6.0008
 20
-2.1590
 30
0.0000
 42
1.0000
  0
VERTEX
  8
21
 10
5.9373
 20
-2.1590
 30
0.0000
  0
SEQEND
  8
0
  0
POLYLINE
  8
21
 66
1
 10
0.0000
 20
0.0000
 30
0.0000
 40
0.1270
 41
0.1270
 70
0
  0
VERTEX
  8
21
 10
5.9690
 20
-6.2230
 30
0.0000
  0
VERTEX
  8
21
 10
3.9370
 20
-6.2230
 30
0.0000
  0
SEQEND
  8
0
  0
POLYLINE
  8
21
 66
1
 10
0.0000
 20
0.0000
 30
0.0000
 40
0.0635
 41
0.0635
 70
0
  0
VERTEX
  8
21
 10
3.9370
 20
-6.1913
 30
0.0000
 42
1.0000
  0
VERTEX
  8
21
 10
3.9370
 20
-6.2547
 30
0.0000
  0
SEQEND
  8
0
  0
POLYLINE
  8
21
 66
1
 10
0.0000
 20
0.0000
 30
0.0000
 40
0.0635
 41
0.0635
 70
0
  0
VERTEX
  8
21
 10
5.9690
 20
-6.2547
 30
0.0000
 42
1.0000
  0
VERTEX
  8
21
 10
5.9690
 20
-6.1913
 30
0.0000
  0
SEQEND
  8
0
  0
INSERT
  8
1
  2
RECT
 10
4.9530
 20
-5.8420
 30
0.0000
 41
1.2700
 42
1.9050
 43
1.0000
 50
90.0000
  0
INSERT
  8
1
  2
RECT
 10
4.9530
 20
-2.5400
 30
0.0000
 41
1.2700
 42
1.9050
 43
1.0000
 50
90.0000
  0
POLYLINE
  8
25
 66
1
 10
0.0000
 20
0.0000
 30
0.0000
 40
0.1524
 41
0.1524
 70
0
  0
VERTEX
  8
25
 10
3.6068
 20
-5.8928
 30
0.0000
  0
VERTEX
  8
25
 10
2.7432
 20
-5.8928
 30
0.0000
  0
SEQEND
  8
0
  0
POLYLINE
  8
25
 66
1
 10
0.0000
 20
0.0000
 30
0.0000
 40
0.0762
 41
0.0762
 70
0
  0
VERTEX
  8
25
 10
2.7432
 20
-5.8547
 30
0.0000
 42
1.0000
  0
VERTEX
  8
25
 10
2.7432
 20
-5.9309
 30
0.0000
  0
SEQEND
  8
0
  0
POLYLINE
  8
25
 66
1
 10
0.0000
 20
0.0000
 30
0.0000
 40
0.0762
 41
0.0762
 70
0
  0
VERTEX
  8
25
 10
3.6068
 20
-5.9309
 30
0.0000
 42
1.0000
  0
VERTEX
  8
25
 10
3.6068
 20
-5.8547
 30
0.0000
  0
SEQEND
  8
0
  0
POLYLINE
  8
25
 66
1
 10
0.0000
 20
0.0000
 30
0.0000
 40
0.1524
 41
0.1524
 70
0
  0
VERTEX
  8
25
 10
2.7432
 20
-5.8928
 30
0.0000
  0
VERTEX
  8
25
 10
2.7432
 20
-5.6529
 30
0.0000
  0
SEQEND
  8
0
  0
POLYLINE
  8
25
 66
1
 10
0.0000
 20
0.0000
 30
0.0000
 40
0.0762
 41
0.0762
 70
0
  0
VERTEX
  8
25
 10
2.7813
 20
-5.6529
 30
0.0000
 42
1.0000
  0
VERTEX
  8
25
 10
2.7051
 20
-5.6529
 30
0.0000
  0
SEQEND
  8
0
  0
POLYLINE
  8
25
 66
1
 10
0.0000
 20
0.0000
 30
0.0000
 40
0.0762
 41
0.0762
 70
0
  0
VERTEX
  8
25
 10
2.7051
 20
-5.8928
 30
0.0000
 42
1.0000
  0
VERTEX
  8
25
 10
2.7813
 20
-5.8928
 30
0.0000
  0
SEQEND
  8
0
  0
POLYLINE
  8
25
 66
1
 10
0.0000
 20
0.0000
 30
0.0000
 40
0.1524
 41
0.1524
 70
0
  0
VERTEX
  8
25
 10
3.2230
 20
-5.6529
 30
0.0000
 42
1.0000
  0
VERTEX
  8
25
 10
2.7432
 20
-5.6529
 30
0.0000
  0
SEQEND
  8
0
  0
POLYLINE
  8
25
 66
1
 10
0.0000
 20
0.0000
 30
0.0000
 40
0.0762
 41
0.0762
 70
0
  0
VERTEX
  8
25
 10
3.1849
 20
-5.6529
 30
0.0000
 42
1.0000
  0
VERTEX
  8
25
 10
3.2611
 20
-5.6529
 30
0.0000
  0
SEQEND
  8
0
  0
POLYLINE
  8
25
 66
1
 10
0.0000
 20
0.0000
 30
0.0000
 40
0.0762
 41
0.0762
 70
0
  0
VERTEX
  8
25
 10
2.7051
 20
-5.6529
 30
0.0000
 42
1.0000
  0
VERTEX
  8
25
 10
2.7813
 20
-5.6529
 30
0.0000
  0
SEQEND
  8
0
  0
POLYLINE
  8
25
 66
1
 10
0.0000
 20
0.0000
 30
0.0000
 40
0.1524
 41
0.1524
 70
0
  0
VERTEX
  8
25
 10
3.2230
 20
-5.6529
 30
0.0000
  0
VERTEX
  8
25
 10
3.2230
 20
-5.8928
 30
0.0000
  0
SEQEND
  8
0
  0
POLYLINE
  8
25
 66
1
 10
0.0000
 20
0.0000
 30
0.0000
 40
0.0762
 41
0.0762
 70
0
  0
VERTEX
  8
25
 10
3.1849
 20
-5.8928
 30
0.0000
 42
1.0000
  0
VERTEX
  8
25
 10
3.2611
 20
-5.8928
 30
0.0000
  0
SEQEND
  8
0
  0
POLYLINE
  8
25
 66
1
 10
0.0000
 20
0.0000
 30
0.0000
 40
0.0762
 41
0.0762
 70
0
  0
VERTEX
  8
25
 10
3.2611
 20
-5.6529
 30
0.0000
 42
1.0000
  0
VERTEX
  8
25
 10
3.1849
 20
-5.6529
 30
0.0000
  0
SEQEND
  8
0
  0
POLYLINE
  8
25
 66
1
 10
0.0000
 20
0.0000
 30
0.0000
 40
0.1524
 41
0.1524
 70
0
  0
VERTEX
  8
25
 10
3.6068
 20
-5.4130
 30
0.0000
  0
VERTEX
  8
25
 10
3.2230
 20
-5.6049
 30
0.0000
  0
SEQEND
  8
0
  0
POLYLINE
  8
25
 66
1
 10
0.0000
 20
0.0000
 30
0.0000
 40
0.0762
 41
0.0762
 70
0
  0
VERTEX
  8
25
 10
3.2059
 20
-5.5709
 30
0.0000
 42
1.0000
  0
VERTEX
  8
25
 10
3.2400
 20
-5.6390
 30
0.0000
  0
SEQEND
  8
0
  0
POLYLINE
  8
25
 66
1
 10
0.0000
 20
0.0000
 30
0.0000
 40
0.0762
 41
0.0762
 70
0
  0
VERTEX
  8
25
 10
3.6238
 20
-5.4471
 30
0.0000
 42
1.0000
  0
VERTEX
  8
25
 10
3.5898
 20
-5.3789
 30
0.0000
  0
SEQEND
  8
0
  0
POLYLINE
  8
25
 66
1
 10
0.0000
 20
0.0000
 30
0.0000
 40
0.1524
 41
0.1524
 70
0
  0
VERTEX
  8
25
 10
2.9591
 20
-4.5071
 30
0.0000
 42
0.4142
  0
VERTEX
  8
25
 10
2.7432
 20
-4.7230
 30
0.0000
  0
SEQEND
  8
0
  0
POLYLINE
  8
25
 66
1
 10
0.0000
 20
0.0000
 30
0.0000
 40
0.0762
 41
0.0762
 70
0
  0
VERTEX
  8
25
 10
2.9591
 20
-4.5452
 30
0.0000
 42
1.0000
  0
VERTEX
  8
25
 10
2.9591
 20
-4.4690
 30
0.0000
  0
SEQEND
  8
0
  0
POLYLINE
  8
25
 66
1
 10
0.0000
 20
0.0000
 30
0.0000
 40
0.0762
 41
0.0762
 70
0
  0
VERTEX
  8
25
 10
2.7051
 20
-4.7230
 30
0.0000
 42
1.0000
  0
VERTEX
  8
25
 10
2.7813
 20
-4.7230
 30
0.0000
  0
SEQEND
  8
0
  0
POLYLINE
  8
25
 66
1
 10
0.0000
 20
0.0000
 30
0.0000
 40
0.1524
 41
0.1524
 70
0
  0
VERTEX
  8
25
 10
2.7432
 20
-4.7230
 30
0.0000
 42
0.3252
  0
VERTEX
  8
25
 10
2.9351
 20
-4.9869
 30
0.0000
  0
SEQEND
  8
0
  0
POLYLINE
  8
25
 66
1
 10
0.0000
 20
0.0000
 30
0.0000
 40
0.0762
 41
0.0762
 70
0
  0
VERTEX
  8
25
 10
2.7813
 20
-4.7230
 30
0.0000
 42
1.0000
  0
VERTEX
  8
25
 10
2.7051
 20
-4.7230
 30
0.0000
  0
SEQEND
  8
0
  0
POLYLINE
  8
25
 66
1
 10
0.0000
 20
0.0000
 30
0.0000
 40
0.0762
 41
0.0762
 70
0
  0
VERTEX
  8
25
 10
2.9234
 20
-5.0231
 30
0.0000
 42
1.0000
  0
VERTEX
  8
25
 10
2.9469
 20
-4.9506
 30
0.0000
  0
SEQEND
  8
0
  0
POLYLINE
  8
25
 66
1
 10
0.0000
 20
0.0000
 30
0.0000
 40
0.1524
 41
0.1524
 70
0
  0
VERTEX
  8
25
 10
3.1270
 20
-4.5791
 30
0.0000
 42
0.2053
  0
VERTEX
  8
25
 10
2.9591
 20
-4.5071
 30
0.0000
  0
SEQEND
  8
0
  0
POLYLINE
  8
25
 66
1
 10
0.0000
 20
0.0000
 30
0.0000
 40
0.0762
 41
0.0762
 70
0
  0
VERTEX
  8
25
 10
3.0994
 20
-4.6053
 30
0.0000
 42
1.0000
  0
VERTEX
  8
25
 10
3.1546
 20
-4.5528
 30
0.0000
  0
SEQEND
  8
0
  0
POLYLINE
  8
25
 66
1
 10
0.0000
 20
0.0000
 30
0.0000
 40
0.0762
 41
0.0762
 70
0
  0
VERTEX
  8
25
 10
2.9591
 20
-4.4690
 30
0.0000
 42
1.0000
  0
VERTEX
  8
25
 10
2.9591
 20
-4.5452
 30
0.0000
  0
SEQEND
  8
0
  0
POLYLINE
  8
25
 66
1
 10
0.0000
 20
0.0000
 30
0.0000
 40
0.1524
 41
0.1524
 70
0
  0
VERTEX
  8
25
 10
3.1270
 20
-4.5791
 30
0.0000
  0
VERTEX
  8
25
 10
3.6068
 20
-4.9869
 30
0.0000
  0
SEQEND
  8
0
  0
POLYLINE
  8
25
 66
1
 10
0.0000
 20
0.0000
 30
0.0000
 40
0.0762
 41
0.0762
 70
0
  0
VERTEX
  8
25
 10
3.5821
 20
-5.0159
 30
0.0000
 42
1.0000
  0
VERTEX
  8
25
 10
3.6315
 20
-4.9578
 30
0.0000
  0
SEQEND
  8
0
  0
POLYLINE
  8
25
 66
1
 10
0.0000
 20
0.0000
 30
0.0000
 40
0.0762
 41
0.0762
 70
0
  0
VERTEX
  8
25
 10
3.1517
 20
-4.5500
 30
0.0000
 42
1.0000
  0
VERTEX
  8
25
 10
3.1023
 20
-4.6081
 30
0.0000
  0
SEQEND
  8
0
  0
POLYLINE
  8
25
 66
1
 10
0.0000
 20
0.0000
 30
0.0000
 40
0.1524
 41
0.1524
 70
0
  0
VERTEX
  8
25
 10
3.6068
 20
-4.9869
 30
0.0000
  0
VERTEX
  8
25
 10
3.6068
 20
-4.5071
 30
0.0000
  0
SEQEND
  8
0
  0
POLYLINE
  8
25
 66
1
 10
0.0000
 20
0.0000
 30
0.0000
 40
0.0762
 41
0.0762
 70
0
  0
VERTEX
  8
25
 10
3.6449
 20
-4.5071
 30
0.0000
 42
1.0000
  0
VERTEX
  8
25
 10
3.5687
 20
-4.5071
 30
0.0000
  0
SEQEND
  8
0
  0
POLYLINE
  8
25
 66
1
 10
0.0000
 20
0.0000
 30
0.0000
 40
0.0762
 41
0.0762
 70
0
  0
VERTEX
  8
25
 10
3.5687
 20
-4.9869
 30
0.0000
 42
1.0000
  0
VERTEX
  8
25
 10
3.6449
 20
-4.9869
 30
0.0000
  0
SEQEND
  8
0
  0
POINT
  8
23
 10
-0.1270
 20
4.6990
 30
0.0000
  0
POLYLINE
  8
51
 66
1
 10
0.0000
 20
0.0000
 30
0.0000
 40
0.1524
 41
0.1524
 70
0
  0
VERTEX
  8
51
 10
-2.6670
 20
5.8674
 30
0.0000
  0
VERTEX
  8
51
 10
-2.6670
 20
6.8072
 30
0.0000
  0
SEQEND
  8
0
  0
POLYLINE
  8
51
 66
1
 10
0.0000
 20
0.0000
 30
0.0000
 40
0.0762
 41
0.0762
 70
0
  0
VERTEX
  8
51
 10
-2.6289
 20
6.8072
 30
0.0000
 42
1.0000
  0
VERTEX
  8
51
 10
-2.7051
 20
6.8072
 30
0.0000
  0
SEQEND
  8
0
  0
POLYLINE
  8
51
 66
1
 10
0.0000
 20
0.0000
 30
0.0000
 40
0.0762
 41
0.0762
 70
0
  0
VERTEX
  8
51
 10
-2.7051
 20
5.8674
 30
0.0000
 42
1.0000
  0
VERTEX
  8
51
 10
-2.6289
 20
5.8674
 30
0.0000
  0
SEQEND
  8
0
  0
POLYLINE
  8
51
 66
1
 10
0.0000
 20
0.0000
 30
0.0000
 40
0.1524
 41
0.1524
 70
0
  0
VERTEX
  8
51
 10
-2.6670
 20
6.8072
 30
0.0000
  0
VERTEX
  8
51
 10
-2.8702
 20
6.8072
 30
0.0000
  0
SEQEND
  8
0
  0
POLYLINE
  8
51
 66
1
 10
0.0000
 20
0.0000
 30
0.0000
 40
0.0762
 41
0.0762
 70
0
  0
VERTEX
  8
51
 10
-2.8702
 20
6.8453
 30
0.0000
 42
1.0000
  0
VERTEX
  8
51
 10
-2.8702
 20
6.7691
 30
0.0000
  0
SEQEND
  8
0
  0
POLYLINE
  8
51
 66
1
 10
0.0000
 20
0.0000
 30
0.0000
 40
0.0762
 41
0.0762
 70
0
  0
VERTEX
  8
51
 10
-2.6670
 20
6.7691
 30
0.0000
 42
1.0000
  0
VERTEX
  8
51
 10
-2.6670
 20
6.8453
 30
0.0000
  0
SEQEND
  8
0
  0
POLYLINE
  8
51
 66
1
 10
0.0000
 20
0.0000
 30
0.0000
 40
0.1524
 41
0.1524
 70
0
  0
VERTEX
  8
51
 10
-2.8702
 20
6.8072
 30
0.0000
  0
VERTEX
  8
51
 10
-2.8702
 20
5.8674
 30
0.0000
  0
SEQEND
  8
0
  0
POLYLINE
  8
51
 66
1
 10
0.0000
 20
0.0000
 30
0.0000
 40
0.0762
 41
0.0762
 70
0
  0
VERTEX
  8
51
 10
-2.9083
 20
5.8674
 30
0.0000
 42
1.0000
  0
VERTEX
  8
51
 10
-2.8321
 20
5.8674
 30
0.0000
  0
SEQEND
  8
0
  0
POLYLINE
  8
51
 66
1
 10
0.0000
 20
0.0000
 30
0.0000
 40
0.0762
 41
0.0762
 70
0
  0
VERTEX
  8
51
 10
-2.8321
 20
6.8072
 30
0.0000
 42
1.0000
  0
VERTEX
  8
51
 10
-2.9083
 20
6.8072
 30
0.0000
  0
SEQEND
  8
0
  0
POLYLINE
  8
51
 66
1
 10
0.0000
 20
0.0000
 30
0.0000
 40
0.1524
 41
0.1524
 70
0
  0
VERTEX
  8
51
 10
-2.8702
 20
5.8674
 30
0.0000
  0
VERTEX
  8
51
 10
-2.6670
 20
5.8674
 30
0.0000
  0
SEQEND
  8
0
  0
POLYLINE
  8
51
 66
1
 10
0.0000
 20
0.0000
 30
0.0000
 40
0.0762
 41
0.0762
 70
0
  0
VERTEX
  8
51
 10
-2.6670
 20
5.8293
 30
0.0000
 42
1.0000
  0
VERTEX
  8
51
 10
-2.6670
 20
5.9055
 30
0.0000
  0
SEQEND
  8
0
  0
POLYLINE
  8
51
 66
1
 10
0.0000
 20
0.0000
 30
0.0000
 40
0.0762
 41
0.0762
 70
0
  0
VERTEX
  8
51
 10
-2.8702
 20
5.9055
 30
0.0000
 42
1.0000
  0
VERTEX
  8
51
 10
-2.8702
 20
5.8293
 30
0.0000
  0
SEQEND
  8
0
  0
POLYLINE
  8
51
 66
1
 10
0.0000
 20
0.0000
 30
0.0000
 40
0.1524
 41
0.1524
 70
0
  0
VERTEX
  8
51
 10
-2.6670
 20
2.5908
 30
0.0000
  0
VERTEX
  8
51
 10
-2.6670
 20
3.5306
 30
0.0000
  0
SEQEND
  8
0
  0
POLYLINE
  8
51
 66
1
 10
0.0000
 20
0.0000
 30
0.0000
 40
0.0762
 41
0.0762
 70
0
  0
VERTEX
  8
51
 10
-2.6289
 20
3.5306
 30
0.0000
 42
1.0000
  0
VERTEX
  8
51
 10
-2.7051
 20
3.5306
 30
0.0000
  0
SEQEND
  8
0
  0
POLYLINE
  8
51
 66
1
 10
0.0000
 20
0.0000
 30
0.0000
 40
0.0762
 41
0.0762
 70
0
  0
VERTEX
  8
51
 10
-2.7051
 20
2.5908
 30
0.0000
 42
1.0000
  0
VERTEX
  8
51
 10
-2.6289
 20
2.5908
 30
0.0000
  0
SEQEND
  8
0
  0
POLYLINE
  8
51
 66
1
 10
0.0000
 20
0.0000
 30
0.0000
 40
0.1524
 41
0.1524
 70
0
  0
VERTEX
  8
51
 10
-2.6670
 20
3.5306
 30
0.0000
  0
VERTEX
  8
51
 10
-2.8702
 20
3.5306
 30
0.0000
  0
SEQEND
  8
0
  0
POLYLINE
  8
51
 66
1
 10
0.0000
 20
0.0000
 30
0.0000
 40
0.0762
 41
0.0762
 70
0
  0
VERTEX
  8
51
 10
-2.8702
 20
3.5687
 30
0.0000
 42
1.0000
  0
VERTEX
  8
51
 10
-2.8702
 20
3.4925
 30
0.0000
  0
SEQEND
  8
0
  0
POLYLINE
  8
51
 66
1
 10
0.0000
 20
0.0000
 30
0.0000
 40
0.0762
 41
0.0762
 70
0
  0
VERTEX
  8
51
 10
-2.6670
 20
3.4925
 30
0.0000
 42
1.0000
  0
VERTEX
  8
51
 10
-2.6670
 20
3.5687
 30
0.0000
  0
SEQEND
  8
0
  0
POLYLINE
  8
51
 66
1
 10
0.0000
 20
0.0000
 30
0.0000
 40
0.1524
 41
0.1524
 70
0
  0
VERTEX
  8
51
 10
-2.8702
 20
3.5306
 30
0.0000
  0
VERTEX
  8
51
 10
-2.8702
 20
2.5908
 30
0.0000
  0
SEQEND
  8
0
  0
POLYLINE
  8
51
 66
1
 10
0.0000
 20
0.0000
 30
0.0000
 40
0.0762
 41
0.0762
 70
0
  0
VERTEX
  8
51
 10
-2.9083
 20
2.5908
 30
0.0000
 42
1.0000
  0
VERTEX
  8
51
 10
-2.8321
 20
2.5908
 30
0.0000
  0
SEQEND
  8
0
  0
POLYLINE
  8
51
 66
1
 10
0.0000
 20
0.0000
 30
0.0000
 40
0.0762
 41
0.0762
 70
0
  0
VERTEX
  8
51
 10
-2.8321
 20
3.5306
 30
0.0000
 42
1.0000
  0
VERTEX
  8
51
 10
-2.9083
 20
3.5306
 30
0.0000
  0
SEQEND
  8
0
  0
POLYLINE
  8
51
 66
1
 10
0.0000
 20
0.0000
 30
0.0000
 40
0.1524
 41
0.1524
 70
0
  0
VERTEX
  8
51
 10
-2.8702
 20
2.5908
 30
0.0000
  0
VERTEX
  8
51
 10
-2.6670
 20
2.5908
 30
0.0000
  0
SEQEND
  8
0
  0
POLYLINE
  8
51
 66
1
 10
0.0000
 20
0.0000
 30
0.0000
 40
0.0762
 41
0.0762
 70
0
  0
VERTEX
  8
51
 10
-2.6670
 20
2.5527
 30
0.0000
 42
1.0000
  0
VERTEX
  8
51
 10
-2.6670
 20
2.6289
 30
0.0000
  0
SEQEND
  8
0
  0
POLYLINE
  8
51
 66
1
 10
0.0000
 20
0.0000
 30
0.0000
 40
0.0762
 41
0.0762
 70
0
  0
VERTEX
  8
51
 10
-2.8702
 20
2.6289
 30
0.0000
 42
1.0000
  0
VERTEX
  8
51
 10
-2.8702
 20
2.5527
 30
0.0000
  0
SEQEND
  8
0
  0
POLYLINE
  8
51
 66
1
 10
0.0000
 20
0.0000
 30
0.0000
 40
0.1524
 41
0.1524
 70
0
  0
VERTEX
  8
51
 10
2.4130
 20
3.5306
 30
0.0000
  0
VERTEX
  8
51
 10
2.4130
 20
2.5908
 30
0.0000
  0
SEQEND
  8
0
  0
POLYLINE
  8
51
 66
1
 10
0.0000
 20
0.0000
 30
0.0000
 40
0.0762
 41
0.0762
 70
0
  0
VERTEX
  8
51
 10
2.3749
 20
2.5908
 30
0.0000
 42
1.0000
  0
VERTEX
  8
51
 10
2.4511
 20
2.5908
 30
0.0000
  0
SEQEND
  8
0
  0
POLYLINE
  8
51
 66
1
 10
0.0000
 20
0.0000
 30
0.0000
 40
0.0762
 41
0.0762
 70
0
  0
VERTEX
  8
51
 10
2.4511
 20
3.5306
 30
0.0000
 42
1.0000
  0
VERTEX
  8
51
 10
2.3749
 20
3.5306
 30
0.0000
  0
SEQEND
  8
0
  0
POLYLINE
  8
51
 66
1
 10
0.0000
 20
0.0000
 30
0.0000
 40
0.1524
 41
0.1524
 70
0
  0
VERTEX
  8
51
 10
2.4130
 20
2.5908
 30
0.0000
  0
VERTEX
  8
51
 10
2.6162
 20
2.5908
 30
0.0000
  0
SEQEND
  8
0
  0
POLYLINE
  8
51
 66
1
 10
0.0000
 20
0.0000
 30
0.0000
 40
0.0762
 41
0.0762
 70
0
  0
VERTEX
  8
51
 10
2.6162
 20
2.5527
 30
0.0000
 42
1.0000
  0
VERTEX
  8
51
 10
2.6162
 20
2.6289
 30
0.0000
  0
SEQEND
  8
0
  0
POLYLINE
  8
51
 66
1
 10
0.0000
 20
0.0000
 30
0.0000
 40
0.0762
 41
0.0762
 70
0
  0
VERTEX
  8
51
 10
2.4130
 20
2.6289
 30
0.0000
 42
1.0000
  0
VERTEX
  8
51
 10
2.4130
 20
2.5527
 30
0.0000
  0
SEQEND
  8
0
  0
POLYLINE
  8
51
 66
1
 10
0.0000
 20
0.0000
 30
0.0000
 40
0.1524
 41
0.1524
 70
0
  0
VERTEX
  8
51
 10
2.6162
 20
2.5908
 30
0.0000
  0
VERTEX
  8
51
 10
2.6162
 20
3.5306
 30
0.0000
  0
SEQEND
  8
0
  0
POLYLINE
  8
51
 66
1
 10
0.0000
 20
0.0000
 30
0.0000
 40
0.0762
 41
0.0762
 70
0
  0
VERTEX
  8
51
 10
2.6543
 20
3.5306
 30
0.0000
 42
1.0000
  0
VERTEX
  8
51
 10
2.5781
 20
3.5306
 30
0.0000
  0
SEQEND
  8
0
  0
POLYLINE
  8
51
 66
1
 10
0.0000
 20
0.0000
 30
0.0000
 40
0.0762
 41
0.0762
 70
0
  0
VERTEX
  8
51
 10
2.5781
 20
2.5908
 30
0.0000
 42
1.0000
  0
VERTEX
  8
51
 10
2.6543
 20
2.5908
 30
0.0000
  0
SEQEND
  8
0
  0
POLYLINE
  8
51
 66
1
 10
0.0000
 20
0.0000
 30
0.0000
 40
0.1524
 41
0.1524
 70
0
  0
VERTEX
  8
51
 10
2.6162
 20
3.5306
 30
0.0000
  0
VERTEX
  8
51
 10
2.4130
 20
3.5306
 30
0.0000
  0
SEQEND
  8
0
  0
POLYLINE
  8
51
 66
1
 10
0.0000
 20
0.0000
 30
0.0000
 40
0.0762
 41
0.0762
 70
0
  0
VERTEX
  8
51
 10
2.4130
 20
3.5687
 30
0.0000
 42
1.0000
  0
VERTEX
  8
51
 10
2.4130
 20
3.4925
 30
0.0000
  0
SEQEND
  8
0
  0
POLYLINE
  8
51
 66
1
 10
0.0000
 20
0.0000
 30
0.0000
 40
0.0762
 41
0.0762
 70
0
  0
VERTEX
  8
51
 10
2.6162
 20
3.4925
 30
0.0000
 42
1.0000
  0
VERTEX
  8
51
 10
2.6162
 20
3.5687
 30
0.0000
  0
SEQEND
  8
0
  0
POLYLINE
  8
51
 66
1
 10
0.0000
 20
0.0000
 30
0.0000
 40
0.1524
 41
0.1524
 70
0
  0
VERTEX
  8
51
 10
2.3876
 20
6.8072
 30
0.0000
  0
VERTEX
  8
51
 10
2.4130
 20
5.8674
 30
0.0000
  0
SEQEND
  8
0
  0
POLYLINE
  8
51
 66
1
 10
0.0000
 20
0.0000
 30
0.0000
 40
0.0762
 41
0.0762
 70
0
  0
VERTEX
  8
51
 10
2.3749
 20
5.8664
 30
0.0000
 42
1.0000
  0
VERTEX
  8
51
 10
2.4511
 20
5.8684
 30
0.0000
  0
SEQEND
  8
0
  0
POLYLINE
  8
51
 66
1
 10
0.0000
 20
0.0000
 30
0.0000
 40
0.0762
 41
0.0762
 70
0
  0
VERTEX
  8
51
 10
2.4257
 20
6.8082
 30
0.0000
 42
1.0000
  0
VERTEX
  8
51
 10
2.3495
 20
6.8062
 30
0.0000
  0
SEQEND
  8
0
  0
POLYLINE
  8
51
 66
1
 10
0.0000
 20
0.0000
 30
0.0000
 40
0.1524
 41
0.1524
 70
0
  0
VERTEX
  8
51
 10
2.4130
 20
5.8674
 30
0.0000
  0
VERTEX
  8
51
 10
2.6162
 20
5.8674
 30
0.0000
  0
SEQEND
  8
0
  0
POLYLINE
  8
51
 66
1
 10
0.0000
 20
0.0000
 30
0.0000
 40
0.0762
 41
0.0762
 70
0
  0
VERTEX
  8
51
 10
2.6162
 20
5.8293
 30
0.0000
 42
1.0000
  0
VERTEX
  8
51
 10
2.6162
 20
5.9055
 30
0.0000
  0
SEQEND
  8
0
  0
POLYLINE
  8
51
 66
1
 10
0.0000
 20
0.0000
 30
0.0000
 40
0.0762
 41
0.0762
 70
0
  0
VERTEX
  8
51
 10
2.4130
 20
5.9055
 30
0.0000
 42
1.0000
  0
VERTEX
  8
51
 10
2.4130
 20
5.8293
 30
0.0000
  0
SEQEND
  8
0
  0
POLYLINE
  8
51
 66
1
 10
0.0000
 20
0.0000
 30
0.0000
 40
0.1524
 41
0.1524
 70
0
  0
VERTEX
  8
51
 10
2.6162
 20
5.8674
 30
0.0000
  0
VERTEX
  8
51
 10
2.6162
 20
6.8072
 30
0.0000
  0
SEQEND
  8
0
  0
POLYLINE
  8
51
 66
1
 10
0.0000
 20
0.0000
 30
0.0000
 40
0.0762
 41
0.0762
 70
0
  0
VERTEX
  8
51
 10
2.6543
 20
6.8072
 30
0.0000
 42
1.0000
  0
VERTEX
  8
51
 10
2.5781
 20
6.8072
 30
0.0000
  0
SEQEND
  8
0
  0
POLYLINE
  8
51
 66
1
 10
0.0000
 20
0.0000
 30
0.0000
 40
0.0762
 41
0.0762
 70
0
  0
VERTEX
  8
51
 10
2.5781
 20
5.8674
 30
0.0000
 42
1.0000
  0
VERTEX
  8
51
 10
2.6543
 20
5.8674
 30
0.0000
  0
SEQEND
  8
0
  0
POLYLINE
  8
51
 66
1
 10
0.0000
 20
0.0000
 30
0.0000
 40
0.1524
 41
0.1524
 70
0
  0
VERTEX
  8
51
 10
2.6162
 20
6.8072
 30
0.0000
  0
VERTEX
  8
51
 10
2.3876
 20
6.8072
 30
0.0000
  0
SEQEND
  8
0
  0
POLYLINE
  8
51
 66
1
 10
0.0000
 20
0.0000
 30
0.0000
 40
0.0762
 41
0.0762
 70
0
  0
VERTEX
  8
51
 10
2.3876
 20
6.8453
 30
0.0000
 42
1.0000
  0
VERTEX
  8
51
 10
2.3876
 20
6.7691
 30
0.0000
  0
SEQEND
  8
0
  0
POLYLINE
  8
51
 66
1
 10
0.0000
 20
0.0000
 30
0.0000
 40
0.0762
 41
0.0762
 70
0
  0
VERTEX
  8
51
 10
2.6162
 20
6.7691
 30
0.0000
 42
1.0000
  0
VERTEX
  8
51
 10
2.6162
 20
6.8453
 30
0.0000
  0
SEQEND
  8
0
  0
POLYLINE
  8
51
 66
1
 10
0.0000
 20
0.0000
 30
0.0000
 40
0.1524
 41
0.1524
 70
0
  0
VERTEX
  8
51
 10
-2.6670
 20
2.1590
 30
0.0000
  0
VERTEX
  8
51
 10
2.4130
 20
2.1590
 30
0.0000
  0
SEQEND
  8
0
  0
POLYLINE
  8
51
 66
1
 10
0.0000
 20
0.0000
 30
0.0000
 40
0.0762
 41
0.0762
 70
0
  0
VERTEX
  8
51
 10
2.4130
 20
2.1209
 30
0.0000
 42
1.0000
  0
VERTEX
  8
51
 10
2.4130
 20
2.1971
 30
0.0000
  0
SEQEND
  8
0
  0
POLYLINE
  8
51
 66
1
 10
0.0000
 20
0.0000
 30
0.0000
 40
0.0762
 41
0.0762
 70
0
  0
VERTEX
  8
51
 10
-2.6670
 20
2.1971
 30
0.0000
 42
1.0000
  0
VERTEX
  8
51
 10
-2.6670
 20
2.1209
 30
0.0000
  0
SEQEND
  8
0
  0
POLYLINE
  8
51
 66
1
 10
0.0000
 20
0.0000
 30
0.0000
 40
0.1524
 41
0.1524
 70
0
  0
VERTEX
  8
51
 10
2.4130
 20
2.1590
 30
0.0000
  0
VERTEX
  8
51
 10
2.4130
 20
7.2390
 30
0.0000
  0
SEQEND
  8
0
  0
POLYLINE
  8
51
 66
1
 10
0.0000
 20
0.0000
 30
0.0000
 40
0.0762
 41
0.0762
 70
0
  0
VERTEX
  8
51
 10
2.4511
 20
7.2390
 30
0.0000
 42
1.0000
  0
VERTEX
  8
51
 10
2.3749
 20
7.2390
 30
0.0000
  0
SEQEND
  8
0
  0
POLYLINE
  8
51
 66
1
 10
0.0000
 20
0.0000
 30
0.0000
 40
0.0762
 41
0.0762
 70
0
  0
VERTEX
  8
51
 10
2.3749
 20
2.1590
 30
0.0000
 42
1.0000
  0
VERTEX
  8
51
 10
2.4511
 20
2.1590
 30
0.0000
  0
SEQEND
  8
0
  0
POLYLINE
  8
51
 66
1
 10
0.0000
 20
0.0000
 30
0.0000
 40
0.1524
 41
0.1524
 70
0
  0
VERTEX
  8
51
 10
2.4130
 20
7.2390
 30
0.0000
  0
VERTEX
  8
51
 10
0.1778
 20
7.2390
 30
0.0000
  0
SEQEND
  8
0
  0
POLYLINE
  8
51
 66
1
 10
0.0000
 20
0.0000
 30
0.0000
 40
0.0762
 41
0.0762
 70
0
  0
VERTEX
  8
51
 10
0.1778
 20
7.2771
 30
0.0000
 42
1.0000
  0
VERTEX
  8
51
 10
0.1778
 20
7.2009
 30
0.0000
  0
SEQEND
  8
0
  0
POLYLINE
  8
51
 66
1
 10
0.0000
 20
0.0000
 30
0.0000
 40
0.0762
 41
0.0762
 70
0
  0
VERTEX
  8
51
 10
2.4130
 20
7.2009
 30
0.0000
 42
1.0000
  0
VERTEX
  8
51
 10
2.4130
 20
7.2771
 30
0.0000
  0
SEQEND
  8
0
  0
POLYLINE
  8
51
 66
1
 10
0.0000
 20
0.0000
 30
0.0000
 40
0.1524
 41
0.1524
 70
0
  0
VERTEX
  8
51
 10
0.1778
 20
7.2390
 30
0.0000
  0
VERTEX
  8
51
 10
-2.6670
 20
7.2390
 30
0.0000
  0
SEQEND
  8
0
  0
POLYLINE
  8
51
 66
1
 10
0.0000
 20
0.0000
 30
0.0000
 40
0.0762
 41
0.0762
 70
0
  0
VERTEX
  8
51
 10
-2.6670
 20
7.2771
 30
0.0000
 42
1.0000
  0
VERTEX
  8
51
 10
-2.6670
 20
7.2009
 30
0.0000
  0
SEQEND
  8
0
  0
POLYLINE
  8
51
 66
1
 10
0.0000
 20
0.0000
 30
0.0000
 40
0.0762
 41
0.0762
 70
0
  0
VERTEX
  8
51
 10
0.1778
 20
7.2009
 30
0.0000
 42
1.0000
  0
VERTEX
  8
51
 10
0.1778
 20
7.2771
 30
0.0000
  0
SEQEND
  8
0
  0
POLYLINE
  8
51
 66
1
 10
0.0000
 20
0.0000
 30
0.0000
 40
0.1524
 41
0.1524
 70
0
  0
VERTEX
  8
51
 10
-2.6670
 20
7.2390
 30
0.0000
  0
VERTEX
  8
51
 10
-2.6670
 20
2.1590
 30
0.0000
  0
SEQEND
  8
0
  0
POLYLINE
  8
51
 66
1
 10
0.0000
 20
0.0000
 30
0.0000
 40
0.0762
 41
0.0762
 70
0
  0
VERTEX
  8
51
 10
-2.7051
 20
2.1590
 30
0.0000
 42
1.0000
  0
VERTEX
  8
51
 10
-2.6289
 20
2.1590
 30
0.0000
  0
SEQEND
  8
0
  0
POLYLINE
  8
51
 66
1
 10
0.0000
 20
0.0000
 30
0.0000
 40
0.0762
 41
0.0762
 70
0
  0
VERTEX
  8
51
 10
-2.6289
 20
7.2390
 30
0.0000
 42
1.0000
  0
VERTEX
  8
51
 10
-2.7051
 20
7.2390
 30
0.0000
  0
SEQEND
  8
0
  0
POLYLINE
  8
51
 66
1
 10
0.0000
 20
0.0000
 30
0.0000
 40
0.1524
 41
0.1524
 70
0
  0
VERTEX
  8
51
 10
-0.4318
 20
7.2136
 30
0.0000
 42
1.0000
  0
VERTEX
  8
51
 10
0.1778
 20
7.2390
 30
0.0000
  0
SEQEND
  8
0
  0
POLYLINE
  8
51
 66
1
 10
0.0000
 20
0.0000
 30
0.0000
 40
0.0762
 41
0.0762
 70
0
  0
VERTEX
  8
51
 10
-0.3937
 20
7.2152
 30
0.0000
 42
1.0000
  0
VERTEX
  8
51
 10
-0.4699
 20
7.2120
 30
0.0000
  0
SEQEND
  8
0
  0
POLYLINE
  8
51
 66
1
 10
0.0000
 20
0.0000
 30
0.0000
 40
0.0762
 41
0.0762
 70
0
  0
VERTEX
  8
51
 10
0.2159
 20
7.2406
 30
0.0000
 42
1.0000
  0
VERTEX
  8
51
 10
0.1397
 20
7.2374
 30
0.0000
  0
SEQEND
  8
0
  0
POLYLINE
  8
21
 66
1
 10
0.0000
 20
0.0000
 30
0.0000
 40
0.1524
 41
0.1524
 70
0
  0
VERTEX
  8
21
 10
-2.7686
 20
2.0574
 30
0.0000
  0
VERTEX
  8
21
 10
2.5146
 20
2.0574
 30
0.0000
  0
SEQEND
  8
0
  0
POLYLINE
  8
21
 66
1
 10
0.0000
 20
0.0000
 30
0.0000
 40
0.0762
 41
0.0762
 70
0
  0
VERTEX
  8
21
 10
2.5146
 20
2.0193
 30
0.0000
 42
1.0000
  0
VERTEX
  8
21
 10
2.5146
 20
2.0955
 30
0.0000
  0
SEQEND
  8
0
  0
POLYLINE
  8
21
 66
1
 10
0.0000
 20
0.0000
 30
0.0000
 40
0.0762
 41
0.0762
 70
0
  0
VERTEX
  8
21
 10
-2.7686
 20
2.0955
 30
0.0000
 42
1.0000
  0
VERTEX
  8
21
 10
-2.7686
 20
2.0193
 30
0.0000
  0
SEQEND
  8
0
  0
POLYLINE
  8
21
 66
1
 10
0.0000
 20
0.0000
 30
0.0000
 40
0.1524
 41
0.1524
 70
0
  0
VERTEX
  8
21
 10
2.5146
 20
3.8862
 30
0.0000
  0
VERTEX
  8
21
 10
2.5146
 20
5.5118
 30
0.0000
  0
SEQEND
  8
0
  0
POLYLINE
  8
21
 66
1
 10
0.0000
 20
0.0000
 30
0.0000
 40
0.0762
 41
0.0762
 70
0
  0
VERTEX
  8
21
 10
2.5527
 20
5.5118
 30
0.0000
 42
1.0000
  0
VERTEX
  8
21
 10
2.4765
 20
5.5118
 30
0.0000
  0
SEQEND
  8
0
  0
POLYLINE
  8
21
 66
1
 10
0.0000
 20
0.0000
 30
0.0000
 40
0.0762
 41
0.0762
 70
0
  0
VERTEX
  8
21
 10
2.4765
 20
3.8862
 30
0.0000
 42
1.0000
  0
VERTEX
  8
21
 10
2.5527
 20
3.8862
 30
0.0000
  0
SEQEND
  8
0
  0
POLYLINE
  8
21
 66
1
 10
0.0000
 20
0.0000
 30
0.0000
 40
0.1524
 41
0.1524
 70
0
  0
VERTEX
  8
21
 10
2.5146
 20
7.3406
 30
0.0000
  0
VERTEX
  8
21
 10
-2.7686
 20
7.3406
 30
0.0000
  0
SEQEND
  8
0
  0
POLYLINE
  8
21
 66
1
 10
0.0000
 20
0.0000
 30
0.0000
 40
0.0762
 41
0.0762
 70
0
  0
VERTEX
  8
21
 10
-2.7686
 20
7.3787
 30
0.0000
 42
1.0000
  0
VERTEX
  8
21
 10
-2.7686
 20
7.3025
 30
0.0000
  0
SEQEND
  8
0
  0
POLYLINE
  8
21
 66
1
 10
0.0000
 20
0.0000
 30
0.0000
 40
0.0762
 41
0.0762
 70
0
  0
VERTEX
  8
21
 10
2.5146
 20
7.3025
 30
0.0000
 42
1.0000
  0
VERTEX
  8
21
 10
2.5146
 20
7.3787
 30
0.0000
  0
SEQEND
  8
0
  0
POLYLINE
  8
21
 66
1
 10
0.0000
 20
0.0000
 30
0.0000
 40
0.1524
 41
0.1524
 70
0
  0
VERTEX
  8
21
 10
-2.7686
 20
5.5118
 30
0.0000
  0
VERTEX
  8
21
 10
-2.7686
 20
3.8862
 30
0.0000
  0
SEQEND
  8
0
  0
POLYLINE
  8
21
 66
1
 10
0.0000
 20
0.0000
 30
0.0000
 40
0.0762
 41
0.0762
 70
0
  0
VERTEX
  8
21
 10
-2.8067
 20
3.8862
 30
0.0000
 42
1.0000
  0
VERTEX
  8
21
 10
-2.7305
 20
3.8862
 30
0.0000
  0
SEQEND
  8
0
  0
POLYLINE
  8
21
 66
1
 10
0.0000
 20
0.0000
 30
0.0000
 40
0.0762
 41
0.0762
 70
0
  0
VERTEX
  8
21
 10
-2.7305
 20
5.5118
 30
0.0000
 42
1.0000
  0
VERTEX
  8
21
 10
-2.8067
 20
5.5118
 30
0.0000
  0
SEQEND
  8
0
  0
POLYLINE
  8
51
 66
1
 10
0.0000
 20
0.0000
 30
0.0000
 40
0.0762
 41
0.0762
 70
0
  0
VERTEX
  8
51
 10
-2.2387
 20
6.9709
 30
0.0000
  0
VERTEX
  8
51
 10
-2.2387
 20
6.5730
 30
0.0000
  0
SEQEND
  8
0
  0
POLYLINE
  8
51
 66
1
 10
0.0000
 20
0.0000
 30
0.0000
 40
0.0381
 41
0.0381
 70
0
  0
VERTEX
  8
51
 10
-2.2578
 20
6.5730
 30
0.0000
 42
1.0000
  0
VERTEX
  8
51
 10
-2.2197
 20
6.5730
 30
0.0000
  0
SEQEND
  8
0
  0
POLYLINE
  8
51
 66
1
 10
0.0000
 20
0.0000
 30
0.0000
 40
0.0381
 41
0.0381
 70
0
  0
VERTEX
  8
51
 10
-2.2197
 20
6.9709
 30
0.0000
 42
1.0000
  0
VERTEX
  8
51
 10
-2.2578
 20
6.9709
 30
0.0000
  0
SEQEND
  8
0
  0
POLYLINE
  8
51
 66
1
 10
0.0000
 20
0.0000
 30
0.0000
 40
0.0762
 41
0.0762
 70
0
  0
VERTEX
  8
51
 10
-2.2387
 20
6.5730
 30
0.0000
  0
VERTEX
  8
51
 10
-2.0066
 20
6.2745
 30
0.0000
  0
SEQEND
  8
0
  0
POLYLINE
  8
51
 66
1
 10
0.0000
 20
0.0000
 30
0.0000
 40
0.0381
 41
0.0381
 70
0
  0
VERTEX
  8
51
 10
-2.0216
 20
6.2628
 30
0.0000
 42
1.0000
  0
VERTEX
  8
51
 10
-1.9916
 20
6.2862
 30
0.0000
  0
SEQEND
  8
0
  0
POLYLINE
  8
51
 66
1
 10
0.0000
 20
0.0000
 30
0.0000
 40
0.0381
 41
0.0381
 70
0
  0
VERTEX
  8
51
 10
-2.2237
 20
6.5846
 30
0.0000
 42
1.0000
  0
VERTEX
  8
51
 10
-2.2538
 20
6.5613
 30
0.0000
  0
SEQEND
  8
0
  0
POLYLINE
  8
51
 66
1
 10
0.0000
 20
0.0000
 30
0.0000
 40
0.0762
 41
0.0762
 70
0
  0
VERTEX
  8
51
 10
-2.4709
 20
6.2745
 30
0.0000
  0
VERTEX
  8
51
 10
-2.2387
 20
6.5730
 30
0.0000
  0
SEQEND
  8
0
  0
POLYLINE
  8
51
 66
1
 10
0.0000
 20
0.0000
 30
0.0000
 40
0.0381
 41
0.0381
 70
0
  0
VERTEX
  8
51
 10
-2.2237
 20
6.5613
 30
0.0000
 42
1.0000
  0
VERTEX
  8
51
 10
-2.2538
 20
6.5846
 30
0.0000
  0
SEQEND
  8
0
  0
POLYLINE
  8
51
 66
1
 10
0.0000
 20
0.0000
 30
0.0000
 40
0.0381
 41
0.0381
 70
0
  0
VERTEX
  8
51
 10
-2.4859
 20
6.2862
 30
0.0000
 42
1.0000
  0
VERTEX
  8
51
 10
-2.4558
 20
6.2628
 30
0.0000
  0
SEQEND
  8
0
  0
POLYLINE
  8
51
 66
1
 10
0.0000
 20
0.0000
 30
0.0000
 40
0.0762
 41
0.0762
 70
0
  0
VERTEX
  8
51
 10
-2.2387
 20
6.5730
 30
0.0000
  0
VERTEX
  8
51
 10
-1.8740
 20
6.7056
 30
0.0000
  0
SEQEND
  8
0
  0
POLYLINE
  8
51
 66
1
 10
0.0000
 20
0.0000
 30
0.0000
 40
0.0381
 41
0.0381
 70
0
  0
VERTEX
  8
51
 10
-1.8674
 20
6.6877
 30
0.0000
 42
1.0000
  0
VERTEX
  8
51
 10
-1.8805
 20
6.7235
 30
0.0000
  0
SEQEND
  8
0
  0
POLYLINE
  8
51
 66
1
 10
0.0000
 20
0.0000
 30
0.0000
 40
0.0381
 41
0.0381
 70
0
  0
VERTEX
  8
51
 10
-2.2452
 20
6.5909
 30
0.0000
 42
1.0000
  0
VERTEX
  8
51
 10
-2.2322
 20
6.5551
 30
0.0000
  0
SEQEND
  8
0
  0
POLYLINE
  8
51
 66
1
 10
0.0000
 20
0.0000
 30
0.0000
 40
0.0762
 41
0.0762
 70
0
  0
VERTEX
  8
51
 10
-2.2387
 20
6.5730
 30
0.0000
  0
VERTEX
  8
51
 10
-2.6035
 20
6.7056
 30
0.0000
  0
SEQEND
  8
0
  0
POLYLINE
  8
51
 66
1
 10
0.0000
 20
0.0000
 30
0.0000
 40
0.0381
 41
0.0381
 70
0
  0
VERTEX
  8
51
 10
-2.5970
 20
6.7235
 30
0.0000
 42
1.0000
  0
VERTEX
  8
51
 10
-2.6100
 20
6.6877
 30
0.0000
  0
SEQEND
  8
0
  0
POLYLINE
  8
51
 66
1
 10
0.0000
 20
0.0000
 30
0.0000
 40
0.0381
 41
0.0381
 70
0
  0
VERTEX
  8
51
 10
-2.2452
 20
6.5551
 30
0.0000
 42
1.0000
  0
VERTEX
  8
51
 10
-2.2322
 20
6.5909
 30
0.0000
  0
SEQEND
  8
0
  0
POLYLINE
  8
21
 66
1
 10
0.0000
 20
0.0000
 30
0.0000
 40
0.0762
 41
0.0762
 70
0
  0
VERTEX
  8
21
 10
-3.0007
 20
7.7329
 30
0.0000
  0
VERTEX
  8
21
 10
-3.0007
 20
7.3350
 30
0.0000
  0
SEQEND
  8
0
  0
POLYLINE
  8
21
 66
1
 10
0.0000
 20
0.0000
 30
0.0000
 40
0.0381
 41
0.0381
 70
0
  0
VERTEX
  8
21
 10
-3.0198
 20
7.3350
 30
0.0000
 42
1.0000
  0
VERTEX
  8
21
 10
-2.9817
 20
7.3350
 30
0.0000
  0
SEQEND
  8
0
  0
POLYLINE
  8
21
 66
1
 10
0.0000
 20
0.0000
 30
0.0000
 40
0.0381
 41
0.0381
 70
0
  0
VERTEX
  8
21
 10
-2.9817
 20
7.7329
 30
0.0000
 42
1.0000
  0
VERTEX
  8
21
 10
-3.0198
 20
7.7329
 30
0.0000
  0
SEQEND
  8
0
  0
POLYLINE
  8
21
 66
1
 10
0.0000
 20
0.0000
 30
0.0000
 40
0.0762
 41
0.0762
 70
0
  0
VERTEX
  8
21
 10
-3.0007
 20
7.3350
 30
0.0000
  0
VERTEX
  8
21
 10
-2.7686
 20
7.0365
 30
0.0000
  0
SEQEND
  8
0
  0
POLYLINE
  8
21
 66
1
 10
0.0000
 20
0.0000
 30
0.0000
 40
0.0381
 41
0.0381
 70
0
  0
VERTEX
  8
21
 10
-2.7836
 20
7.0248
 30
0.0000
 42
1.0000
  0
VERTEX
  8
21
 10
-2.7536
 20
7.0482
 30
0.0000
  0
SEQEND
  8
0
  0
POLYLINE
  8
21
 66
1
 10
0.0000
 20
0.0000
 30
0.0000
 40
0.0381
 41
0.0381
 70
0
  0
VERTEX
  8
21
 10
-2.9857
 20
7.3466
 30
0.0000
 42
1.0000
  0
VERTEX
  8
21
 10
-3.0158
 20
7.3233
 30
0.0000
  0
SEQEND
  8
0
  0
POLYLINE
  8
21
 66
1
 10
0.0000
 20
0.0000
 30
0.0000
 40
0.0762
 41
0.0762
 70
0
  0
VERTEX
  8
21
 10
-3.2329
 20
7.0365
 30
0.0000
  0
VERTEX
  8
21
 10
-3.0007
 20
7.3350
 30
0.0000
  0
SEQEND
  8
0
  0
POLYLINE
  8
21
 66
1
 10
0.0000
 20
0.0000
 30
0.0000
 40
0.0381
 41
0.0381
 70
0
  0
VERTEX
  8
21
 10
-2.9857
 20
7.3233
 30
0.0000
 42
1.0000
  0
VERTEX
  8
21
 10
-3.0158
 20
7.3466
 30
0.0000
  0
SEQEND
  8
0
  0
POLYLINE
  8
21
 66
1
 10
0.0000
 20
0.0000
 30
0.0000
 40
0.0381
 41
0.0381
 70
0
  0
VERTEX
  8
21
 10
-3.2479
 20
7.0482
 30
0.0000
 42
1.0000
  0
VERTEX
  8
21
 10
-3.2178
 20
7.0248
 30
0.0000
  0
SEQEND
  8
0
  0
POLYLINE
  8
21
 66
1
 10
0.0000
 20
0.0000
 30
0.0000
 40
0.0762
 41
0.0762
 70
0
  0
VERTEX
  8
21
 10
-3.0007
 20
7.3350
 30
0.0000
  0
VERTEX
  8
21
 10
-2.6360
 20
7.4676
 30
0.0000
  0
SEQEND
  8
0
  0
POLYLINE
  8
21
 66
1
 10
0.0000
 20
0.0000
 30
0.0000
 40
0.0381
 41
0.0381
 70
0
  0
VERTEX
  8
21
 10
-2.6294
 20
7.4497
 30
0.0000
 42
1.0000
  0
VERTEX
  8
21
 10
-2.6425
 20
7.4855
 30
0.0000
  0
SEQEND
  8
0
  0
POLYLINE
  8
21
 66
1
 10
0.0000
 20
0.0000
 30
0.0000
 40
0.0381
 41
0.0381
 70
0
  0
VERTEX
  8
21
 10
-3.0072
 20
7.3529
 30
0.0000
 42
1.0000
  0
VERTEX
  8
21
 10
-2.9942
 20
7.3171
 30
0.0000
  0
SEQEND
  8
0
  0
POLYLINE
  8
21
 66
1
 10
0.0000
 20
0.0000
 30
0.0000
 40
0.0762
 41
0.0762
 70
0
  0
VERTEX
  8
21
 10
-3.0007
 20
7.3350
 30
0.0000
  0
VERTEX
  8
21
 10
-3.3655
 20
7.4676
 30
0.0000
  0
SEQEND
  8
0
  0
POLYLINE
  8
21
 66
1
 10
0.0000
 20
0.0000
 30
0.0000
 40
0.0381
 41
0.0381
 70
0
  0
VERTEX
  8
21
 10
-3.3590
 20
7.4855
 30
0.0000
 42
1.0000
  0
VERTEX
  8
21
 10
-3.3720
 20
7.4497
 30
0.0000
  0
SEQEND
  8
0
  0
POLYLINE
  8
21
 66
1
 10
0.0000
 20
0.0000
 30
0.0000
 40
0.0381
 41
0.0381
 70
0
  0
VERTEX
  8
21
 10
-3.0072
 20
7.3171
 30
0.0000
 42
1.0000
  0
VERTEX
  8
21
 10
-2.9942
 20
7.3529
 30
0.0000
  0
SEQEND
  8
0
  0
INSERT
  8
1
  2
RECT
 10
-2.5654
 20
6.3490
 30
0.0000
 41
1.2954
 42
0.9906
 43
1.0000
 50
0.0000
  0
INSERT
  8
1
  2
RECT
 10
-2.5654
 20
3.0490
 30
0.0000
 41
1.2954
 42
0.9906
 43
1.0000
 50
0.0000
  0
INSERT
  8
1
  2
RECT
 10
2.3114
 20
3.0490
 30
0.0000
 41
1.2954
 42
0.9906
 43
1.0000
 50
0.0000
  0
INSERT
  8
1
  2
RECT
 10
2.3114
 20
6.3490
 30
0.0000
 41
1.2954
 42
0.9906
 43
1.0000
 50
0.0000
  0
POLYLINE
  8
25
 66
1
 10
0.0000
 20
0.0000
 30
0.0000
 40
0.0762
 41
0.0762
 70
0
  0
VERTEX
  8
25
 10
-3.3655
 20
5.2959
 30
0.0000
  0
VERTEX
  8
25
 10
-3.3655
 20
4.4337
 30
0.0000
  0
SEQEND
  8
0
  0
POLYLINE
  8
25
 66
1
 10
0.0000
 20
0.0000
 30
0.0000
 40
0.0381
 41
0.0381
 70
0
  0
VERTEX
  8
25
 10
-3.3846
 20
4.4337
 30
0.0000
 42
1.0000
  0
VERTEX
  8
25
 10
-3.3465
 20
4.4337
 30
0.0000
  0
SEQEND
  8
0
  0
POLYLINE
  8
25
 66
1
 10
0.0000
 20
0.0000
 30
0.0000
 40
0.0381
 41
0.0381
 70
0
  0
VERTEX
  8
25
 10
-3.3465
 20
5.2959
 30
0.0000
 42
1.0000
  0
VERTEX
  8
25
 10
-3.3846
 20
5.2959
 30
0.0000
  0
SEQEND
  8
0
  0
POLYLINE
  8
25
 66
1
 10
0.0000
 20
0.0000
 30
0.0000
 40
0.0762
 41
0.0762
 70
0
  0
VERTEX
  8
25
 10
-3.3655
 20
4.4337
 30
0.0000
 42
1.0000
  0
VERTEX
  8
25
 10
-2.7023
 20
4.4337
 30
0.0000
  0
SEQEND
  8
0
  0
POLYLINE
  8
25
 66
1
 10
0.0000
 20
0.0000
 30
0.0000
 40
0.0381
 41
0.0381
 70
0
  0
VERTEX
  8
25
 10
-3.3465
 20
4.4337
 30
0.0000
 42
1.0000
  0
VERTEX
  8
25
 10
-3.3846
 20
4.4337
 30
0.0000
  0
SEQEND
  8
0
  0
POLYLINE
  8
25
 66
1
 10
0.0000
 20
0.0000
 30
0.0000
 40
0.0381
 41
0.0381
 70
0
  0
VERTEX
  8
25
 10
-2.6832
 20
4.4337
 30
0.0000
 42
1.0000
  0
VERTEX
  8
25
 10
-2.7213
 20
4.4337
 30
0.0000
  0
SEQEND
  8
0
  0
POLYLINE
  8
25
 66
1
 10
0.0000
 20
0.0000
 30
0.0000
 40
0.0762
 41
0.0762
 70
0
  0
VERTEX
  8
25
 10
-2.7023
 20
4.4337
 30
0.0000
  0
VERTEX
  8
25
 10
-2.7023
 20
5.2959
 30
0.0000
  0
SEQEND
  8
0
  0
POLYLINE
  8
25
 66
1
 10
0.0000
 20
0.0000
 30
0.0000
 40
0.0381
 41
0.0381
 70
0
  0
VERTEX
  8
25
 10
-2.6832
 20
5.2959
 30
0.0000
 42
1.0000
  0
VERTEX
  8
25
 10
-2.7213
 20
5.2959
 30
0.0000
  0
SEQEND
  8
0
  0
POLYLINE
  8
25
 66
1
 10
0.0000
 20
0.0000
 30
0.0000
 40
0.0381
 41
0.0381
 70
0
  0
VERTEX
  8
25
 10
-2.7213
 20
4.4337
 30
0.0000
 42
1.0000
  0
VERTEX
  8
25
 10
-2.6832
 20
4.4337
 30
0.0000
  0
SEQEND
  8
0
  0
POLYLINE
  8
25
 66
1
 10
0.0000
 20
0.0000
 30
0.0000
 40
0.0762
 41
0.0762
 70
0
  0
VERTEX
  8
25
 10
-2.1844
 20
5.0306
 30
0.0000
  0
VERTEX
  8
25
 10
-1.8528
 20
5.2959
 30
0.0000
  0
SEQEND
  8
0
  0
POLYLINE
  8
25
 66
1
 10
0.0000
 20
0.0000
 30
0.0000
 40
0.0381
 41
0.0381
 70
0
  0
VERTEX
  8
25
 10
-1.8409
 20
5.2810
 30
0.0000
 42
1.0000
  0
VERTEX
  8
25
 10
-1.8647
 20
5.3108
 30
0.0000
  0
SEQEND
  8
0
  0
POLYLINE
  8
25
 66
1
 10
0.0000
 20
0.0000
 30
0.0000
 40
0.0381
 41
0.0381
 70
0
  0
VERTEX
  8
25
 10
-2.1963
 20
5.0455
 30
0.0000
 42
1.0000
  0
VERTEX
  8
25
 10
-2.1725
 20
5.0157
 30
0.0000
  0
SEQEND
  8
0
  0
POLYLINE
  8
25
 66
1
 10
0.0000
 20
0.0000
 30
0.0000
 40
0.0762
 41
0.0762
 70
0
  0
VERTEX
  8
25
 10
-1.8528
 20
5.2959
 30
0.0000
  0
VERTEX
  8
25
 10
-1.8528
 20
4.1021
 30
0.0000
  0
SEQEND
  8
0
  0
POLYLINE
  8
25
 66
1
 10
0.0000
 20
0.0000
 30
0.0000
 40
0.0381
 41
0.0381
 70
0
  0
VERTEX
  8
25
 10
-1.8718
 20
4.1021
 30
0.0000
 42
1.0000
  0
VERTEX
  8
25
 10
-1.8337
 20
4.1021
 30
0.0000
  0
SEQEND
  8
0
  0
POLYLINE
  8
25
 66
1
 10
0.0000
 20
0.0000
 30
0.0000
 40
0.0381
 41
0.0381
 70
0
  0
VERTEX
  8
25
 10
-1.8337
 20
5.2959
 30
0.0000
 42
1.0000
  0
VERTEX
  8
25
 10
-1.8718
 20
5.2959
 30
0.0000
  0
SEQEND
  8
0
  0
POLYLINE
  8
25
 66
1
 10
0.0000
 20
0.0000
 30
0.0000
 40
0.0762
 41
0.0762
 70
0
  0
VERTEX
  8
25
 10
-2.1844
 20
4.1021
 30
0.0000
  0
VERTEX
  8
25
 10
-1.5212
 20
4.1021
 30
0.0000
  0
SEQEND
  8
0
  0
POLYLINE
  8
25
 66
1
 10
0.0000
 20
0.0000
 30
0.0000
 40
0.0381
 41
0.0381
 70
0
  0
VERTEX
  8
25
 10
-1.5212
 20
4.0831
 30
0.0000
 42
1.0000
  0
VERTEX
  8
25
 10
-1.5212
 20
4.1212
 30
0.0000
  0
SEQEND
  8
0
  0
POLYLINE
  8
25
 66
1
 10
0.0000
 20
0.0000
 30
0.0000
 40
0.0381
 41
0.0381
 70
0
  0
VERTEX
  8
25
 10
-2.1844
 20
4.1212
 30
0.0000
 42
1.0000
  0
VERTEX
  8
25
 10
-2.1844
 20
4.0831
 30
0.0000
  0
SEQEND
  8
0
  0
POLYLINE
  8
21
 66
1
 10
0.0000
 20
0.0000
 30
0.0000
 40
0.0762
 41
0.0762
 70
0
  0
VERTEX
  8
21
 10
-1.8161
 20
5.2959
 30
0.0000
  0
VERTEX
  8
21
 10
-1.5508
 20
4.1021
 30
0.0000
  0
SEQEND
  8
0
  0
POLYLINE
  8
21
 66
1
 10
0.0000
 20
0.0000
 30
0.0000
 40
0.0381
 41
0.0381
 70
0
  0
VERTEX
  8
21
 10
-1.5694
 20
4.0980
 30
0.0000
 42
1.0000
  0
VERTEX
  8
21
 10
-1.5322
 20
4.1062
 30
0.0000
  0
SEQEND
  8
0
  0
POLYLINE
  8
21
 66
1
 10
0.0000
 20
0.0000
 30
0.0000
 40
0.0381
 41
0.0381
 70
0
  0
VERTEX
  8
21
 10
-1.7975
 20
5.3000
 30
0.0000
 42
1.0000
  0
VERTEX
  8
21
 10
-1.8347
 20
5.2918
 30
0.0000
  0
SEQEND
  8
0
  0
POLYLINE
  8
21
 66
1
 10
0.0000
 20
0.0000
 30
0.0000
 40
0.0762
 41
0.0762
 70
0
  0
VERTEX
  8
21
 10
-1.5508
 20
4.1021
 30
0.0000
  0
VERTEX
  8
21
 10
-1.2855
 20
4.8980
 30
0.0000
  0
SEQEND
  8
0
  0
POLYLINE
  8
21
 66
1
 10
0.0000
 20
0.0000
 30
0.0000
 40
0.0381
 41
0.0381
 70
0
  0
VERTEX
  8
21
 10
-1.2675
 20
4.8919
 30
0.0000
 42
1.0000
  0
VERTEX
  8
21
 10
-1.3036
 20
4.9040
 30
0.0000
  0
SEQEND
  8
0
  0
POLYLINE
  8
21
 66
1
 10
0.0000
 20
0.0000
 30
0.0000
 40
0.0381
 41
0.0381
 70
0
  0
VERTEX
  8
21
 10
-1.5689
 20
4.1081
 30
0.0000
 42
1.0000
  0
VERTEX
  8
21
 10
-1.5327
 20
4.0961
 30
0.0000
  0
SEQEND
  8
0
  0
POLYLINE
  8
21
 66
1
 10
0.0000
 20
0.0000
 30
0.0000
 40
0.0762
 41
0.0762
 70
0
  0
VERTEX
  8
21
 10
-1.2855
 20
4.8980
 30
0.0000
  0
VERTEX
  8
21
 10
-1.0202
 20
4.1021
 30
0.0000
  0
SEQEND
  8
0
  0
POLYLINE
  8
21
 66
1
 10
0.0000
 20
0.0000
 30
0.0000
 40
0.0381
 41
0.0381
 70
0
  0
VERTEX
  8
21
 10
-1.0383
 20
4.0961
 30
0.0000
 42
1.0000
  0
VERTEX
  8
21
 10
-1.0022
 20
4.1081
 30
0.0000
  0
SEQEND
  8
0
  0
POLYLINE
  8
21
 66
1
 10
0.0000
 20
0.0000
 30
0.0000
 40
0.0381
 41
0.0381
 70
0
  0
VERTEX
  8
21
 10
-1.2675
 20
4.9040
 30
0.0000
 42
1.0000
  0
VERTEX
  8
21
 10
-1.3036
 20
4.8919
 30
0.0000
  0
SEQEND
  8
0
  0
POLYLINE
  8
21
 66
1
 10
0.0000
 20
0.0000
 30
0.0000
 40
0.0762
 41
0.0762
 70
0
  0
VERTEX
  8
21
 10
-1.0202
 20
4.1021
 30
0.0000
  0
VERTEX
  8
21
 10
-0.7549
 20
5.2959
 30
0.0000
  0
SEQEND
  8
0
  0
POLYLINE
  8
21
 66
1
 10
0.0000
 20
0.0000
 30
0.0000
 40
0.0381
 41
0.0381
 70
0
  0
VERTEX
  8
21
 10
-0.7364
 20
5.2918
 30
0.0000
 42
1.0000
  0
VERTEX
  8
21
 10
-0.7735
 20
5.3000
 30
0.0000
  0
SEQEND
  8
0
  0
POLYLINE
  8
21
 66
1
 10
0.0000
 20
0.0000
 30
0.0000
 40
0.0381
 41
0.0381
 70
0
  0
VERTEX
  8
21
 10
-1.0388
 20
4.1062
 30
0.0000
 42
1.0000
  0
VERTEX
  8
21
 10
-1.0016
 20
4.0980
 30
0.0000
  0
SEQEND
  8
0
  0
POLYLINE
  8
21
 66
1
 10
0.0000
 20
0.0000
 30
0.0000
 40
0.0762
 41
0.0762
 70
0
  0
VERTEX
  8
21
 10
0.0381
 20
4.1021
 30
0.0000
 42
0.4142
  0
VERTEX
  8
21
 10
0.3034
 20
4.3674
 30
0.0000
  0
SEQEND
  8
0
  0
POLYLINE
  8
21
 66
1
 10
0.0000
 20
0.0000
 30
0.0000
 40
0.0381
 41
0.0381
 70
0
  0
VERTEX
  8
21
 10
0.0381
 20
4.1211
 30
0.0000
 42
1.0000
  0
VERTEX
  8
21
 10
0.0381
 20
4.0830
 30
0.0000
  0
SEQEND
  8
0
  0
POLYLINE
  8
21
 66
1
 10
0.0000
 20
0.0000
 30
0.0000
 40
0.0381
 41
0.0381
 70
0
  0
VERTEX
  8
21
 10
0.3224
 20
4.3674
 30
0.0000
 42
1.0000
  0
VERTEX
  8
21
 10
0.2843
 20
4.3674
 30
0.0000
  0
SEQEND
  8
0
  0
POLYLINE
  8
21
 66
1
 10
0.0000
 20
0.0000
 30
0.0000
 40
0.0762
 41
0.0762
 70
0
  0
VERTEX
  8
21
 10
-0.3598
 20
4.2679
 30
0.0000
 42
0.2000
  0
VERTEX
  8
21
 10
0.0381
 20
4.1021
 30
0.0000
  0
SEQEND
  8
0
  0
POLYLINE
  8
21
 66
1
 10
0.0000
 20
0.0000
 30
0.0000
 40
0.0381
 41
0.0381
 70
0
  0
VERTEX
  8
21
 10
-0.3463
 20
4.2813
 30
0.0000
 42
1.0000
  0
VERTEX
  8
21
 10
-0.3734
 20
4.2545
 30
0.0000
  0
SEQEND
  8
0
  0
POLYLINE
  8
21
 66
1
 10
0.0000
 20
0.0000
 30
0.0000
 40
0.0381
 41
0.0381
 70
0
  0
VERTEX
  8
21
 10
0.0381
 20
4.0831
 30
0.0000
 42
1.0000
  0
VERTEX
  8
21
 10
0.0381
 20
4.1211
 30
0.0000
  0
SEQEND
  8
0
  0
POLYLINE
  8
21
 66
1
 10
0.0000
 20
0.0000
 30
0.0000
 40
0.0762
 41
0.0762
 70
0
  0
VERTEX
  8
21
 10
-0.0614
 20
5.2959
 30
0.0000
 42
0.4142
  0
VERTEX
  8
21
 10
-0.3267
 20
5.0306
 30
0.0000
  0
SEQEND
  8
0
  0
POLYLINE
  8
21
 66
1
 10
0.0000
 20
0.0000
 30
0.0000
 40
0.0381
 41
0.0381
 70
0
  0
VERTEX
  8
21
 10
-0.0614
 20
5.2769
 30
0.0000
 42
1.0000
  0
VERTEX
  8
21
 10
-0.0614
 20
5.3150
 30
0.0000
  0
SEQEND
  8
0
  0
POLYLINE
  8
21
 66
1
 10
0.0000
 20
0.0000
 30
0.0000
 40
0.0381
 41
0.0381
 70
0
  0
VERTEX
  8
21
 10
-0.3457
 20
5.0306
 30
0.0000
 42
1.0000
  0
VERTEX
  8
21
 10
-0.3076
 20
5.0306
 30
0.0000
  0
SEQEND
  8
0
  0
POLYLINE
  8
21
 66
1
 10
0.0000
 20
0.0000
 30
0.0000
 40
0.0762
 41
0.0762
 70
0
  0
VERTEX
  8
21
 10
0.2371
 20
5.1964
 30
0.0000
 42
0.1623
  0
VERTEX
  8
21
 10
-0.0614
 20
5.2959
 30
0.0000
  0
SEQEND
  8
0
  0
POLYLINE
  8
21
 66
1
 10
0.0000
 20
0.0000
 30
0.0000
 40
0.0381
 41
0.0381
 70
0
  0
VERTEX
  8
21
 10
0.2256
 20
5.1812
 30
0.0000
 42
1.0000
  0
VERTEX
  8
21
 10
0.2485
 20
5.2117
 30
0.0000
  0
SEQEND
  8
0
  0
POLYLINE
  8
21
 66
1
 10
0.0000
 20
0.0000
 30
0.0000
 40
0.0381
 41
0.0381
 70
0
  0
VERTEX
  8
21
 10
-0.0614
 20
5.3149
 30
0.0000
 42
1.0000
  0
VERTEX
  8
21
 10
-0.0614
 20
5.2769
 30
0.0000
  0
SEQEND
  8
0
  0
POLYLINE
  8
21
 66
1
 10
0.0000
 20
0.0000
 30
0.0000
 40
0.0762
 41
0.0762
 70
0
  0
VERTEX
  8
21
 10
-0.3267
 20
5.0306
 30
0.0000
 42
0.2656
  0
VERTEX
  8
21
 10
-0.1940
 20
4.7985
 30
0.0000
  0
SEQEND
  8
0
  0
POLYLINE
  8
21
 66
1
 10
0.0000
 20
0.0000
 30
0.0000
 40
0.0381
 41
0.0381
 70
0
  0
VERTEX
  8
21
 10
-0.3076
 20
5.0306
 30
0.0000
 42
1.0000
  0
VERTEX
  8
21
 10
-0.3457
 20
5.0306
 30
0.0000
  0
SEQEND
  8
0
  0
POLYLINE
  8
21
 66
1
 10
0.0000
 20
0.0000
 30
0.0000
 40
0.0381
 41
0.0381
 70
0
  0
VERTEX
  8
21
 10
-0.2037
 20
4.7821
 30
0.0000
 42
1.0000
  0
VERTEX
  8
21
 10
-0.1844
 20
4.8149
 30
0.0000
  0
SEQEND
  8
0
  0
POLYLINE
  8
21
 66
1
 10
0.0000
 20
0.0000
 30
0.0000
 40
0.0762
 41
0.0762
 70
0
  0
VERTEX
  8
21
 10
0.3034
 20
4.3674
 30
0.0000
 42
0.2656
  0
VERTEX
  8
21
 10
0.1707
 20
4.5995
 30
0.0000
  0
SEQEND
  8
0
  0
POLYLINE
  8
21
 66
1
 10
0.0000
 20
0.0000
 30
0.0000
 40
0.0381
 41
0.0381
 70
0
  0
VERTEX
  8
21
 10
0.2843
 20
4.3674
 30
0.0000
 42
1.0000
  0
VERTEX
  8
21
 10
0.3224
 20
4.3674
 30
0.0000
  0
SEQEND
  8
0
  0
POLYLINE
  8
21
 66
1
 10
0.0000
 20
0.0000
 30
0.0000
 40
0.0381
 41
0.0381
 70
0
  0
VERTEX
  8
21
 10
0.1804
 20
4.6159
 30
0.0000
 42
1.0000
  0
VERTEX
  8
21
 10
0.1611
 20
4.5831
 30
0.0000
  0
SEQEND
  8
0
  0
POLYLINE
  8
21
 66
1
 10
0.0000
 20
0.0000
 30
0.0000
 40
0.0762
 41
0.0762
 70
0
  0
VERTEX
  8
21
 10
0.1707
 20
4.5995
 30
0.0000
  0
VERTEX
  8
21
 10
-0.1940
 20
4.7985
 30
0.0000
  0
SEQEND
  8
0
  0
POLYLINE
  8
21
 66
1
 10
0.0000
 20
0.0000
 30
0.0000
 40
0.0381
 41
0.0381
 70
0
  0
VERTEX
  8
21
 10
-0.1849
 20
4.8152
 30
0.0000
 42
1.0000
  0
VERTEX
  8
21
 10
-0.2032
 20
4.7818
 30
0.0000
  0
SEQEND
  8
0
  0
POLYLINE
  8
21
 66
1
 10
0.0000
 20
0.0000
 30
0.0000
 40
0.0381
 41
0.0381
 70
0
  0
VERTEX
  8
21
 10
0.1616
 20
4.5828
 30
0.0000
 42
1.0000
  0
VERTEX
  8
21
 10
0.1799
 20
4.6162
 30
0.0000
  0
SEQEND
  8
0
  0
POLYLINE
  8
21
 66
1
 10
0.0000
 20
0.0000
 30
0.0000
 40
0.0762
 41
0.0762
 70
0
  0
VERTEX
  8
21
 10
1.4083
 20
4.9975
 30
0.0000
 42
0.4142
  0
VERTEX
  8
21
 10
1.1098
 20
5.2959
 30
0.0000
  0
SEQEND
  8
0
  0
POLYLINE
  8
21
 66
1
 10
0.0000
 20
0.0000
 30
0.0000
 40
0.0381
 41
0.0381
 70
0
  0
VERTEX
  8
21
 10
1.3892
 20
4.9975
 30
0.0000
 42
1.0000
  0
VERTEX
  8
21
 10
1.4273
 20
4.9975
 30
0.0000
  0
SEQEND
  8
0
  0
POLYLINE
  8
21
 66
1
 10
0.0000
 20
0.0000
 30
0.0000
 40
0.0381
 41
0.0381
 70
0
  0
VERTEX
  8
21
 10
1.1098
 20
5.3150
 30
0.0000
 42
1.0000
  0
VERTEX
  8
21
 10
1.1098
 20
5.2769
 30
0.0000
  0
SEQEND
  8
0
  0
POLYLINE
  8
21
 66
1
 10
0.0000
 20
0.0000
 30
0.0000
 40
0.0762
 41
0.0762
 70
0
  0
VERTEX
  8
21
 10
1.1098
 20
5.2959
 30
0.0000
 42
0.3252
  0
VERTEX
  8
21
 10
0.7451
 20
5.0306
 30
0.0000
  0
SEQEND
  8
0
  0
POLYLINE
  8
21
 66
1
 10
0.0000
 20
0.0000
 30
0.0000
 40
0.0381
 41
0.0381
 70
0
  0
VERTEX
  8
21
 10
1.1098
 20
5.2769
 30
0.0000
 42
1.0000
  0
VERTEX
  8
21
 10
1.1098
 20
5.3149
 30
0.0000
  0
SEQEND
  8
0
  0
POLYLINE
  8
21
 66
1
 10
0.0000
 20
0.0000
 30
0.0000
 40
0.0381
 41
0.0381
 70
0
  0
VERTEX
  8
21
 10
0.7269
 20
5.0365
 30
0.0000
 42
1.0000
  0
VERTEX
  8
21
 10
0.7632
 20
5.0247
 30
0.0000
  0
SEQEND
  8
0
  0
POLYLINE
  8
21
 66
1
 10
0.0000
 20
0.0000
 30
0.0000
 40
0.0762
 41
0.0762
 70
0
  0
VERTEX
  8
21
 10
1.3088
 20
4.7653
 30
0.0000
 42
0.2053
  0
VERTEX
  8
21
 10
1.4083
 20
4.9975
 30
0.0000
  0
SEQEND
  8
0
  0
POLYLINE
  8
21
 66
1
 10
0.0000
 20
0.0000
 30
0.0000
 40
0.0381
 41
0.0381
 70
0
  0
VERTEX
  8
21
 10
1.2957
 20
4.7791
 30
0.0000
 42
1.0000
  0
VERTEX
  8
21
 10
1.3219
 20
4.7515
 30
0.0000
  0
SEQEND
  8
0
  0
POLYLINE
  8
21
 66
1
 10
0.0000
 20
0.0000
 30
0.0000
 40
0.0381
 41
0.0381
 70
0
  0
VERTEX
  8
21
 10
1.4273
 20
4.9974
 30
0.0000
 42
1.0000
  0
VERTEX
  8
21
 10
1.3892
 20
4.9975
 30
0.0000
  0
SEQEND
  8
0
  0
POLYLINE
  8
21
 66
1
 10
0.0000
 20
0.0000
 30
0.0000
 40
0.0762
 41
0.0762
 70
0
  0
VERTEX
  8
21
 10
1.3088
 20
4.7653
 30
0.0000
  0
VERTEX
  8
21
 10
0.7451
 20
4.1021
 30
0.0000
  0
SEQEND
  8
0
  0
POLYLINE
  8
21
 66
1
 10
0.0000
 20
0.0000
 30
0.0000
 40
0.0381
 41
0.0381
 70
0
  0
VERTEX
  8
21
 10
0.7305
 20
4.1144
 30
0.0000
 42
1.0000
  0
VERTEX
  8
21
 10
0.7596
 20
4.0898
 30
0.0000
  0
SEQEND
  8
0
  0
POLYLINE
  8
21
 66
1
 10
0.0000
 20
0.0000
 30
0.0000
 40
0.0381
 41
0.0381
 70
0
  0
VERTEX
  8
21
 10
1.3233
 20
4.7530
 30
0.0000
 42
1.0000
  0
VERTEX
  8
21
 10
1.2943
 20
4.7777
 30
0.0000
  0
SEQEND
  8
0
  0
POLYLINE
  8
21
 66
1
 10
0.0000
 20
0.0000
 30
0.0000
 40
0.0762
 41
0.0762
 70
0
  0
VERTEX
  8
21
 10
0.7451
 20
4.1021
 30
0.0000
  0
VERTEX
  8
21
 10
1.4083
 20
4.1021
 30
0.0000
  0
SEQEND
  8
0
  0
POLYLINE
  8
21
 66
1
 10
0.0000
 20
0.0000
 30
0.0000
 40
0.0381
 41
0.0381
 70
0
  0
VERTEX
  8
21
 10
1.4083
 20
4.0831
 30
0.0000
 42
1.0000
  0
VERTEX
  8
21
 10
1.4083
 20
4.1212
 30
0.0000
  0
SEQEND
  8
0
  0
POLYLINE
  8
21
 66
1
 10
0.0000
 20
0.0000
 30
0.0000
 40
0.0381
 41
0.0381
 70
0
  0
VERTEX
  8
21
 10
0.7451
 20
4.1212
 30
0.0000
 42
1.0000
  0
VERTEX
  8
21
 10
0.7451
 20
4.0831
 30
0.0000
  0
SEQEND
  8
0
  0
POLYLINE
  8
21
 66
1
 10
0.0000
 20
0.0000
 30
0.0000
 40
0.0762
 41
0.0762
 70
0
  0
VERTEX
  8
21
 10
2.5513
 20
4.4337
 30
0.0000
 42
1.0000
  0
VERTEX
  8
21
 10
1.8881
 20
4.4337
 30
0.0000
  0
SEQEND
  8
0
  0
POLYLINE
  8
21
 66
1
 10
0.0000
 20
0.0000
 30
0.0000
 40
0.0381
 41
0.0381
 70
0
  0
VERTEX
  8
21
 10
2.5322
 20
4.4337
 30
0.0000
 42
1.0000
  0
VERTEX
  8
21
 10
2.5703
 20
4.4337
 30
0.0000
  0
SEQEND
  8
0
  0
POLYLINE
  8
21
 66
1
 10
0.0000
 20
0.0000
 30
0.0000
 40
0.0381
 41
0.0381
 70
0
  0
VERTEX
  8
21
 10
1.8690
 20
4.4337
 30
0.0000
 42
1.0000
  0
VERTEX
  8
21
 10
1.9071
 20
4.4337
 30
0.0000
  0
SEQEND
  8
0
  0
POLYLINE
  8
21
 66
1
 10
0.0000
 20
0.0000
 30
0.0000
 40
0.0762
 41
0.0762
 70
0
  0
VERTEX
  8
21
 10
1.8881
 20
4.4337
 30
0.0000
 42
1.0000
  0
VERTEX
  8
21
 10
2.5513
 20
4.4337
 30
0.0000
  0
SEQEND
  8
0
  0
POLYLINE
  8
21
 66
1
 10
0.0000
 20
0.0000
 30
0.0000
 40
0.0381
 41
0.0381
 70
0
  0
VERTEX
  8
21
 10
1.9071
 20
4.4337
 30
0.0000
 42
1.0000
  0
VERTEX
  8
21
 10
1.8690
 20
4.4337
 30
0.0000
  0
SEQEND
  8
0
  0
POLYLINE
  8
21
 66
1
 10
0.0000
 20
0.0000
 30
0.0000
 40
0.0381
 41
0.0381
 70
0
  0
VERTEX
  8
21
 10
2.5703
 20
4.4337
 30
0.0000
 42
1.0000
  0
VERTEX
  8
21
 10
2.5322
 20
4.4337
 30
0.0000
  0
SEQEND
  8
0
  0
POLYLINE
  8
21
 66
1
 10
0.0000
 20
0.0000
 30
0.0000
 40
0.0762
 41
0.0762
 70
0
  0
VERTEX
  8
21
 10
2.4850
 20
5.0306
 30
0.0000
 42
1.0000
  0
VERTEX
  8
21
 10
1.9544
 20
5.0306
 30
0.0000
  0
SEQEND
  8
0
  0
POLYLINE
  8
21
 66
1
 10
0.0000
 20
0.0000
 30
0.0000
 40
0.0381
 41
0.0381
 70
0
  0
VERTEX
  8
21
 10
2.4659
 20
5.0306
 30
0.0000
 42
1.0000
  0
VERTEX
  8
21
 10
2.5040
 20
5.0306
 30
0.0000
  0
SEQEND
  8
0
  0
POLYLINE
  8
21
 66
1
 10
0.0000
 20
0.0000
 30
0.0000
 40
0.0381
 41
0.0381
 70
0
  0
VERTEX
  8
21
 10
1.9353
 20
5.0306
 30
0.0000
 42
1.0000
  0
VERTEX
  8
21
 10
1.9734
 20
5.0306
 30
0.0000
  0
SEQEND
  8
0
  0
POLYLINE
  8
21
 66
1
 10
0.0000
 20
0.0000
 30
0.0000
 40
0.0762
 41
0.0762
 70
0
  0
VERTEX
  8
21
 10
1.9544
 20
5.0306
 30
0.0000
 42
1.0000
  0
VERTEX
  8
21
 10
2.4850
 20
5.0306
 30
0.0000
  0
SEQEND
  8
0
  0
POLYLINE
  8
21
 66
1
 10
0.0000
 20
0.0000
 30
0.0000
 40
0.0381
 41
0.0381
 70
0
  0
VERTEX
  8
21
 10
1.9734
 20
5.0306
 30
0.0000
 42
1.0000
  0
VERTEX
  8
21
 10
1.9353
 20
5.0306
 30
0.0000
  0
SEQEND
  8
0
  0
POLYLINE
  8
21
 66
1
 10
0.0000
 20
0.0000
 30
0.0000
 40
0.0381
 41
0.0381
 70
0
  0
VERTEX
  8
21
 10
2.5040
 20
5.0306
 30
0.0000
 42
1.0000
  0
VERTEX
  8
21
 10
2.4659
 20
5.0306
 30
0.0000
  0
SEQEND
  8
0
  0
POLYLINE
  8
21
 66
1
 10
0.0000
 20
0.0000
 30
0.0000
 40
0.0762
 41
0.0762
 70
0
  0
VERTEX
  8
21
 10
3.0311
 20
5.0306
 30
0.0000
  0
VERTEX
  8
21
 10
3.3627
 20
5.2959
 30
0.0000
  0
SEQEND
  8
0
  0
POLYLINE
  8
21
 66
1
 10
0.0000
 20
0.0000
 30
0.0000
 40
0.0381
 41
0.0381
 70
0
  0
VERTEX
  8
21
 10
3.3746
 20
5.2810
 30
0.0000
 42
1.0000
  0
VERTEX
  8
21
 10
3.3508
 20
5.3108
 30
0.0000
  0
SEQEND
  8
0
  0
POLYLINE
  8
21
 66
1
 10
0.0000
 20
0.0000
 30
0.0000
 40
0.0381
 41
0.0381
 70
0
  0
VERTEX
  8
21
 10
3.0192
 20
5.0455
 30
0.0000
 42
1.0000
  0
VERTEX
  8
21
 10
3.0430
 20
5.0157
 30
0.0000
  0
SEQEND
  8
0
  0
POLYLINE
  8
21
 66
1
 10
0.0000
 20
0.0000
 30
0.0000
 40
0.0762
 41
0.0762
 70
0
  0
VERTEX
  8
21
 10
3.3627
 20
5.2959
 30
0.0000
  0
VERTEX
  8
21
 10
3.3627
 20
4.1021
 30
0.0000
  0
SEQEND
  8
0
  0
POLYLINE
  8
21
 66
1
 10
0.0000
 20
0.0000
 30
0.0000
 40
0.0381
 41
0.0381
 70
0
  0
VERTEX
  8
21
 10
3.3436
 20
4.1021
 30
0.0000
 42
1.0000
  0
VERTEX
  8
21
 10
3.3817
 20
4.1021
 30
0.0000
  0
SEQEND
  8
0
  0
POLYLINE
  8
21
 66
1
 10
0.0000
 20
0.0000
 30
0.0000
 40
0.0381
 41
0.0381
 70
0
  0
VERTEX
  8
21
 10
3.3817
 20
5.2959
 30
0.0000
 42
1.0000
  0
VERTEX
  8
21
 10
3.3436
 20
5.2959
 30
0.0000
  0
SEQEND
  8
0
  0
POLYLINE
  8
21
 66
1
 10
0.0000
 20
0.0000
 30
0.0000
 40
0.0762
 41
0.0762
 70
0
  0
VERTEX
  8
21
 10
3.0311
 20
4.1021
 30
0.0000
  0
VERTEX
  8
21
 10
3.6943
 20
4.1021
 30
0.0000
  0
SEQEND
  8
0
  0
POLYLINE
  8
21
 66
1
 10
0.0000
 20
0.0000
 30
0.0000
 40
0.0381
 41
0.0381
 70
0
  0
VERTEX
  8
21
 10
3.6943
 20
4.0831
 30
0.0000
 42
1.0000
  0
VERTEX
  8
21
 10
3.6943
 20
4.1212
 30
0.0000
  0
SEQEND
  8
0
  0
POLYLINE
  8
21
 66
1
 10
0.0000
 20
0.0000
 30
0.0000
 40
0.0381
 41
0.0381
 70
0
  0
VERTEX
  8
21
 10
3.0311
 20
4.1212
 30
0.0000
 42
1.0000
  0
VERTEX
  8
21
 10
3.0311
 20
4.0831
 30
0.0000
  0
SEQEND
  8
0
  0
POLYLINE
  8
21
 66
1
 10
0.0000
 20
0.0000
 30
0.0000
 40
0.0762
 41
0.0762
 70
0
  0
VERTEX
  8
21
 10
4.8373
 20
4.9975
 30
0.0000
 42
0.4142
  0
VERTEX
  8
21
 10
4.5388
 20
5.2959
 30
0.0000
  0
SEQEND
  8
0
  0
POLYLINE
  8
21
 66
1
 10
0.0000
 20
0.0000
 30
0.0000
 40
0.0381
 41
0.0381
 70
0
  0
VERTEX
  8
21
 10
4.8182
 20
4.9975
 30
0.0000
 42
1.0000
  0
VERTEX
  8
21
 10
4.8563
 20
4.9975
 30
0.0000
  0
SEQEND
  8
0
  0
POLYLINE
  8
21
 66
1
 10
0.0000
 20
0.0000
 30
0.0000
 40
0.0381
 41
0.0381
 70
0
  0
VERTEX
  8
21
 10
4.5388
 20
5.3150
 30
0.0000
 42
1.0000
  0
VERTEX
  8
21
 10
4.5388
 20
5.2769
 30
0.0000
  0
SEQEND
  8
0
  0
POLYLINE
  8
21
 66
1
 10
0.0000
 20
0.0000
 30
0.0000
 40
0.0762
 41
0.0762
 70
0
  0
VERTEX
  8
21
 10
4.5388
 20
5.2959
 30
0.0000
 42
0.3252
  0
VERTEX
  8
21
 10
4.1740
 20
5.0306
 30
0.0000
  0
SEQEND
  8
0
  0
POLYLINE
  8
21
 66
1
 10
0.0000
 20
0.0000
 30
0.0000
 40
0.0381
 41
0.0381
 70
0
  0
VERTEX
  8
21
 10
4.5388
 20
5.2769
 30
0.0000
 42
1.0000
  0
VERTEX
  8
21
 10
4.5388
 20
5.3149
 30
0.0000
  0
SEQEND
  8
0
  0
POLYLINE
  8
21
 66
1
 10
0.0000
 20
0.0000
 30
0.0000
 40
0.0381
 41
0.0381
 70
0
  0
VERTEX
  8
21
 10
4.1559
 20
5.0365
 30
0.0000
 42
1.0000
  0
VERTEX
  8
21
 10
4.1922
 20
5.0247
 30
0.0000
  0
SEQEND
  8
0
  0
POLYLINE
  8
21
 66
1
 10
0.0000
 20
0.0000
 30
0.0000
 40
0.0762
 41
0.0762
 70
0
  0
VERTEX
  8
21
 10
4.7378
 20
4.7653
 30
0.0000
 42
0.2053
  0
VERTEX
  8
21
 10
4.8373
 20
4.9975
 30
0.0000
  0
SEQEND
  8
0
  0
POLYLINE
  8
21
 66
1
 10
0.0000
 20
0.0000
 30
0.0000
 40
0.0381
 41
0.0381
 70
0
  0
VERTEX
  8
21
 10
4.7246
 20
4.7791
 30
0.0000
 42
1.0000
  0
VERTEX
  8
21
 10
4.7509
 20
4.7515
 30
0.0000
  0
SEQEND
  8
0
  0
POLYLINE
  8
21
 66
1
 10
0.0000
 20
0.0000
 30
0.0000
 40
0.0381
 41
0.0381
 70
0
  0
VERTEX
  8
21
 10
4.8563
 20
4.9974
 30
0.0000
 42
1.0000
  0
VERTEX
  8
21
 10
4.8182
 20
4.9975
 30
0.0000
  0
SEQEND
  8
0
  0
POLYLINE
  8
21
 66
1
 10
0.0000
 20
0.0000
 30
0.0000
 40
0.0762
 41
0.0762
 70
0
  0
VERTEX
  8
21
 10
4.7378
 20
4.7653
 30
0.0000
  0
VERTEX
  8
21
 10
4.1741
 20
4.1021
 30
0.0000
  0
SEQEND
  8
0
  0
POLYLINE
  8
21
 66
1
 10
0.0000
 20
0.0000
 30
0.0000
 40
0.0381
 41
0.0381
 70
0
  0
VERTEX
  8
21
 10
4.1595
 20
4.1144
 30
0.0000
 42
1.0000
  0
VERTEX
  8
21
 10
4.1886
 20
4.0898
 30
0.0000
  0
SEQEND
  8
0
  0
POLYLINE
  8
21
 66
1
 10
0.0000
 20
0.0000
 30
0.0000
 40
0.0381
 41
0.0381
 70
0
  0
VERTEX
  8
21
 10
4.7523
 20
4.7530
 30
0.0000
 42
1.0000
  0
VERTEX
  8
21
 10
4.7233
 20
4.7777
 30
0.0000
  0
SEQEND
  8
0
  0
POLYLINE
  8
21
 66
1
 10
0.0000
 20
0.0000
 30
0.0000
 40
0.0762
 41
0.0762
 70
0
  0
VERTEX
  8
21
 10
4.1741
 20
4.1021
 30
0.0000
  0
VERTEX
  8
21
 10
4.8373
 20
4.1021
 30
0.0000
  0
SEQEND
  8
0
  0
POLYLINE
  8
21
 66
1
 10
0.0000
 20
0.0000
 30
0.0000
 40
0.0381
 41
0.0381
 70
0
  0
VERTEX
  8
21
 10
4.8373
 20
4.0831
 30
0.0000
 42
1.0000
  0
VERTEX
  8
21
 10
4.8373
 20
4.1212
 30
0.0000
  0
SEQEND
  8
0
  0
POLYLINE
  8
21
 66
1
 10
0.0000
 20
0.0000
 30
0.0000
 40
0.0381
 41
0.0381
 70
0
  0
VERTEX
  8
21
 10
4.1741
 20
4.1212
 30
0.0000
 42
1.0000
  0
VERTEX
  8
21
 10
4.1741
 20
4.0831
 30
0.0000
  0
SEQEND
  8
0
  0
POLYLINE
  8
21
 66
1
 10
0.0000
 20
0.0000
 30
0.0000
 40
0.0762
 41
0.0762
 70
0
  0
VERTEX
  8
21
 10
5.3700
 20
4.7653
 30
0.0000
  0
VERTEX
  8
21
 10
5.7016
 20
4.7653
 30
0.0000
  0
SEQEND
  8
0
  0
POLYLINE
  8
21
 66
1
 10
0.0000
 20
0.0000
 30
0.0000
 40
0.0381
 41
0.0381
 70
0
  0
VERTEX
  8
21
 10
5.7016
 20
4.7463
 30
0.0000
 42
1.0000
  0
VERTEX
  8
21
 10
5.7016
 20
4.7844
 30
0.0000
  0
SEQEND
  8
0
  0
POLYLINE
  8
21
 66
1
 10
0.0000
 20
0.0000
 30
0.0000
 40
0.0381
 41
0.0381
 70
0
  0
VERTEX
  8
21
 10
5.3700
 20
4.7844
 30
0.0000
 42
1.0000
  0
VERTEX
  8
21
 10
5.3700
 20
4.7463
 30
0.0000
  0
SEQEND
  8
0
  0
POLYLINE
  8
21
 66
1
 10
0.0000
 20
0.0000
 30
0.0000
 40
0.0762
 41
0.0762
 70
0
  0
VERTEX
  8
21
 10
5.7016
 20
4.1021
 30
0.0000
 42
1.0000
  0
VERTEX
  8
21
 10
5.7016
 20
4.7653
 30
0.0000
  0
SEQEND
  8
0
  0
POLYLINE
  8
21
 66
1
 10
0.0000
 20
0.0000
 30
0.0000
 40
0.0381
 41
0.0381
 70
0
  0
VERTEX
  8
21
 10
5.7016
 20
4.1211
 30
0.0000
 42
1.0000
  0
VERTEX
  8
21
 10
5.7016
 20
4.0830
 30
0.0000
  0
SEQEND
  8
0
  0
POLYLINE
  8
21
 66
1
 10
0.0000
 20
0.0000
 30
0.0000
 40
0.0381
 41
0.0381
 70
0
  0
VERTEX
  8
21
 10
5.7016
 20
4.7844
 30
0.0000
 42
1.0000
  0
VERTEX
  8
21
 10
5.7016
 20
4.7463
 30
0.0000
  0
SEQEND
  8
0
  0
POLYLINE
  8
21
 66
1
 10
0.0000
 20
0.0000
 30
0.0000
 40
0.0762
 41
0.0762
 70
0
  0
VERTEX
  8
21
 10
5.7016
 20
4.1021
 30
0.0000
  0
VERTEX
  8
21
 10
5.3700
 20
4.1021
 30
0.0000
  0
SEQEND
  8
0
  0
POLYLINE
  8
21
 66
1
 10
0.0000
 20
0.0000
 30
0.0000
 40
0.0381
 41
0.0381
 70
0
  0
VERTEX
  8
21
 10
5.3700
 20
4.1212
 30
0.0000
 42
1.0000
  0
VERTEX
  8
21
 10
5.3700
 20
4.0831
 30
0.0000
  0
SEQEND
  8
0
  0
POLYLINE
  8
21
 66
1
 10
0.0000
 20
0.0000
 30
0.0000
 40
0.0381
 41
0.0381
 70
0
  0
VERTEX
  8
21
 10
5.7016
 20
4.0831
 30
0.0000
 42
1.0000
  0
VERTEX
  8
21
 10
5.7016
 20
4.1212
 30
0.0000
  0
SEQEND
  8
0
  0
POLYLINE
  8
21
 66
1
 10
0.0000
 20
0.0000
 30
0.0000
 40
0.0762
 41
0.0762
 70
0
  0
VERTEX
  8
21
 10
5.3700
 20
4.1021
 30
0.0000
  0
VERTEX
  8
21
 10
5.3700
 20
5.2959
 30
0.0000
  0
SEQEND
  8
0
  0
POLYLINE
  8
21
 66
1
 10
0.0000
 20
0.0000
 30
0.0000
 40
0.0381
 41
0.0381
 70
0
  0
VERTEX
  8
21
 10
5.3890
 20
5.2959
 30
0.0000
 42
1.0000
  0
VERTEX
  8
21
 10
5.3509
 20
5.2959
 30
0.0000
  0
SEQEND
  8
0
  0
POLYLINE
  8
21
 66
1
 10
0.0000
 20
0.0000
 30
0.0000
 40
0.0381
 41
0.0381
 70
0
  0
VERTEX
  8
21
 10
5.3509
 20
4.1021
 30
0.0000
 42
1.0000
  0
VERTEX
  8
21
 10
5.3890
 20
4.1021
 30
0.0000
  0
SEQEND
  8
0
  0
POLYLINE
  8
21
 66
1
 10
0.0000
 20
0.0000
 30
0.0000
 40
0.0762
 41
0.0762
 70
0
  0
VERTEX
  8
21
 10
5.3700
 20
5.2959
 30
0.0000
  0
VERTEX
  8
21
 10
5.7016
 20
5.2959
 30
0.0000
  0
SEQEND
  8
0
  0
POLYLINE
  8
21
 66
1
 10
0.0000
 20
0.0000
 30
0.0000
 40
0.0381
 41
0.0381
 70
0
  0
VERTEX
  8
21
 10
5.7016
 20
5.2769
 30
0.0000
 42
1.0000
  0
VERTEX
  8
21
 10
5.7016
 20
5.3150
 30
0.0000
  0
SEQEND
  8
0
  0
POLYLINE
  8
21
 66
1
 10
0.0000
 20
0.0000
 30
0.0000
 40
0.0381
 41
0.0381
 70
0
  0
VERTEX
  8
21
 10
5.3700
 20
5.3150
 30
0.0000
 42
1.0000
  0
VERTEX
  8
21
 10
5.3700
 20
5.2769
 30
0.0000
  0
SEQEND
  8
0
  0
POLYLINE
  8
21
 66
1
 10
0.0000
 20
0.0000
 30
0.0000
 40
0.0762
 41
0.0762
 70
0
  0
VERTEX
  8
21
 10
5.7016
 20
4.7653
 30
0.0000
 42
1.0000
  0
VERTEX
  8
21
 10
5.7016
 20
5.2959
 30
0.0000
  0
SEQEND
  8
0
  0
POLYLINE
  8
21
 66
1
 10
0.0000
 20
0.0000
 30
0.0000
 40
0.0381
 41
0.0381
 70
0
  0
VERTEX
  8
21
 10
5.7016
 20
4.7844
 30
0.0000
 42
1.0000
  0
VERTEX
  8
21
 10
5.7016
 20
4.7463
 30
0.0000
  0
SEQEND
  8
0
  0
POLYLINE
  8
21
 66
1
 10
0.0000
 20
0.0000
 30
0.0000
 40
0.0381
 41
0.0381
 70
0
  0
VERTEX
  8
21
 10
5.7016
 20
5.3150
 30
0.0000
 42
1.0000
  0
VERTEX
  8
21
 10
5.7016
 20
5.2769
 30
0.0000
  0
SEQEND
  8
0
  0
POINT
  8
23
 10
-0.1270
 20
-4.8260
 30
0.0000
  0
POLYLINE
  8
51
 66
1
 10
0.0000
 20
0.0000
 30
0.0000
 40
0.1524
 41
0.1524
 70
0
  0
VERTEX
  8
51
 10
-2.6670
 20
-3.6576
 30
0.0000
  0
VERTEX
  8
51
 10
-2.6670
 20
-2.7178
 30
0.0000
  0
SEQEND
  8
0
  0
POLYLINE
  8
51
 66
1
 10
0.0000
 20
0.0000
 30
0.0000
 40
0.0762
 41
0.0762
 70
0
  0
VERTEX
  8
51
 10
-2.6289
 20
-2.7178
 30
0.0000
 42
1.0000
  0
VERTEX
  8
51
 10
-2.7051
 20
-2.7178
 30
0.0000
  0
SEQEND
  8
0
  0
POLYLINE
  8
51
 66
1
 10
0.0000
 20
0.0000
 30
0.0000
 40
0.0762
 41
0.0762
 70
0
  0
VERTEX
  8
51
 10
-2.7051
 20
-3.6576
 30
0.0000
 42
1.0000
  0
VERTEX
  8
51
 10
-2.6289
 20
-3.6576
 30
0.0000
  0
SEQEND
  8
0
  0
POLYLINE
  8
51
 66
1
 10
0.0000
 20
0.0000
 30
0.0000
 40
0.1524
 41
0.1524
 70
0
  0
VERTEX
  8
51
 10
-2.6670
 20
-2.7178
 30
0.0000
  0
VERTEX
  8
51
 10
-2.8702
 20
-2.7178
 30
0.0000
  0
SEQEND
  8
0
  0
POLYLINE
  8
51
 66
1
 10
0.0000
 20
0.0000
 30
0.0000
 40
0.0762
 41
0.0762
 70
0
  0
VERTEX
  8
51
 10
-2.8702
 20
-2.6797
 30
0.0000
 42
1.0000
  0
VERTEX
  8
51
 10
-2.8702
 20
-2.7559
 30
0.0000
  0
SEQEND
  8
0
  0
POLYLINE
  8
51
 66
1
 10
0.0000
 20
0.0000
 30
0.0000
 40
0.0762
 41
0.0762
 70
0
  0
VERTEX
  8
51
 10
-2.6670
 20
-2.7559
 30
0.0000
 42
1.0000
  0
VERTEX
  8
51
 10
-2.6670
 20
-2.6797
 30
0.0000
  0
SEQEND
  8
0
  0
POLYLINE
  8
51
 66
1
 10
0.0000
 20
0.0000
 30
0.0000
 40
0.1524
 41
0.1524
 70
0
  0
VERTEX
  8
51
 10
-2.8702
 20
-2.7178
 30
0.0000
  0
VERTEX
  8
51
 10
-2.8702
 20
-3.6576
 30
0.0000
  0
SEQEND
  8
0
  0
POLYLINE
  8
51
 66
1
 10
0.0000
 20
0.0000
 30
0.0000
 40
0.0762
 41
0.0762
 70
0
  0
VERTEX
  8
51
 10
-2.9083
 20
-3.6576
 30
0.0000
 42
1.0000
  0
VERTEX
  8
51
 10
-2.8321
 20
-3.6576
 30
0.0000
  0
SEQEND
  8
0
  0
POLYLINE
  8
51
 66
1
 10
0.0000
 20
0.0000
 30
0.0000
 40
0.0762
 41
0.0762
 70
0
  0
VERTEX
  8
51
 10
-2.8321
 20
-2.7178
 30
0.0000
 42
1.0000
  0
VERTEX
  8
51
 10
-2.9083
 20
-2.7178
 30
0.0000
  0
SEQEND
  8
0
  0
POLYLINE
  8
51
 66
1
 10
0.0000
 20
0.0000
 30
0.0000
 40
0.1524
 41
0.1524
 70
0
  0
VERTEX
  8
51
 10
-2.8702
 20
-3.6576
 30
0.0000
  0
VERTEX
  8
51
 10
-2.6670
 20
-3.6576
 30
0.0000
  0
SEQEND
  8
0
  0
POLYLINE
  8
51
 66
1
 10
0.0000
 20
0.0000
 30
0.0000
 40
0.0762
 41
0.0762
 70
0
  0
VERTEX
  8
51
 10
-2.6670
 20
-3.6957
 30
0.0000
 42
1.0000
  0
VERTEX
  8
51
 10
-2.6670
 20
-3.6195
 30
0.0000
  0
SEQEND
  8
0
  0
POLYLINE
  8
51
 66
1
 10
0.0000
 20
0.0000
 30
0.0000
 40
0.0762
 41
0.0762
 70
0
  0
VERTEX
  8
51
 10
-2.8702
 20
-3.6195
 30
0.0000
 42
1.0000
  0
VERTEX
  8
51
 10
-2.8702
 20
-3.6957
 30
0.0000
  0
SEQEND
  8
0
  0
POLYLINE
  8
51
 66
1
 10
0.0000
 20
0.0000
 30
0.0000
 40
0.1524
 41
0.1524
 70
0
  0
VERTEX
  8
51
 10
-2.6670
 20
-6.9342
 30
0.0000
  0
VERTEX
  8
51
 10
-2.6670
 20
-5.9944
 30
0.0000
  0
SEQEND
  8
0
  0
POLYLINE
  8
51
 66
1
 10
0.0000
 20
0.0000
 30
0.0000
 40
0.0762
 41
0.0762
 70
0
  0
VERTEX
  8
51
 10
-2.6289
 20
-5.9944
 30
0.0000
 42
1.0000
  0
VERTEX
  8
51
 10
-2.7051
 20
-5.9944
 30
0.0000
  0
SEQEND
  8
0
  0
POLYLINE
  8
51
 66
1
 10
0.0000
 20
0.0000
 30
0.0000
 40
0.0762
 41
0.0762
 70
0
  0
VERTEX
  8
51
 10
-2.7051
 20
-6.9342
 30
0.0000
 42
1.0000
  0
VERTEX
  8
51
 10
-2.6289
 20
-6.9342
 30
0.0000
  0
SEQEND
  8
0
  0
POLYLINE
  8
51
 66
1
 10
0.0000
 20
0.0000
 30
0.0000
 40
0.1524
 41
0.1524
 70
0
  0
VERTEX
  8
51
 10
-2.6670
 20
-5.9944
 30
0.0000
  0
VERTEX
  8
51
 10
-2.8702
 20
-5.9944
 30
0.0000
  0
SEQEND
  8
0
  0
POLYLINE
  8
51
 66
1
 10
0.0000
 20
0.0000
 30
0.0000
 40
0.0762
 41
0.0762
 70
0
  0
VERTEX
  8
51
 10
-2.8702
 20
-5.9563
 30
0.0000
 42
1.0000
  0
VERTEX
  8
51
 10
-2.8702
 20
-6.0325
 30
0.0000
  0
SEQEND
  8
0
  0
POLYLINE
  8
51
 66
1
 10
0.0000
 20
0.0000
 30
0.0000
 40
0.0762
 41
0.0762
 70
0
  0
VERTEX
  8
51
 10
-2.6670
 20
-6.0325
 30
0.0000
 42
1.0000
  0
VERTEX
  8
51
 10
-2.6670
 20
-5.9563
 30
0.0000
  0
SEQEND
  8
0
  0
POLYLINE
  8
51
 66
1
 10
0.0000
 20
0.0000
 30
0.0000
 40
0.1524
 41
0.1524
 70
0
  0
VERTEX
  8
51
 10
-2.8702
 20
-5.9944
 30
0.0000
  0
VERTEX
  8
51
 10
-2.8702
 20
-6.9342
 30
0.0000
  0
SEQEND
  8
0
  0
POLYLINE
  8
51
 66
1
 10
0.0000
 20
0.0000
 30
0.0000
 40
0.0762
 41
0.0762
 70
0
  0
VERTEX
  8
51
 10
-2.9083
 20
-6.9342
 30
0.0000
 42
1.0000
  0
VERTEX
  8
51
 10
-2.8321
 20
-6.9342
 30
0.0000
  0
SEQEND
  8
0
  0
POLYLINE
  8
51
 66
1
 10
0.0000
 20
0.0000
 30
0.0000
 40
0.0762
 41
0.0762
 70
0
  0
VERTEX
  8
51
 10
-2.8321
 20
-5.9944
 30
0.0000
 42
1.0000
  0
VERTEX
  8
51
 10
-2.9083
 20
-5.9944
 30
0.0000
  0
SEQEND
  8
0
  0
POLYLINE
  8
51
 66
1
 10
0.0000
 20
0.0000
 30
0.0000
 40
0.1524
 41
0.1524
 70
0
  0
VERTEX
  8
51
 10
-2.8702
 20
-6.9342
 30
0.0000
  0
VERTEX
  8
51
 10
-2.6670
 20
-6.9342
 30
0.0000
  0
SEQEND
  8
0
  0
POLYLINE
  8
51
 66
1
 10
0.0000
 20
0.0000
 30
0.0000
 40
0.0762
 41
0.0762
 70
0
  0
VERTEX
  8
51
 10
-2.6670
 20
-6.9723
 30
0.0000
 42
1.0000
  0
VERTEX
  8
51
 10
-2.6670
 20
-6.8961
 30
0.0000
  0
SEQEND
  8
0
  0
POLYLINE
  8
51
 66
1
 10
0.0000
 20
0.0000
 30
0.0000
 40
0.0762
 41
0.0762
 70
0
  0
VERTEX
  8
51
 10
-2.8702
 20
-6.8961
 30
0.0000
 42
1.0000
  0
VERTEX
  8
51
 10
-2.8702
 20
-6.9723
 30
0.0000
  0
SEQEND
  8
0
  0
POLYLINE
  8
51
 66
1
 10
0.0000
 20
0.0000
 30
0.0000
 40
0.1524
 41
0.1524
 70
0
  0
VERTEX
  8
51
 10
2.4130
 20
-5.9944
 30
0.0000
  0
VERTEX
  8
51
 10
2.4130
 20
-6.9342
 30
0.0000
  0
SEQEND
  8
0
  0
POLYLINE
  8
51
 66
1
 10
0.0000
 20
0.0000
 30
0.0000
 40
0.0762
 41
0.0762
 70
0
  0
VERTEX
  8
51
 10
2.3749
 20
-6.9342
 30
0.0000
 42
1.0000
  0
VERTEX
  8
51
 10
2.4511
 20
-6.9342
 30
0.0000
  0
SEQEND
  8
0
  0
POLYLINE
  8
51
 66
1
 10
0.0000
 20
0.0000
 30
0.0000
 40
0.0762
 41
0.0762
 70
0
  0
VERTEX
  8
51
 10
2.4511
 20
-5.9944
 30
0.0000
 42
1.0000
  0
VERTEX
  8
51
 10
2.3749
 20
-5.9944
 30
0.0000
  0
SEQEND
  8
0
  0
POLYLINE
  8
51
 66
1
 10
0.0000
 20
0.0000
 30
0.0000
 40
0.1524
 41
0.1524
 70
0
  0
VERTEX
  8
51
 10
2.4130
 20
-6.9342
 30
0.0000
  0
VERTEX
  8
51
 10
2.6162
 20
-6.9342
 30
0.0000
  0
SEQEND
  8
0
  0
POLYLINE
  8
51
 66
1
 10
0.0000
 20
0.0000
 30
0.0000
 40
0.0762
 41
0.0762
 70
0
  0
VERTEX
  8
51
 10
2.6162
 20
-6.9723
 30
0.0000
 42
1.0000
  0
VERTEX
  8
51
 10
2.6162
 20
-6.8961
 30
0.0000
  0
SEQEND
  8
0
  0
POLYLINE
  8
51
 66
1
 10
0.0000
 20
0.0000
 30
0.0000
 40
0.0762
 41
0.0762
 70
0
  0
VERTEX
  8
51
 10
2.4130
 20
-6.8961
 30
0.0000
 42
1.0000
  0
VERTEX
  8
51
 10
2.4130
 20
-6.9723
 30
0.0000
  0
SEQEND
  8
0
  0
POLYLINE
  8
51
 66
1
 10
0.0000
 20
0.0000
 30
0.0000
 40
0.1524
 41
0.1524
 70
0
  0
VERTEX
  8
51
 10
2.6162
 20
-6.9342
 30
0.0000
  0
VERTEX
  8
51
 10
2.6162
 20
-5.9944
 30
0.0000
  0
SEQEND
  8
0
  0
POLYLINE
  8
51
 66
1
 10
0.0000
 20
0.0000
 30
0.0000
 40
0.0762
 41
0.0762
 70
0
  0
VERTEX
  8
51
 10
2.6543
 20
-5.9944
 30
0.0000
 42
1.0000
  0
VERTEX
  8
51
 10
2.5781
 20
-5.9944
 30
0.0000
  0
SEQEND
  8
0
  0
POLYLINE
  8
51
 66
1
 10
0.0000
 20
0.0000
 30
0.0000
 40
0.0762
 41
0.0762
 70
0
  0
VERTEX
  8
51
 10
2.5781
 20
-6.9342
 30
0.0000
 42
1.0000
  0
VERTEX
  8
51
 10
2.6543
 20
-6.9342
 30
0.0000
  0
SEQEND
  8
0
  0
POLYLINE
  8
51
 66
1
 10
0.0000
 20
0.0000
 30
0.0000
 40
0.1524
 41
0.1524
 70
0
  0
VERTEX
  8
51
 10
2.6162
 20
-5.9944
 30
0.0000
  0
VERTEX
  8
51
 10
2.4130
 20
-5.9944
 30
0.0000
  0
SEQEND
  8
0
  0
POLYLINE
  8
51
 66
1
 10
0.0000
 20
0.0000
 30
0.0000
 40
0.0762
 41
0.0762
 70
0
  0
VERTEX
  8
51
 10
2.4130
 20
-5.9563
 30
0.0000
 42
1.0000
  0
VERTEX
  8
51
 10
2.4130
 20
-6.0325
 30
0.0000
  0
SEQEND
  8
0
  0
POLYLINE
  8
51
 66
1
 10
0.0000
 20
0.0000
 30
0.0000
 40
0.0762
 41
0.0762
 70
0
  0
VERTEX
  8
51
 10
2.6162
 20
-6.0325
 30
0.0000
 42
1.0000
  0
VERTEX
  8
51
 10
2.6162
 20
-5.9563
 30
0.0000
  0
SEQEND
  8
0
  0
POLYLINE
  8
51
 66
1
 10
0.0000
 20
0.0000
 30
0.0000
 40
0.1524
 41
0.1524
 70
0
  0
VERTEX
  8
51
 10
2.3876
 20
-2.7178
 30
0.0000
  0
VERTEX
  8
51
 10
2.4130
 20
-3.6576
 30
0.0000
  0
SEQEND
  8
0
  0
POLYLINE
  8
51
 66
1
 10
0.0000
 20
0.0000
 30
0.0000
 40
0.0762
 41
0.0762
 70
0
  0
VERTEX
  8
51
 10
2.3749
 20
-3.6586
 30
0.0000
 42
1.0000
  0
VERTEX
  8
51
 10
2.4511
 20
-3.6566
 30
0.0000
  0
SEQEND
  8
0
  0
POLYLINE
  8
51
 66
1
 10
0.0000
 20
0.0000
 30
0.0000
 40
0.0762
 41
0.0762
 70
0
  0
VERTEX
  8
51
 10
2.4257
 20
-2.7168
 30
0.0000
 42
1.0000
  0
VERTEX
  8
51
 10
2.3495
 20
-2.7188
 30
0.0000
  0
SEQEND
  8
0
  0
POLYLINE
  8
51
 66
1
 10
0.0000
 20
0.0000
 30
0.0000
 40
0.1524
 41
0.1524
 70
0
  0
VERTEX
  8
51
 10
2.4130
 20
-3.6576
 30
0.0000
  0
VERTEX
  8
51
 10
2.6162
 20
-3.6576
 30
0.0000
  0
SEQEND
  8
0
  0
POLYLINE
  8
51
 66
1
 10
0.0000
 20
0.0000
 30
0.0000
 40
0.0762
 41
0.0762
 70
0
  0
VERTEX
  8
51
 10
2.6162
 20
-3.6957
 30
0.0000
 42
1.0000
  0
VERTEX
  8
51
 10
2.6162
 20
-3.6195
 30
0.0000
  0
SEQEND
  8
0
  0
POLYLINE
  8
51
 66
1
 10
0.0000
 20
0.0000
 30
0.0000
 40
0.0762
 41
0.0762
 70
0
  0
VERTEX
  8
51
 10
2.4130
 20
-3.6195
 30
0.0000
 42
1.0000
  0
VERTEX
  8
51
 10
2.4130
 20
-3.6957
 30
0.0000
  0
SEQEND
  8
0
  0
POLYLINE
  8
51
 66
1
 10
0.0000
 20
0.0000
 30
0.0000
 40
0.1524
 41
0.1524
 70
0
  0
VERTEX
  8
51
 10
2.6162
 20
-3.6576
 30
0.0000
  0
VERTEX
  8
51
 10
2.6162
 20
-2.7178
 30
0.0000
  0
SEQEND
  8
0
  0
POLYLINE
  8
51
 66
1
 10
0.0000
 20
0.0000
 30
0.0000
 40
0.0762
 41
0.0762
 70
0
  0
VERTEX
  8
51
 10
2.6543
 20
-2.7178
 30
0.0000
 42
1.0000
  0
VERTEX
  8
51
 10
2.5781
 20
-2.7178
 30
0.0000
  0
SEQEND
  8
0
  0
POLYLINE
  8
51
 66
1
 10
0.0000
 20
0.0000
 30
0.0000
 40
0.0762
 41
0.0762
 70
0
  0
VERTEX
  8
51
 10
2.5781
 20
-3.6576
 30
0.0000
 42
1.0000
  0
VERTEX
  8
51
 10
2.6543
 20
-3.6576
 30
0.0000
  0
SEQEND
  8
0
  0
POLYLINE
  8
51
 66
1
 10
0.0000
 20
0.0000
 30
0.0000
 40
0.1524
 41
0.1524
 70
0
  0
VERTEX
  8
51
 10
2.6162
 20
-2.7178
 30
0.0000
  0
VERTEX
  8
51
 10
2.3876
 20
-2.7178
 30
0.0000
  0
SEQEND
  8
0
  0
POLYLINE
  8
51
 66
1
 10
0.0000
 20
0.0000
 30
0.0000
 40
0.0762
 41
0.0762
 70
0
  0
VERTEX
  8
51
 10
2.3876
 20
-2.6797
 30
0.0000
 42
1.0000
  0
VERTEX
  8
51
 10
2.3876
 20
-2.7559
 30
0.0000
  0
SEQEND
  8
0
  0
POLYLINE
  8
51
 66
1
 10
0.0000
 20
0.0000
 30
0.0000
 40
0.0762
 41
0.0762
 70
0
  0
VERTEX
  8
51
 10
2.6162
 20
-2.7559
 30
0.0000
 42
1.0000
  0
VERTEX
  8
51
 10
2.6162
 20
-2.6797
 30
0.0000
  0
SEQEND
  8
0
  0
POLYLINE
  8
51
 66
1
 10
0.0000
 20
0.0000
 30
0.0000
 40
0.1524
 41
0.1524
 70
0
  0
VERTEX
  8
51
 10
-2.6670
 20
-7.3660
 30
0.0000
  0
VERTEX
  8
51
 10
2.4130
 20
-7.3660
 30
0.0000
  0
SEQEND
  8
0
  0
POLYLINE
  8
51
 66
1
 10
0.0000
 20
0.0000
 30
0.0000
 40
0.0762
 41
0.0762
 70
0
  0
VERTEX
  8
51
 10
2.4130
 20
-7.4041
 30
0.0000
 42
1.0000
  0
VERTEX
  8
51
 10
2.4130
 20
-7.3279
 30
0.0000
  0
SEQEND
  8
0
  0
POLYLINE
  8
51
 66
1
 10
0.0000
 20
0.0000
 30
0.0000
 40
0.0762
 41
0.0762
 70
0
  0
VERTEX
  8
51
 10
-2.6670
 20
-7.3279
 30
0.0000
 42
1.0000
  0
VERTEX
  8
51
 10
-2.6670
 20
-7.4041
 30
0.0000
  0
SEQEND
  8
0
  0
POLYLINE
  8
51
 66
1
 10
0.0000
 20
0.0000
 30
0.0000
 40
0.1524
 41
0.1524
 70
0
  0
VERTEX
  8
51
 10
2.4130
 20
-7.3660
 30
0.0000
  0
VERTEX
  8
51
 10
2.4130
 20
-2.2860
 30
0.0000
  0
SEQEND
  8
0
  0
POLYLINE
  8
51
 66
1
 10
0.0000
 20
0.0000
 30
0.0000
 40
0.0762
 41
0.0762
 70
0
  0
VERTEX
  8
51
 10
2.4511
 20
-2.2860
 30
0.0000
 42
1.0000
  0
VERTEX
  8
51
 10
2.3749
 20
-2.2860
 30
0.0000
  0
SEQEND
  8
0
  0
POLYLINE
  8
51
 66
1
 10
0.0000
 20
0.0000
 30
0.0000
 40
0.0762
 41
0.0762
 70
0
  0
VERTEX
  8
51
 10
2.3749
 20
-7.3660
 30
0.0000
 42
1.0000
  0
VERTEX
  8
51
 10
2.4511
 20
-7.3660
 30
0.0000
  0
SEQEND
  8
0
  0
POLYLINE
  8
51
 66
1
 10
0.0000
 20
0.0000
 30
0.0000
 40
0.1524
 41
0.1524
 70
0
  0
VERTEX
  8
51
 10
2.4130
 20
-2.2860
 30
0.0000
  0
VERTEX
  8
51
 10
0.1778
 20
-2.2860
 30
0.0000
  0
SEQEND
  8
0
  0
POLYLINE
  8
51
 66
1
 10
0.0000
 20
0.0000
 30
0.0000
 40
0.0762
 41
0.0762
 70
0
  0
VERTEX
  8
51
 10
0.1778
 20
-2.2479
 30
0.0000
 42
1.0000
  0
VERTEX
  8
51
 10
0.1778
 20
-2.3241
 30
0.0000
  0
SEQEND
  8
0
  0
POLYLINE
  8
51
 66
1
 10
0.0000
 20
0.0000
 30
0.0000
 40
0.0762
 41
0.0762
 70
0
  0
VERTEX
  8
51
 10
2.4130
 20
-2.3241
 30
0.0000
 42
1.0000
  0
VERTEX
  8
51
 10
2.4130
 20
-2.2479
 30
0.0000
  0
SEQEND
  8
0
  0
POLYLINE
  8
51
 66
1
 10
0.0000
 20
0.0000
 30
0.0000
 40
0.1524
 41
0.1524
 70
0
  0
VERTEX
  8
51
 10
0.1778
 20
-2.2860
 30
0.0000
  0
VERTEX
  8
51
 10
-2.6670
 20
-2.2860
 30
0.0000
  0
SEQEND
  8
0
  0
POLYLINE
  8
51
 66
1
 10
0.0000
 20
0.0000
 30
0.0000
 40
0.0762
 41
0.0762
 70
0
  0
VERTEX
  8
51
 10
-2.6670
 20
-2.2479
 30
0.0000
 42
1.0000
  0
VERTEX
  8
51
 10
-2.6670
 20
-2.3241
 30
0.0000
  0
SEQEND
  8
0
  0
POLYLINE
  8
51
 66
1
 10
0.0000
 20
0.0000
 30
0.0000
 40
0.0762
 41
0.0762
 70
0
  0
VERTEX
  8
51
 10
0.1778
 20
-2.3241
 30
0.0000
 42
1.0000
  0
VERTEX
  8
51
 10
0.1778
 20
-2.2479
 30
0.0000
  0
SEQEND
  8
0
  0
POLYLINE
  8
51
 66
1
 10
0.0000
 20
0.0000
 30
0.0000
 40
0.1524
 41
0.1524
 70
0
  0
VERTEX
  8
51
 10
-2.6670
 20
-2.2860
 30
0.0000
  0
VERTEX
  8
51
 10
-2.6670
 20
-7.3660
 30
0.0000
  0
SEQEND
  8
0
  0
POLYLINE
  8
51
 66
1
 10
0.0000
 20
0.0000
 30
0.0000
 40
0.0762
 41
0.0762
 70
0
  0
VERTEX
  8
51
 10
-2.7051
 20
-7.3660
 30
0.0000
 42
1.0000
  0
VERTEX
  8
51
 10
-2.6289
 20
-7.3660
 30
0.0000
  0
SEQEND
  8
0
  0
POLYLINE
  8
51
 66
1
 10
0.0000
 20
0.0000
 30
0.0000
 40
0.0762
 41
0.0762
 70
0
  0
VERTEX
  8
51
 10
-2.6289
 20
-2.2860
 30
0.0000
 42
1.0000
  0
VERTEX
  8
51
 10
-2.7051
 20
-2.2860
 30
0.0000
  0
SEQEND
  8
0
  0
POLYLINE
  8
51
 66
1
 10
0.0000
 20
0.0000
 30
0.0000
 40
0.1524
 41
0.1524
 70
0
  0
VERTEX
  8
51
 10
-0.4318
 20
-2.3114
 30
0.0000
 42
1.0000
  0
VERTEX
  8
51
 10
0.1778
 20
-2.2860
 30
0.0000
  0
SEQEND
  8
0
  0
POLYLINE
  8
51
 66
1
 10
0.0000
 20
0.0000
 30
0.0000
 40
0.0762
 41
0.0762
 70
0
  0
VERTEX
  8
51
 10
-0.3937
 20
-2.3098
 30
0.0000
 42
1.0000
  0
VERTEX
  8
51
 10
-0.4699
 20
-2.3130
 30
0.0000
  0
SEQEND
  8
0
  0
POLYLINE
  8
51
 66
1
 10
0.0000
 20
0.0000
 30
0.0000
 40
0.0762
 41
0.0762
 70
0
  0
VERTEX
  8
51
 10
0.2159
 20
-2.2844
 30
0.0000
 42
1.0000
  0
VERTEX
  8
51
 10
0.1397
 20
-2.2876
 30
0.0000
  0
SEQEND
  8
0
  0
POLYLINE
  8
21
 66
1
 10
0.0000
 20
0.0000
 30
0.0000
 40
0.1524
 41
0.1524
 70
0
  0
VERTEX
  8
21
 10
-2.7686
 20
-7.4676
 30
0.0000
  0
VERTEX
  8
21
 10
2.5146
 20
-7.4676
 30
0.0000
  0
SEQEND
  8
0
  0
POLYLINE
  8
21
 66
1
 10
0.0000
 20
0.0000
 30
0.0000
 40
0.0762
 41
0.0762
 70
0
  0
VERTEX
  8
21
 10
2.5146
 20
-7.5057
 30
0.0000
 42
1.0000
  0
VERTEX
  8
21
 10
2.5146
 20
-7.4295
 30
0.0000
  0
SEQEND
  8
0
  0
POLYLINE
  8
21
 66
1
 10
0.0000
 20
0.0000
 30
0.0000
 40
0.0762
 41
0.0762
 70
0
  0
VERTEX
  8
21
 10
-2.7686
 20
-7.4295
 30
0.0000
 42
1.0000
  0
VERTEX
  8
21
 10
-2.7686
 20
-7.5057
 30
0.0000
  0
SEQEND
  8
0
  0
POLYLINE
  8
21
 66
1
 10
0.0000
 20
0.0000
 30
0.0000
 40
0.1524
 41
0.1524
 70
0
  0
VERTEX
  8
21
 10
2.5146
 20
-5.6388
 30
0.0000
  0
VERTEX
  8
21
 10
2.5146
 20
-4.0132
 30
0.0000
  0
SEQEND
  8
0
  0
POLYLINE
  8
21
 66
1
 10
0.0000
 20
0.0000
 30
0.0000
 40
0.0762
 41
0.0762
 70
0
  0
VERTEX
  8
21
 10
2.5527
 20
-4.0132
 30
0.0000
 42
1.0000
  0
VERTEX
  8
21
 10
2.4765
 20
-4.0132
 30
0.0000
  0
SEQEND
  8
0
  0
POLYLINE
  8
21
 66
1
 10
0.0000
 20
0.0000
 30
0.0000
 40
0.0762
 41
0.0762
 70
0
  0
VERTEX
  8
21
 10
2.4765
 20
-5.6388
 30
0.0000
 42
1.0000
  0
VERTEX
  8
21
 10
2.5527
 20
-5.6388
 30
0.0000
  0
SEQEND
  8
0
  0
POLYLINE
  8
21
 66
1
 10
0.0000
 20
0.0000
 30
0.0000
 40
0.1524
 41
0.1524
 70
0
  0
VERTEX
  8
21
 10
2.5146
 20
-2.1844
 30
0.0000
  0
VERTEX
  8
21
 10
-2.7686
 20
-2.1844
 30
0.0000
  0
SEQEND
  8
0
  0
POLYLINE
  8
21
 66
1
 10
0.0000
 20
0.0000
 30
0.0000
 40
0.0762
 41
0.0762
 70
0
  0
VERTEX
  8
21
 10
-2.7686
 20
-2.1463
 30
0.0000
 42
1.0000
  0
VERTEX
  8
21
 10
-2.7686
 20
-2.2225
 30
0.0000
  0
SEQEND
  8
0
  0
POLYLINE
  8
21
 66
1
 10
0.0000
 20
0.0000
 30
0.0000
 40
0.0762
 41
0.0762
 70
0
  0
VERTEX
  8
21
 10
2.5146
 20
-2.2225
 30
0.0000
 42
1.0000
  0
VERTEX
  8
21
 10
2.5146
 20
-2.1463
 30
0.0000
  0
SEQEND
  8
0
  0
POLYLINE
  8
21
 66
1
 10
0.0000
 20
0.0000
 30
0.0000
 40
0.1524
 41
0.1524
 70
0
  0
VERTEX
  8
21
 10
-2.7686
 20
-4.0132
 30
0.0000
  0
VERTEX
  8
21
 10
-2.7686
 20
-5.6388
 30
0.0000
  0
SEQEND
  8
0
  0
POLYLINE
  8
21
 66
1
 10
0.0000
 20
0.0000
 30
0.0000
 40
0.0762
 41
0.0762
 70
0
  0
VERTEX
  8
21
 10
-2.8067
 20
-5.6388
 30
0.0000
 42
1.0000
  0
VERTEX
  8
21
 10
-2.7305
 20
-5.6388
 30
0.0000
  0
SEQEND
  8
0
  0
POLYLINE
  8
21
 66
1
 10
0.0000
 20
0.0000
 30
0.0000
 40
0.0762
 41
0.0762
 70
0
  0
VERTEX
  8
21
 10
-2.7305
 20
-4.0132
 30
0.0000
 42
1.0000
  0
VERTEX
  8
21
 10
-2.8067
 20
-4.0132
 30
0.0000
  0
SEQEND
  8
0
  0
POLYLINE
  8
51
 66
1
 10
0.0000
 20
0.0000
 30
0.0000
 40
0.0762
 41
0.0762
 70
0
  0
VERTEX
  8
51
 10
-2.2387
 20
-2.5541
 30
0.0000
  0
VERTEX
  8
51
 10
-2.2387
 20
-2.9520
 30
0.0000
  0
SEQEND
  8
0
  0
POLYLINE
  8
51
 66
1
 10
0.0000
 20
0.0000
 30
0.0000
 40
0.0381
 41
0.0381
 70
0
  0
VERTEX
  8
51
 10
-2.2578
 20
-2.9520
 30
0.0000
 42
1.0000
  0
VERTEX
  8
51
 10
-2.2197
 20
-2.9520
 30
0.0000
  0
SEQEND
  8
0
  0
POLYLINE
  8
51
 66
1
 10
0.0000
 20
0.0000
 30
0.0000
 40
0.0381
 41
0.0381
 70
0
  0
VERTEX
  8
51
 10
-2.2197
 20
-2.5541
 30
0.0000
 42
1.0000
  0
VERTEX
  8
51
 10
-2.2578
 20
-2.5541
 30
0.0000
  0
SEQEND
  8
0
  0
POLYLINE
  8
51
 66
1
 10
0.0000
 20
0.0000
 30
0.0000
 40
0.0762
 41
0.0762
 70
0
  0
VERTEX
  8
51
 10
-2.2387
 20
-2.9520
 30
0.0000
  0
VERTEX
  8
51
 10
-2.0066
 20
-3.2505
 30
0.0000
  0
SEQEND
  8
0
  0
POLYLINE
  8
51
 66
1
 10
0.0000
 20
0.0000
 30
0.0000
 40
0.0381
 41
0.0381
 70
0
  0
VERTEX
  8
51
 10
-2.0216
 20
-3.2622
 30
0.0000
 42
1.0000
  0
VERTEX
  8
51
 10
-1.9916
 20
-3.2388
 30
0.0000
  0
SEQEND
  8
0
  0
POLYLINE
  8
51
 66
1
 10
0.0000
 20
0.0000
 30
0.0000
 40
0.0381
 41
0.0381
 70
0
  0
VERTEX
  8
51
 10
-2.2237
 20
-2.9404
 30
0.0000
 42
1.0000
  0
VERTEX
  8
51
 10
-2.2538
 20
-2.9637
 30
0.0000
  0
SEQEND
  8
0
  0
POLYLINE
  8
51
 66
1
 10
0.0000
 20
0.0000
 30
0.0000
 40
0.0762
 41
0.0762
 70
0
  0
VERTEX
  8
51
 10
-2.4709
 20
-3.2505
 30
0.0000
  0
VERTEX
  8
51
 10
-2.2387
 20
-2.9520
 30
0.0000
  0
SEQEND
  8
0
  0
POLYLINE
  8
51
 66
1
 10
0.0000
 20
0.0000
 30
0.0000
 40
0.0381
 41
0.0381
 70
0
  0
VERTEX
  8
51
 10
-2.2237
 20
-2.9637
 30
0.0000
 42
1.0000
  0
VERTEX
  8
51
 10
-2.2538
 20
-2.9404
 30
0.0000
  0
SEQEND
  8
0
  0
POLYLINE
  8
51
 66
1
 10
0.0000
 20
0.0000
 30
0.0000
 40
0.0381
 41
0.0381
 70
0
  0
VERTEX
  8
51
 10
-2.4859
 20
-3.2388
 30
0.0000
 42
1.0000
  0
VERTEX
  8
51
 10
-2.4558
 20
-3.2622
 30
0.0000
  0
SEQEND
  8
0
  0
POLYLINE
  8
51
 66
1
 10
0.0000
 20
0.0000
 30
0.0000
 40
0.0762
 41
0.0762
 70
0
  0
VERTEX
  8
51
 10
-2.2387
 20
-2.9520
 30
0.0000
  0
VERTEX
  8
51
 10
-1.8740
 20
-2.8194
 30
0.0000
  0
SEQEND
  8
0
  0
POLYLINE
  8
51
 66
1
 10
0.0000
 20
0.0000
 30
0.0000
 40
0.0381
 41
0.0381
 70
0
  0
VERTEX
  8
51
 10
-1.8674
 20
-2.8373
 30
0.0000
 42
1.0000
  0
VERTEX
  8
51
 10
-1.8805
 20
-2.8015
 30
0.0000
  0
SEQEND
  8
0
  0
POLYLINE
  8
51
 66
1
 10
0.0000
 20
0.0000
 30
0.0000
 40
0.0381
 41
0.0381
 70
0
  0
VERTEX
  8
51
 10
-2.2452
 20
-2.9341
 30
0.0000
 42
1.0000
  0
VERTEX
  8
51
 10
-2.2322
 20
-2.9699
 30
0.0000
  0
SEQEND
  8
0
  0
POLYLINE
  8
51
 66
1
 10
0.0000
 20
0.0000
 30
0.0000
 40
0.0762
 41
0.0762
 70
0
  0
VERTEX
  8
51
 10
-2.2387
 20
-2.9520
 30
0.0000
  0
VERTEX
  8
51
 10
-2.6035
 20
-2.8194
 30
0.0000
  0
SEQEND
  8
0
  0
POLYLINE
  8
51
 66
1
 10
0.0000
 20
0.0000
 30
0.0000
 40
0.0381
 41
0.0381
 70
0
  0
VERTEX
  8
51
 10
-2.5970
 20
-2.8015
 30
0.0000
 42
1.0000
  0
VERTEX
  8
51
 10
-2.6100
 20
-2.8373
 30
0.0000
  0
SEQEND
  8
0
  0
POLYLINE
  8
51
 66
1
 10
0.0000
 20
0.0000
 30
0.0000
 40
0.0381
 41
0.0381
 70
0
  0
VERTEX
  8
51
 10
-2.2452
 20
-2.9699
 30
0.0000
 42
1.0000
  0
VERTEX
  8
51
 10
-2.2322
 20
-2.9341
 30
0.0000
  0
SEQEND
  8
0
  0
POLYLINE
  8
21
 66
1
 10
0.0000
 20
0.0000
 30
0.0000
 40
0.0762
 41
0.0762
 70
0
  0
VERTEX
  8
21
 10
-3.0007
 20
-1.7921
 30
0.0000
  0
VERTEX
  8
21
 10
-3.0007
 20
-2.1900
 30
0.0000
  0
SEQEND
  8
0
  0
POLYLINE
  8
21
 66
1
 10
0.0000
 20
0.0000
 30
0.0000
 40
0.0381
 41
0.0381
 70
0
  0
VERTEX
  8
21
 10
-3.0198
 20
-2.1900
 30
0.0000
 42
1.0000
  0
VERTEX
  8
21
 10
-2.9817
 20
-2.1900
 30
0.0000
  0
SEQEND
  8
0
  0
POLYLINE
  8
21
 66
1
 10
0.0000
 20
0.0000
 30
0.0000
 40
0.0381
 41
0.0381
 70
0
  0
VERTEX
  8
21
 10
-2.9817
 20
-1.7921
 30
0.0000
 42
1.0000
  0
VERTEX
  8
21
 10
-3.0198
 20
-1.7921
 30
0.0000
  0
SEQEND
  8
0
  0
POLYLINE
  8
21
 66
1
 10
0.0000
 20
0.0000
 30
0.0000
 40
0.0762
 41
0.0762
 70
0
  0
VERTEX
  8
21
 10
-3.0007
 20
-2.1900
 30
0.0000
  0
VERTEX
  8
21
 10
-2.7686
 20
-2.4885
 30
0.0000
  0
SEQEND
  8
0
  0
POLYLINE
  8
21
 66
1
 10
0.0000
 20
0.0000
 30
0.0000
 40
0.0381
 41
0.0381
 70
0
  0
VERTEX
  8
21
 10
-2.7836
 20
-2.5002
 30
0.0000
 42
1.0000
  0
VERTEX
  8
21
 10
-2.7536
 20
-2.4768
 30
0.0000
  0
SEQEND
  8
0
  0
POLYLINE
  8
21
 66
1
 10
0.0000
 20
0.0000
 30
0.0000
 40
0.0381
 41
0.0381
 70
0
  0
VERTEX
  8
21
 10
-2.9857
 20
-2.1784
 30
0.0000
 42
1.0000
  0
VERTEX
  8
21
 10
-3.0158
 20
-2.2017
 30
0.0000
  0
SEQEND
  8
0
  0
POLYLINE
  8
21
 66
1
 10
0.0000
 20
0.0000
 30
0.0000
 40
0.0762
 41
0.0762
 70
0
  0
VERTEX
  8
21
 10
-3.2329
 20
-2.4885
 30
0.0000
  0
VERTEX
  8
21
 10
-3.0007
 20
-2.1900
 30
0.0000
  0
SEQEND
  8
0
  0
POLYLINE
  8
21
 66
1
 10
0.0000
 20
0.0000
 30
0.0000
 40
0.0381
 41
0.0381
 70
0
  0
VERTEX
  8
21
 10
-2.9857
 20
-2.2017
 30
0.0000
 42
1.0000
  0
VERTEX
  8
21
 10
-3.0158
 20
-2.1784
 30
0.0000
  0
SEQEND
  8
0
  0
POLYLINE
  8
21
 66
1
 10
0.0000
 20
0.0000
 30
0.0000
 40
0.0381
 41
0.0381
 70
0
  0
VERTEX
  8
21
 10
-3.2479
 20
-2.4768
 30
0.0000
 42
1.0000
  0
VERTEX
  8
21
 10
-3.2178
 20
-2.5002
 30
0.0000
  0
SEQEND
  8
0
  0
POLYLINE
  8
21
 66
1
 10
0.0000
 20
0.0000
 30
0.0000
 40
0.0762
 41
0.0762
 70
0
  0
VERTEX
  8
21
 10
-3.0007
 20
-2.1900
 30
0.0000
  0
VERTEX
  8
21
 10
-2.6360
 20
-2.0574
 30
0.0000
  0
SEQEND
  8
0
  0
POLYLINE
  8
21
 66
1
 10
0.0000
 20
0.0000
 30
0.0000
 40
0.0381
 41
0.0381
 70
0
  0
VERTEX
  8
21
 10
-2.6294
 20
-2.0753
 30
0.0000
 42
1.0000
  0
VERTEX
  8
21
 10
-2.6425
 20
-2.0395
 30
0.0000
  0
SEQEND
  8
0
  0
POLYLINE
  8
21
 66
1
 10
0.0000
 20
0.0000
 30
0.0000
 40
0.0381
 41
0.0381
 70
0
  0
VERTEX
  8
21
 10
-3.0072
 20
-2.1721
 30
0.0000
 42
1.0000
  0
VERTEX
  8
21
 10
-2.9942
 20
-2.2079
 30
0.0000
  0
SEQEND
  8
0
  0
POLYLINE
  8
21
 66
1
 10
0.0000
 20
0.0000
 30
0.0000
 40
0.0762
 41
0.0762
 70
0
  0
VERTEX
  8
21
 10
-3.0007
 20
-2.1900
 30
0.0000
  0
VERTEX
  8
21
 10
-3.3655
 20
-2.0574
 30
0.0000
  0
SEQEND
  8
0
  0
POLYLINE
  8
21
 66
1
 10
0.0000
 20
0.0000
 30
0.0000
 40
0.0381
 41
0.0381
 70
0
  0
VERTEX
  8
21
 10
-3.3590
 20
-2.0395
 30
0.0000
 42
1.0000
  0
VERTEX
  8
21
 10
-3.3720
 20
-2.0753
 30
0.0000
  0
SEQEND
  8
0
  0
POLYLINE
  8
21
 66
1
 10
0.0000
 20
0.0000
 30
0.0000
 40
0.0381
 41
0.0381
 70
0
  0
VERTEX
  8
21
 10
-3.0072
 20
-2.2079
 30
0.0000
 42
1.0000
  0
VERTEX
  8
21
 10
-2.9942
 20
-2.1721
 30
0.0000
  0
SEQEND
  8
0
  0
INSERT
  8
1
  2
RECT
 10
-2.5654
 20
-3.1760
 30
0.0000
 41
1.2954
 42
0.9906
 43
1.0000
 50
0.0000
  0
INSERT
  8
1
  2
RECT
 10
-2.5654
 20
-6.4760
 30
0.0000
 41
1.2954
 42
0.9906
 43
1.0000
 50
0.0000
  0
INSERT
  8
1
  2
RECT
 10
2.3114
 20
-6.4760
 30
0.0000
 41
1.2954
 42
0.9906
 43
1.0000
 50
0.0000
  0
INSERT
  8
1
  2
RECT
 10
2.3114
 20
-3.1760
 30
0.0000
 41
1.2954
 42
0.9906
 43
1.0000
 50
0.0000
  0
POLYLINE
  8
25
 66
1
 10
0.0000
 20
0.0000
 30
0.0000
 40
0.0762
 41
0.0762
 70
0
  0
VERTEX
  8
25
 10
-3.3655
 20
-4.2291
 30
0.0000
  0
VERTEX
  8
25
 10
-3.3655
 20
-5.0913
 30
0.0000
  0
SEQEND
  8
0
  0
POLYLINE
  8
25
 66
1
 10
0.0000
 20
0.0000
 30
0.0000
 40
0.0381
 41
0.0381
 70
0
  0
VERTEX
  8
25
 10
-3.3846
 20
-5.0913
 30
0.0000
 42
1.0000
  0
VERTEX
  8
25
 10
-3.3465
 20
-5.0913
 30
0.0000
  0
SEQEND
  8
0
  0
POLYLINE
  8
25
 66
1
 10
0.0000
 20
0.0000
 30
0.0000
 40
0.0381
 41
0.0381
 70
0
  0
VERTEX
  8
25
 10
-3.3465
 20
-4.2291
 30
0.0000
 42
1.0000
  0
VERTEX
  8
25
 10
-3.3846
 20
-4.2291
 30
0.0000
  0
SEQEND
  8
0
  0
POLYLINE
  8
25
 66
1
 10
0.0000
 20
0.0000
 30
0.0000
 40
0.0762
 41
0.0762
 70
0
  0
VERTEX
  8
25
 10
-3.3655
 20
-5.0913
 30
0.0000
 42
1.0000
  0
VERTEX
  8
25
 10
-2.7023
 20
-5.0913
 30
0.0000
  0
SEQEND
  8
0
  0
POLYLINE
  8
25
 66
1
 10
0.0000
 20
0.0000
 30
0.0000
 40
0.0381
 41
0.0381
 70
0
  0
VERTEX
  8
25
 10
-3.3465
 20
-5.0913
 30
0.0000
 42
1.0000
  0
VERTEX
  8
25
 10
-3.3846
 20
-5.0913
 30
0.0000
  0
SEQEND
  8
0
  0
POLYLINE
  8
25
 66
1
 10
0.0000
 20
0.0000
 30
0.0000
 40
0.0381
 41
0.0381
 70
0
  0
VERTEX
  8
25
 10
-2.6832
 20
-5.0913
 30
0.0000
 42
1.0000
  0
VERTEX
  8
25
 10
-2.7213
 20
-5.0913
 30
0.0000
  0
SEQEND
  8
0
  0
POLYLINE
  8
25
 66
1
 10
0.0000
 20
0.0000
 30
0.0000
 40
0.0762
 41
0.0762
 70
0
  0
VERTEX
  8
25
 10
-2.7023
 20
-5.0913
 30
0.0000
  0
VERTEX
  8
25
 10
-2.7023
 20
-4.2291
 30
0.0000
  0
SEQEND
  8
0
  0
POLYLINE
  8
25
 66
1
 10
0.0000
 20
0.0000
 30
0.0000
 40
0.0381
 41
0.0381
 70
0
  0
VERTEX
  8
25
 10
-2.6832
 20
-4.2291
 30
0.0000
 42
1.0000
  0
VERTEX
  8
25
 10
-2.7213
 20
-4.2291
 30
0.0000
  0
SEQEND
  8
0
  0
POLYLINE
  8
25
 66
1
 10
0.0000
 20
0.0000
 30
0.0000
 40
0.0381
 41
0.0381
 70
0
  0
VERTEX
  8
25
 10
-2.7213
 20
-5.0913
 30
0.0000
 42
1.0000
  0
VERTEX
  8
25
 10
-2.6832
 20
-5.0913
 30
0.0000
  0
SEQEND
  8
0
  0
POLYLINE
  8
25
 66
1
 10
0.0000
 20
0.0000
 30
0.0000
 40
0.0762
 41
0.0762
 70
0
  0
VERTEX
  8
25
 10
-1.5212
 20
-4.5276
 30
0.0000
 42
0.4142
  0
VERTEX
  8
25
 10
-1.8196
 20
-4.2291
 30
0.0000
  0
SEQEND
  8
0
  0
POLYLINE
  8
25
 66
1
 10
0.0000
 20
0.0000
 30
0.0000
 40
0.0381
 41
0.0381
 70
0
  0
VERTEX
  8
25
 10
-1.5402
 20
-4.5276
 30
0.0000
 42
1.0000
  0
VERTEX
  8
25
 10
-1.5021
 20
-4.5276
 30
0.0000
  0
SEQEND
  8
0
  0
POLYLINE
  8
25
 66
1
 10
0.0000
 20
0.0000
 30
0.0000
 40
0.0381
 41
0.0381
 70
0
  0
VERTEX
  8
25
 10
-1.8196
 20
-4.2100
 30
0.0000
 42
1.0000
  0
VERTEX
  8
25
 10
-1.8196
 20
-4.2481
 30
0.0000
  0
SEQEND
  8
0
  0
POLYLINE
  8
25
 66
1
 10
0.0000
 20
0.0000
 30
0.0000
 40
0.0762
 41
0.0762
 70
0
  0
VERTEX
  8
25
 10
-1.8196
 20
-4.2291
 30
0.0000
 42
0.3252
  0
VERTEX
  8
25
 10
-2.1844
 20
-4.4944
 30
0.0000
  0
SEQEND
  8
0
  0
POLYLINE
  8
25
 66
1
 10
0.0000
 20
0.0000
 30
0.0000
 40
0.0381
 41
0.0381
 70
0
  0
VERTEX
  8
25
 10
-1.8196
 20
-4.2481
 30
0.0000
 42
1.0000
  0
VERTEX
  8
25
 10
-1.8196
 20
-4.2101
 30
0.0000
  0
SEQEND
  8
0
  0
POLYLINE
  8
25
 66
1
 10
0.0000
 20
0.0000
 30
0.0000
 40
0.0381
 41
0.0381
 70
0
  0
VERTEX
  8
25
 10
-2.2025
 20
-4.4885
 30
0.0000
 42
1.0000
  0
VERTEX
  8
25
 10
-2.1663
 20
-4.5003
 30
0.0000
  0
SEQEND
  8
0
  0
POLYLINE
  8
25
 66
1
 10
0.0000
 20
0.0000
 30
0.0000
 40
0.0762
 41
0.0762
 70
0
  0
VERTEX
  8
25
 10
-1.6207
 20
-4.7597
 30
0.0000
 42
0.2053
  0
VERTEX
  8
25
 10
-1.5212
 20
-4.5276
 30
0.0000
  0
SEQEND
  8
0
  0
POLYLINE
  8
25
 66
1
 10
0.0000
 20
0.0000
 30
0.0000
 40
0.0381
 41
0.0381
 70
0
  0
VERTEX
  8
25
 10
-1.6338
 20
-4.7459
 30
0.0000
 42
1.0000
  0
VERTEX
  8
25
 10
-1.6075
 20
-4.7735
 30
0.0000
  0
SEQEND
  8
0
  0
POLYLINE
  8
25
 66
1
 10
0.0000
 20
0.0000
 30
0.0000
 40
0.0381
 41
0.0381
 70
0
  0
VERTEX
  8
25
 10
-1.5021
 20
-4.5275
 30
0.0000
 42
1.0000
  0
VERTEX
  8
25
 10
-1.5402
 20
-4.5276
 30
0.0000
  0
SEQEND
  8
0
  0
POLYLINE
  8
25
 66
1
 10
0.0000
 20
0.0000
 30
0.0000
 40
0.0762
 41
0.0762
 70
0
  0
VERTEX
  8
25
 10
-1.6207
 20
-4.7597
 30
0.0000
  0
VERTEX
  8
25
 10
-2.1844
 20
-5.4229
 30
0.0000
  0
SEQEND
  8
0
  0
POLYLINE
  8
25
 66
1
 10
0.0000
 20
0.0000
 30
0.0000
 40
0.0381
 41
0.0381
 70
0
  0
VERTEX
  8
25
 10
-2.1989
 20
-5.4106
 30
0.0000
 42
1.0000
  0
VERTEX
  8
25
 10
-2.1699
 20
-5.4352
 30
0.0000
  0
SEQEND
  8
0
  0
POLYLINE
  8
25
 66
1
 10
0.0000
 20
0.0000
 30
0.0000
 40
0.0381
 41
0.0381
 70
0
  0
VERTEX
  8
25
 10
-1.6062
 20
-4.7720
 30
0.0000
 42
1.0000
  0
VERTEX
  8
25
 10
-1.6352
 20
-4.7473
 30
0.0000
  0
SEQEND
  8
0
  0
POLYLINE
  8
25
 66
1
 10
0.0000
 20
0.0000
 30
0.0000
 40
0.0762
 41
0.0762
 70
0
  0
VERTEX
  8
25
 10
-2.1844
 20
-5.4229
 30
0.0000
  0
VERTEX
  8
25
 10
-1.5212
 20
-5.4229
 30
0.0000
  0
SEQEND
  8
0
  0
POLYLINE
  8
25
 66
1
 10
0.0000
 20
0.0000
 30
0.0000
 40
0.0381
 41
0.0381
 70
0
  0
VERTEX
  8
25
 10
-1.5212
 20
-5.4420
 30
0.0000
 42
1.0000
  0
VERTEX
  8
25
 10
-1.5212
 20
-5.4039
 30
0.0000
  0
SEQEND
  8
0
  0
POLYLINE
  8
25
 66
1
 10
0.0000
 20
0.0000
 30
0.0000
 40
0.0381
 41
0.0381
 70
0
  0
VERTEX
  8
25
 10
-2.1844
 20
-5.4039
 30
0.0000
 42
1.0000
  0
VERTEX
  8
25
 10
-2.1844
 20
-5.4420
 30
0.0000
  0
SEQEND
  8
0
  0
POLYLINE
  8
21
 66
1
 10
0.0000
 20
0.0000
 30
0.0000
 40
0.0762
 41
0.0762
 70
0
  0
VERTEX
  8
21
 10
-1.8161
 20
-4.2291
 30
0.0000
  0
VERTEX
  8
21
 10
-1.5508
 20
-5.4229
 30
0.0000
  0
SEQEND
  8
0
  0
POLYLINE
  8
21
 66
1
 10
0.0000
 20
0.0000
 30
0.0000
 40
0.0381
 41
0.0381
 70
0
  0
VERTEX
  8
21
 10
-1.5694
 20
-5.4270
 30
0.0000
 42
1.0000
  0
VERTEX
  8
21
 10
-1.5322
 20
-5.4188
 30
0.0000
  0
SEQEND
  8
0
  0
POLYLINE
  8
21
 66
1
 10
0.0000
 20
0.0000
 30
0.0000
 40
0.0381
 41
0.0381
 70
0
  0
VERTEX
  8
21
 10
-1.7975
 20
-4.2250
 30
0.0000
 42
1.0000
  0
VERTEX
  8
21
 10
-1.8347
 20
-4.2332
 30
0.0000
  0
SEQEND
  8
0
  0
POLYLINE
  8
21
 66
1
 10
0.0000
 20
0.0000
 30
0.0000
 40
0.0762
 41
0.0762
 70
0
  0
VERTEX
  8
21
 10
-1.5508
 20
-5.4229
 30
0.0000
  0
VERTEX
  8
21
 10
-1.2855
 20
-4.6270
 30
0.0000
  0
SEQEND
  8
0
  0
POLYLINE
  8
21
 66
1
 10
0.0000
 20
0.0000
 30
0.0000
 40
0.0381
 41
0.0381
 70
0
  0
VERTEX
  8
21
 10
-1.2675
 20
-4.6331
 30
0.0000
 42
1.0000
  0
VERTEX
  8
21
 10
-1.3036
 20
-4.6210
 30
0.0000
  0
SEQEND
  8
0
  0
POLYLINE
  8
21
 66
1
 10
0.0000
 20
0.0000
 30
0.0000
 40
0.0381
 41
0.0381
 70
0
  0
VERTEX
  8
21
 10
-1.5689
 20
-5.4169
 30
0.0000
 42
1.0000
  0
VERTEX
  8
21
 10
-1.5327
 20
-5.4289
 30
0.0000
  0
SEQEND
  8
0
  0
POLYLINE
  8
21
 66
1
 10
0.0000
 20
0.0000
 30
0.0000
 40
0.0762
 41
0.0762
 70
0
  0
VERTEX
  8
21
 10
-1.2855
 20
-4.6270
 30
0.0000
  0
VERTEX
  8
21
 10
-1.0202
 20
-5.4229
 30
0.0000
  0
SEQEND
  8
0
  0
POLYLINE
  8
21
 66
1
 10
0.0000
 20
0.0000
 30
0.0000
 40
0.0381
 41
0.0381
 70
0
  0
VERTEX
  8
21
 10
-1.0383
 20
-5.4289
 30
0.0000
 42
1.0000
  0
VERTEX
  8
21
 10
-1.0022
 20
-5.4169
 30
0.0000
  0
SEQEND
  8
0
  0
POLYLINE
  8
21
 66
1
 10
0.0000
 20
0.0000
 30
0.0000
 40
0.0381
 41
0.0381
 70
0
  0
VERTEX
  8
21
 10
-1.2675
 20
-4.6210
 30
0.0000
 42
1.0000
  0
VERTEX
  8
21
 10
-1.3036
 20
-4.6331
 30
0.0000
  0
SEQEND
  8
0
  0
POLYLINE
  8
21
 66
1
 10
0.0000
 20
0.0000
 30
0.0000
 40
0.0762
 41
0.0762
 70
0
  0
VERTEX
  8
21
 10
-1.0202
 20
-5.4229
 30
0.0000
  0
VERTEX
  8
21
 10
-0.7549
 20
-4.2291
 30
0.0000
  0
SEQEND
  8
0
  0
POLYLINE
  8
21
 66
1
 10
0.0000
 20
0.0000
 30
0.0000
 40
0.0381
 41
0.0381
 70
0
  0
VERTEX
  8
21
 10
-0.7364
 20
-4.2332
 30
0.0000
 42
1.0000
  0
VERTEX
  8
21
 10
-0.7735
 20
-4.2250
 30
0.0000
  0
SEQEND
  8
0
  0
POLYLINE
  8
21
 66
1
 10
0.0000
 20
0.0000
 30
0.0000
 40
0.0381
 41
0.0381
 70
0
  0
VERTEX
  8
21
 10
-1.0388
 20
-5.4188
 30
0.0000
 42
1.0000
  0
VERTEX
  8
21
 10
-1.0016
 20
-5.4270
 30
0.0000
  0
SEQEND
  8
0
  0
POLYLINE
  8
21
 66
1
 10
0.0000
 20
0.0000
 30
0.0000
 40
0.0762
 41
0.0762
 70
0
  0
VERTEX
  8
21
 10
0.0381
 20
-5.4229
 30
0.0000
 42
0.4142
  0
VERTEX
  8
21
 10
0.3034
 20
-5.1576
 30
0.0000
  0
SEQEND
  8
0
  0
POLYLINE
  8
21
 66
1
 10
0.0000
 20
0.0000
 30
0.0000
 40
0.0381
 41
0.0381
 70
0
  0
VERTEX
  8
21
 10
0.0381
 20
-5.4039
 30
0.0000
 42
1.0000
  0
VERTEX
  8
21
 10
0.0381
 20
-5.4420
 30
0.0000
  0
SEQEND
  8
0
  0
POLYLINE
  8
21
 66
1
 10
0.0000
 20
0.0000
 30
0.0000
 40
0.0381
 41
0.0381
 70
0
  0
VERTEX
  8
21
 10
0.3224
 20
-5.1576
 30
0.0000
 42
1.0000
  0
VERTEX
  8
21
 10
0.2843
 20
-5.1576
 30
0.0000
  0
SEQEND
  8
0
  0
POLYLINE
  8
21
 66
1
 10
0.0000
 20
0.0000
 30
0.0000
 40
0.0762
 41
0.0762
 70
0
  0
VERTEX
  8
21
 10
-0.3598
 20
-5.2571
 30
0.0000
 42
0.2000
  0
VERTEX
  8
21
 10
0.0381
 20
-5.4229
 30
0.0000
  0
SEQEND
  8
0
  0
POLYLINE
  8
21
 66
1
 10
0.0000
 20
0.0000
 30
0.0000
 40
0.0381
 41
0.0381
 70
0
  0
VERTEX
  8
21
 10
-0.3463
 20
-5.2437
 30
0.0000
 42
1.0000
  0
VERTEX
  8
21
 10
-0.3734
 20
-5.2705
 30
0.0000
  0
SEQEND
  8
0
  0
POLYLINE
  8
21
 66
1
 10
0.0000
 20
0.0000
 30
0.0000
 40
0.0381
 41
0.0381
 70
0
  0
VERTEX
  8
21
 10
0.0381
 20
-5.4419
 30
0.0000
 42
1.0000
  0
VERTEX
  8
21
 10
0.0381
 20
-5.4039
 30
0.0000
  0
SEQEND
  8
0
  0
POLYLINE
  8
21
 66
1
 10
0.0000
 20
0.0000
 30
0.0000
 40
0.0762
 41
0.0762
 70
0
  0
VERTEX
  8
21
 10
-0.0614
 20
-4.2291
 30
0.0000
 42
0.4142
  0
VERTEX
  8
21
 10
-0.3267
 20
-4.4944
 30
0.0000
  0
SEQEND
  8
0
  0
POLYLINE
  8
21
 66
1
 10
0.0000
 20
0.0000
 30
0.0000
 40
0.0381
 41
0.0381
 70
0
  0
VERTEX
  8
21
 10
-0.0614
 20
-4.2481
 30
0.0000
 42
1.0000
  0
VERTEX
  8
21
 10
-0.0614
 20
-4.2100
 30
0.0000
  0
SEQEND
  8
0
  0
POLYLINE
  8
21
 66
1
 10
0.0000
 20
0.0000
 30
0.0000
 40
0.0381
 41
0.0381
 70
0
  0
VERTEX
  8
21
 10
-0.3457
 20
-4.4944
 30
0.0000
 42
1.0000
  0
VERTEX
  8
21
 10
-0.3076
 20
-4.4944
 30
0.0000
  0
SEQEND
  8
0
  0
POLYLINE
  8
21
 66
1
 10
0.0000
 20
0.0000
 30
0.0000
 40
0.0762
 41
0.0762
 70
0
  0
VERTEX
  8
21
 10
0.2371
 20
-4.3286
 30
0.0000
 42
0.1623
  0
VERTEX
  8
21
 10
-0.0614
 20
-4.2291
 30
0.0000
  0
SEQEND
  8
0
  0
POLYLINE
  8
21
 66
1
 10
0.0000
 20
0.0000
 30
0.0000
 40
0.0381
 41
0.0381
 70
0
  0
VERTEX
  8
21
 10
0.2256
 20
-4.3438
 30
0.0000
 42
1.0000
  0
VERTEX
  8
21
 10
0.2485
 20
-4.3133
 30
0.0000
  0
SEQEND
  8
0
  0
POLYLINE
  8
21
 66
1
 10
0.0000
 20
0.0000
 30
0.0000
 40
0.0381
 41
0.0381
 70
0
  0
VERTEX
  8
21
 10
-0.0614
 20
-4.2101
 30
0.0000
 42
1.0000
  0
VERTEX
  8
21
 10
-0.0614
 20
-4.2481
 30
0.0000
  0
SEQEND
  8
0
  0
POLYLINE
  8
21
 66
1
 10
0.0000
 20
0.0000
 30
0.0000
 40
0.0762
 41
0.0762
 70
0
  0
VERTEX
  8
21
 10
-0.3267
 20
-4.4944
 30
0.0000
 42
0.2656
  0
VERTEX
  8
21
 10
-0.1940
 20
-4.7265
 30
0.0000
  0
SEQEND
  8
0
  0
POLYLINE
  8
21
 66
1
 10
0.0000
 20
0.0000
 30
0.0000
 40
0.0381
 41
0.0381
 70
0
  0
VERTEX
  8
21
 10
-0.3076
 20
-4.4944
 30
0.0000
 42
1.0000
  0
VERTEX
  8
21
 10
-0.3457
 20
-4.4944
 30
0.0000
  0
SEQEND
  8
0
  0
POLYLINE
  8
21
 66
1
 10
0.0000
 20
0.0000
 30
0.0000
 40
0.0381
 41
0.0381
 70
0
  0
VERTEX
  8
21
 10
-0.2037
 20
-4.7429
 30
0.0000
 42
1.0000
  0
VERTEX
  8
21
 10
-0.1844
 20
-4.7101
 30
0.0000
  0
SEQEND
  8
0
  0
POLYLINE
  8
21
 66
1
 10
0.0000
 20
0.0000
 30
0.0000
 40
0.0762
 41
0.0762
 70
0
  0
VERTEX
  8
21
 10
0.3034
 20
-5.1576
 30
0.0000
 42
0.2656
  0
VERTEX
  8
21
 10
0.1707
 20
-4.9255
 30
0.0000
  0
SEQEND
  8
0
  0
POLYLINE
  8
21
 66
1
 10
0.0000
 20
0.0000
 30
0.0000
 40
0.0381
 41
0.0381
 70
0
  0
VERTEX
  8
21
 10
0.2843
 20
-5.1576
 30
0.0000
 42
1.0000
  0
VERTEX
  8
21
 10
0.3224
 20
-5.1576
 30
0.0000
  0
SEQEND
  8
0
  0
POLYLINE
  8
21
 66
1
 10
0.0000
 20
0.0000
 30
0.0000
 40
0.0381
 41
0.0381
 70
0
  0
VERTEX
  8
21
 10
0.1804
 20
-4.9091
 30
0.0000
 42
1.0000
  0
VERTEX
  8
21
 10
0.1611
 20
-4.9419
 30
0.0000
  0
SEQEND
  8
0
  0
POLYLINE
  8
21
 66
1
 10
0.0000
 20
0.0000
 30
0.0000
 40
0.0762
 41
0.0762
 70
0
  0
VERTEX
  8
21
 10
0.1707
 20
-4.9255
 30
0.0000
  0
VERTEX
  8
21
 10
-0.1940
 20
-4.7265
 30
0.0000
  0
SEQEND
  8
0
  0
POLYLINE
  8
21
 66
1
 10
0.0000
 20
0.0000
 30
0.0000
 40
0.0381
 41
0.0381
 70
0
  0
VERTEX
  8
21
 10
-0.1849
 20
-4.7098
 30
0.0000
 42
1.0000
  0
VERTEX
  8
21
 10
-0.2032
 20
-4.7432
 30
0.0000
  0
SEQEND
  8
0
  0
POLYLINE
  8
21
 66
1
 10
0.0000
 20
0.0000
 30
0.0000
 40
0.0381
 41
0.0381
 70
0
  0
VERTEX
  8
21
 10
0.1616
 20
-4.9422
 30
0.0000
 42
1.0000
  0
VERTEX
  8
21
 10
0.1799
 20
-4.9088
 30
0.0000
  0
SEQEND
  8
0
  0
POLYLINE
  8
21
 66
1
 10
0.0000
 20
0.0000
 30
0.0000
 40
0.0762
 41
0.0762
 70
0
  0
VERTEX
  8
21
 10
1.4083
 20
-4.5276
 30
0.0000
 42
0.4142
  0
VERTEX
  8
21
 10
1.1098
 20
-4.2291
 30
0.0000
  0
SEQEND
  8
0
  0
POLYLINE
  8
21
 66
1
 10
0.0000
 20
0.0000
 30
0.0000
 40
0.0381
 41
0.0381
 70
0
  0
VERTEX
  8
21
 10
1.3892
 20
-4.5276
 30
0.0000
 42
1.0000
  0
VERTEX
  8
21
 10
1.4273
 20
-4.5276
 30
0.0000
  0
SEQEND
  8
0
  0
POLYLINE
  8
21
 66
1
 10
0.0000
 20
0.0000
 30
0.0000
 40
0.0381
 41
0.0381
 70
0
  0
VERTEX
  8
21
 10
1.1098
 20
-4.2100
 30
0.0000
 42
1.0000
  0
VERTEX
  8
21
 10
1.1098
 20
-4.2481
 30
0.0000
  0
SEQEND
  8
0
  0
POLYLINE
  8
21
 66
1
 10
0.0000
 20
0.0000
 30
0.0000
 40
0.0762
 41
0.0762
 70
0
  0
VERTEX
  8
21
 10
1.1098
 20
-4.2291
 30
0.0000
 42
0.3252
  0
VERTEX
  8
21
 10
0.7451
 20
-4.4944
 30
0.0000
  0
SEQEND
  8
0
  0
POLYLINE
  8
21
 66
1
 10
0.0000
 20
0.0000
 30
0.0000
 40
0.0381
 41
0.0381
 70
0
  0
VERTEX
  8
21
 10
1.1098
 20
-4.2481
 30
0.0000
 42
1.0000
  0
VERTEX
  8
21
 10
1.1098
 20
-4.2101
 30
0.0000
  0
SEQEND
  8
0
  0
POLYLINE
  8
21
 66
1
 10
0.0000
 20
0.0000
 30
0.0000
 40
0.0381
 41
0.0381
 70
0
  0
VERTEX
  8
21
 10
0.7269
 20
-4.4885
 30
0.0000
 42
1.0000
  0
VERTEX
  8
21
 10
0.7632
 20
-4.5003
 30
0.0000
  0
SEQEND
  8
0
  0
POLYLINE
  8
21
 66
1
 10
0.0000
 20
0.0000
 30
0.0000
 40
0.0762
 41
0.0762
 70
0
  0
VERTEX
  8
21
 10
1.3088
 20
-4.7597
 30
0.0000
 42
0.2053
  0
VERTEX
  8
21
 10
1.4083
 20
-4.5276
 30
0.0000
  0
SEQEND
  8
0
  0
POLYLINE
  8
21
 66
1
 10
0.0000
 20
0.0000
 30
0.0000
 40
0.0381
 41
0.0381
 70
0
  0
VERTEX
  8
21
 10
1.2957
 20
-4.7459
 30
0.0000
 42
1.0000
  0
VERTEX
  8
21
 10
1.3219
 20
-4.7735
 30
0.0000
  0
SEQEND
  8
0
  0
POLYLINE
  8
21
 66
1
 10
0.0000
 20
0.0000
 30
0.0000
 40
0.0381
 41
0.0381
 70
0
  0
VERTEX
  8
21
 10
1.4273
 20
-4.5275
 30
0.0000
 42
1.0000
  0
VERTEX
  8
21
 10
1.3892
 20
-4.5276
 30
0.0000
  0
SEQEND
  8
0
  0
POLYLINE
  8
21
 66
1
 10
0.0000
 20
0.0000
 30
0.0000
 40
0.0762
 41
0.0762
 70
0
  0
VERTEX
  8
21
 10
1.3088
 20
-4.7597
 30
0.0000
  0
VERTEX
  8
21
 10
0.7451
 20
-5.4229
 30
0.0000
  0
SEQEND
  8
0
  0
POLYLINE
  8
21
 66
1
 10
0.0000
 20
0.0000
 30
0.0000
 40
0.0381
 41
0.0381
 70
0
  0
VERTEX
  8
21
 10
0.7305
 20
-5.4106
 30
0.0000
 42
1.0000
  0
VERTEX
  8
21
 10
0.7596
 20
-5.4352
 30
0.0000
  0
SEQEND
  8
0
  0
POLYLINE
  8
21
 66
1
 10
0.0000
 20
0.0000
 30
0.0000
 40
0.0381
 41
0.0381
 70
0
  0
VERTEX
  8
21
 10
1.3233
 20
-4.7720
 30
0.0000
 42
1.0000
  0
VERTEX
  8
21
 10
1.2943
 20
-4.7473
 30
0.0000
  0
SEQEND
  8
0
  0
POLYLINE
  8
21
 66
1
 10
0.0000
 20
0.0000
 30
0.0000
 40
0.0762
 41
0.0762
 70
0
  0
VERTEX
  8
21
 10
0.7451
 20
-5.4229
 30
0.0000
  0
VERTEX
  8
21
 10
1.4083
 20
-5.4229
 30
0.0000
  0
SEQEND
  8
0
  0
POLYLINE
  8
21
 66
1
 10
0.0000
 20
0.0000
 30
0.0000
 40
0.0381
 41
0.0381
 70
0
  0
VERTEX
  8
21
 10
1.4083
 20
-5.4420
 30
0.0000
 42
1.0000
  0
VERTEX
  8
21
 10
1.4083
 20
-5.4039
 30
0.0000
  0
SEQEND
  8
0
  0
POLYLINE
  8
21
 66
1
 10
0.0000
 20
0.0000
 30
0.0000
 40
0.0381
 41
0.0381
 70
0
  0
VERTEX
  8
21
 10
0.7451
 20
-5.4039
 30
0.0000
 42
1.0000
  0
VERTEX
  8
21
 10
0.7451
 20
-5.4420
 30
0.0000
  0
SEQEND
  8
0
  0
POLYLINE
  8
21
 66
1
 10
0.0000
 20
0.0000
 30
0.0000
 40
0.0762
 41
0.0762
 70
0
  0
VERTEX
  8
21
 10
2.5513
 20
-5.0913
 30
0.0000
 42
1.0000
  0
VERTEX
  8
21
 10
1.8881
 20
-5.0913
 30
0.0000
  0
SEQEND
  8
0
  0
POLYLINE
  8
21
 66
1
 10
0.0000
 20
0.0000
 30
0.0000
 40
0.0381
 41
0.0381
 70
0
  0
VERTEX
  8
21
 10
2.5322
 20
-5.0913
 30
0.0000
 42
1.0000
  0
VERTEX
  8
21
 10
2.5703
 20
-5.0913
 30
0.0000
  0
SEQEND
  8
0
  0
POLYLINE
  8
21
 66
1
 10
0.0000
 20
0.0000
 30
0.0000
 40
0.0381
 41
0.0381
 70
0
  0
VERTEX
  8
21
 10
1.8690
 20
-5.0913
 30
0.0000
 42
1.0000
  0
VERTEX
  8
21
 10
1.9071
 20
-5.0913
 30
0.0000
  0
SEQEND
  8
0
  0
POLYLINE
  8
21
 66
1
 10
0.0000
 20
0.0000
 30
0.0000
 40
0.0762
 41
0.0762
 70
0
  0
VERTEX
  8
21
 10
1.8881
 20
-5.0913
 30
0.0000
 42
1.0000
  0
VERTEX
  8
21
 10
2.5513
 20
-5.0913
 30
0.0000
  0
SEQEND
  8
0
  0
POLYLINE
  8
21
 66
1
 10
0.0000
 20
0.0000
 30
0.0000
 40
0.0381
 41
0.0381
 70
0
  0
VERTEX
  8
21
 10
1.9071
 20
-5.0913
 30
0.0000
 42
1.0000
  0
VERTEX
  8
21
 10
1.8690
 20
-5.0913
 30
0.0000
  0
SEQEND
  8
0
  0
POLYLINE
  8
21
 66
1
 10
0.0000
 20
0.0000
 30
0.0000
 40
0.0381
 41
0.0381
 70
0
  0
VERTEX
  8
21
 10
2.5703
 20
-5.0913
 30
0.0000
 42
1.0000
  0
VERTEX
  8
21
 10
2.5322
 20
-5.0913
 30
0.0000
  0
SEQEND
  8
0
  0
POLYLINE
  8
21
 66
1
 10
0.0000
 20
0.0000
 30
0.0000
 40
0.0762
 41
0.0762
 70
0
  0
VERTEX
  8
21
 10
2.4850
 20
-4.4944
 30
0.0000
 42
1.0000
  0
VERTEX
  8
21
 10
1.9544
 20
-4.4944
 30
0.0000
  0
SEQEND
  8
0
  0
POLYLINE
  8
21
 66
1
 10
0.0000
 20
0.0000
 30
0.0000
 40
0.0381
 41
0.0381
 70
0
  0
VERTEX
  8
21
 10
2.4659
 20
-4.4944
 30
0.0000
 42
1.0000
  0
VERTEX
  8
21
 10
2.5040
 20
-4.4944
 30
0.0000
  0
SEQEND
  8
0
  0
POLYLINE
  8
21
 66
1
 10
0.0000
 20
0.0000
 30
0.0000
 40
0.0381
 41
0.0381
 70
0
  0
VERTEX
  8
21
 10
1.9353
 20
-4.4944
 30
0.0000
 42
1.0000
  0
VERTEX
  8
21
 10
1.9734
 20
-4.4944
 30
0.0000
  0
SEQEND
  8
0
  0
POLYLINE
  8
21
 66
1
 10
0.0000
 20
0.0000
 30
0.0000
 40
0.0762
 41
0.0762
 70
0
  0
VERTEX
  8
21
 10
1.9544
 20
-4.4944
 30
0.0000
 42
1.0000
  0
VERTEX
  8
21
 10
2.4850
 20
-4.4944
 30
0.0000
  0
SEQEND
  8
0
  0
POLYLINE
  8
21
 66
1
 10
0.0000
 20
0.0000
 30
0.0000
 40
0.0381
 41
0.0381
 70
0
  0
VERTEX
  8
21
 10
1.9734
 20
-4.4944
 30
0.0000
 42
1.0000
  0
VERTEX
  8
21
 10
1.9353
 20
-4.4944
 30
0.0000
  0
SEQEND
  8
0
  0
POLYLINE
  8
21
 66
1
 10
0.0000
 20
0.0000
 30
0.0000
 40
0.0381
 41
0.0381
 70
0
  0
VERTEX
  8
21
 10
2.5040
 20
-4.4944
 30
0.0000
 42
1.0000
  0
VERTEX
  8
21
 10
2.4659
 20
-4.4944
 30
0.0000
  0
SEQEND
  8
0
  0
POLYLINE
  8
21
 66
1
 10
0.0000
 20
0.0000
 30
0.0000
 40
0.0762
 41
0.0762
 70
0
  0
VERTEX
  8
21
 10
3.0311
 20
-4.4944
 30
0.0000
  0
VERTEX
  8
21
 10
3.3627
 20
-4.2291
 30
0.0000
  0
SEQEND
  8
0
  0
POLYLINE
  8
21
 66
1
 10
0.0000
 20
0.0000
 30
0.0000
 40
0.0381
 41
0.0381
 70
0
  0
VERTEX
  8
21
 10
3.3746
 20
-4.2440
 30
0.0000
 42
1.0000
  0
VERTEX
  8
21
 10
3.3508
 20
-4.2142
 30
0.0000
  0
SEQEND
  8
0
  0
POLYLINE
  8
21
 66
1
 10
0.0000
 20
0.0000
 30
0.0000
 40
0.0381
 41
0.0381
 70
0
  0
VERTEX
  8
21
 10
3.0192
 20
-4.4795
 30
0.0000
 42
1.0000
  0
VERTEX
  8
21
 10
3.0430
 20
-4.5093
 30
0.0000
  0
SEQEND
  8
0
  0
POLYLINE
  8
21
 66
1
 10
0.0000
 20
0.0000
 30
0.0000
 40
0.0762
 41
0.0762
 70
0
  0
VERTEX
  8
21
 10
3.3627
 20
-4.2291
 30
0.0000
  0
VERTEX
  8
21
 10
3.3627
 20
-5.4229
 30
0.0000
  0
SEQEND
  8
0
  0
POLYLINE
  8
21
 66
1
 10
0.0000
 20
0.0000
 30
0.0000
 40
0.0381
 41
0.0381
 70
0
  0
VERTEX
  8
21
 10
3.3436
 20
-5.4229
 30
0.0000
 42
1.0000
  0
VERTEX
  8
21
 10
3.3817
 20
-5.4229
 30
0.0000
  0
SEQEND
  8
0
  0
POLYLINE
  8
21
 66
1
 10
0.0000
 20
0.0000
 30
0.0000
 40
0.0381
 41
0.0381
 70
0
  0
VERTEX
  8
21
 10
3.3817
 20
-4.2291
 30
0.0000
 42
1.0000
  0
VERTEX
  8
21
 10
3.3436
 20
-4.2291
 30
0.0000
  0
SEQEND
  8
0
  0
POLYLINE
  8
21
 66
1
 10
0.0000
 20
0.0000
 30
0.0000
 40
0.0762
 41
0.0762
 70
0
  0
VERTEX
  8
21
 10
3.0311
 20
-5.4229
 30
0.0000
  0
VERTEX
  8
21
 10
3.6943
 20
-5.4229
 30
0.0000
  0
SEQEND
  8
0
  0
POLYLINE
  8
21
 66
1
 10
0.0000
 20
0.0000
 30
0.0000
 40
0.0381
 41
0.0381
 70
0
  0
VERTEX
  8
21
 10
3.6943
 20
-5.4420
 30
0.0000
 42
1.0000
  0
VERTEX
  8
21
 10
3.6943
 20
-5.4039
 30
0.0000
  0
SEQEND
  8
0
  0
POLYLINE
  8
21
 66
1
 10
0.0000
 20
0.0000
 30
0.0000
 40
0.0381
 41
0.0381
 70
0
  0
VERTEX
  8
21
 10
3.0311
 20
-5.4039
 30
0.0000
 42
1.0000
  0
VERTEX
  8
21
 10
3.0311
 20
-5.4420
 30
0.0000
  0
SEQEND
  8
0
  0
POLYLINE
  8
21
 66
1
 10
0.0000
 20
0.0000
 30
0.0000
 40
0.0762
 41
0.0762
 70
0
  0
VERTEX
  8
21
 10
4.8373
 20
-4.5276
 30
0.0000
 42
0.4142
  0
VERTEX
  8
21
 10
4.5388
 20
-4.2291
 30
0.0000
  0
SEQEND
  8
0
  0
POLYLINE
  8
21
 66
1
 10
0.0000
 20
0.0000
 30
0.0000
 40
0.0381
 41
0.0381
 70
0
  0
VERTEX
  8
21
 10
4.8182
 20
-4.5276
 30
0.0000
 42
1.0000
  0
VERTEX
  8
21
 10
4.8563
 20
-4.5276
 30
0.0000
  0
SEQEND
  8
0
  0
POLYLINE
  8
21
 66
1
 10
0.0000
 20
0.0000
 30
0.0000
 40
0.0381
 41
0.0381
 70
0
  0
VERTEX
  8
21
 10
4.5388
 20
-4.2100
 30
0.0000
 42
1.0000
  0
VERTEX
  8
21
 10
4.5388
 20
-4.2481
 30
0.0000
  0
SEQEND
  8
0
  0
POLYLINE
  8
21
 66
1
 10
0.0000
 20
0.0000
 30
0.0000
 40
0.0762
 41
0.0762
 70
0
  0
VERTEX
  8
21
 10
4.5388
 20
-4.2291
 30
0.0000
 42
0.3252
  0
VERTEX
  8
21
 10
4.1741
 20
-4.4944
 30
0.0000
  0
SEQEND
  8
0
  0
POLYLINE
  8
21
 66
1
 10
0.0000
 20
0.0000
 30
0.0000
 40
0.0381
 41
0.0381
 70
0
  0
VERTEX
  8
21
 10
4.5388
 20
-4.2481
 30
0.0000
 42
1.0000
  0
VERTEX
  8
21
 10
4.5388
 20
-4.2101
 30
0.0000
  0
SEQEND
  8
0
  0
POLYLINE
  8
21
 66
1
 10
0.0000
 20
0.0000
 30
0.0000
 40
0.0381
 41
0.0381
 70
0
  0
VERTEX
  8
21
 10
4.1559
 20
-4.4885
 30
0.0000
 42
1.0000
  0
VERTEX
  8
21
 10
4.1922
 20
-4.5003
 30
0.0000
  0
SEQEND
  8
0
  0
POLYLINE
  8
21
 66
1
 10
0.0000
 20
0.0000
 30
0.0000
 40
0.0762
 41
0.0762
 70
0
  0
VERTEX
  8
21
 10
4.7378
 20
-4.7597
 30
0.0000
 42
0.2053
  0
VERTEX
  8
21
 10
4.8373
 20
-4.5276
 30
0.0000
  0
SEQEND
  8
0
  0
POLYLINE
  8
21
 66
1
 10
0.0000
 20
0.0000
 30
0.0000
 40
0.0381
 41
0.0381
 70
0
  0
VERTEX
  8
21
 10
4.7246
 20
-4.7459
 30
0.0000
 42
1.0000
  0
VERTEX
  8
21
 10
4.7509
 20
-4.7735
 30
0.0000
  0
SEQEND
  8
0
  0
POLYLINE
  8
21
 66
1
 10
0.0000
 20
0.0000
 30
0.0000
 40
0.0381
 41
0.0381
 70
0
  0
VERTEX
  8
21
 10
4.8563
 20
-4.5275
 30
0.0000
 42
1.0000
  0
VERTEX
  8
21
 10
4.8182
 20
-4.5276
 30
0.0000
  0
SEQEND
  8
0
  0
POLYLINE
  8
21
 66
1
 10
0.0000
 20
0.0000
 30
0.0000
 40
0.0762
 41
0.0762
 70
0
  0
VERTEX
  8
21
 10
4.7378
 20
-4.7597
 30
0.0000
  0
VERTEX
  8
21
 10
4.1741
 20
-5.4229
 30
0.0000
  0
SEQEND
  8
0
  0
POLYLINE
  8
21
 66
1
 10
0.0000
 20
0.0000
 30
0.0000
 40
0.0381
 41
0.0381
 70
0
  0
VERTEX
  8
21
 10
4.1595
 20
-5.4106
 30
0.0000
 42
1.0000
  0
VERTEX
  8
21
 10
4.1886
 20
-5.4352
 30
0.0000
  0
SEQEND
  8
0
  0
POLYLINE
  8
21
 66
1
 10
0.0000
 20
0.0000
 30
0.0000
 40
0.0381
 41
0.0381
 70
0
  0
VERTEX
  8
21
 10
4.7523
 20
-4.7720
 30
0.0000
 42
1.0000
  0
VERTEX
  8
21
 10
4.7233
 20
-4.7473
 30
0.0000
  0
SEQEND
  8
0
  0
POLYLINE
  8
21
 66
1
 10
0.0000
 20
0.0000
 30
0.0000
 40
0.0762
 41
0.0762
 70
0
  0
VERTEX
  8
21
 10
4.1741
 20
-5.4229
 30
0.0000
  0
VERTEX
  8
21
 10
4.8373
 20
-5.4229
 30
0.0000
  0
SEQEND
  8
0
  0
POLYLINE
  8
21
 66
1
 10
0.0000
 20
0.0000
 30
0.0000
 40
0.0381
 41
0.0381
 70
0
  0
VERTEX
  8
21
 10
4.8373
 20
-5.4420
 30
0.0000
 42
1.0000
  0
VERTEX
  8
21
 10
4.8373
 20
-5.4039
 30
0.0000
  0
SEQEND
  8
0
  0
POLYLINE
  8
21
 66
1
 10
0.0000
 20
0.0000
 30
0.0000
 40
0.0381
 41
0.0381
 70
0
  0
VERTEX
  8
21
 10
4.1741
 20
-5.4039
 30
0.0000
 42
1.0000
  0
VERTEX
  8
21
 10
4.1741
 20
-5.4420
 30
0.0000
  0
SEQEND
  8
0
  0
POLYLINE
  8
21
 66
1
 10
0.0000
 20
0.0000
 30
0.0000
 40
0.0762
 41
0.0762
 70
0
  0
VERTEX
  8
21
 10
5.3700
 20
-4.7597
 30
0.0000
  0
VERTEX
  8
21
 10
5.7016
 20
-4.7597
 30
0.0000
  0
SEQEND
  8
0
  0
POLYLINE
  8
21
 66
1
 10
0.0000
 20
0.0000
 30
0.0000
 40
0.0381
 41
0.0381
 70
0
  0
VERTEX
  8
21
 10
5.7016
 20
-4.7787
 30
0.0000
 42
1.0000
  0
VERTEX
  8
21
 10
5.7016
 20
-4.7406
 30
0.0000
  0
SEQEND
  8
0
  0
POLYLINE
  8
21
 66
1
 10
0.0000
 20
0.0000
 30
0.0000
 40
0.0381
 41
0.0381
 70
0
  0
VERTEX
  8
21
 10
5.3700
 20
-4.7406
 30
0.0000
 42
1.0000
  0
VERTEX
  8
21
 10
5.3700
 20
-4.7787
 30
0.0000
  0
SEQEND
  8
0
  0
POLYLINE
  8
21
 66
1
 10
0.0000
 20
0.0000
 30
0.0000
 40
0.0762
 41
0.0762
 70
0
  0
VERTEX
  8
21
 10
5.7016
 20
-5.4229
 30
0.0000
 42
1.0000
  0
VERTEX
  8
21
 10
5.7016
 20
-4.7597
 30
0.0000
  0
SEQEND
  8
0
  0
POLYLINE
  8
21
 66
1
 10
0.0000
 20
0.0000
 30
0.0000
 40
0.0381
 41
0.0381
 70
0
  0
VERTEX
  8
21
 10
5.7016
 20
-5.4038
 30
0.0000
 42
1.0000
  0
VERTEX
  8
21
 10
5.7016
 20
-5.4419
 30
0.0000
  0
SEQEND
  8
0
  0
POLYLINE
  8
21
 66
1
 10
0.0000
 20
0.0000
 30
0.0000
 40
0.0381
 41
0.0381
 70
0
  0
VERTEX
  8
21
 10
5.7016
 20
-4.7406
 30
0.0000
 42
1.0000
  0
VERTEX
  8
21
 10
5.7016
 20
-4.7787
 30
0.0000
  0
SEQEND
  8
0
  0
POLYLINE
  8
21
 66
1
 10
0.0000
 20
0.0000
 30
0.0000
 40
0.0762
 41
0.0762
 70
0
  0
VERTEX
  8
21
 10
5.7016
 20
-5.4229
 30
0.0000
  0
VERTEX
  8
21
 10
5.3700
 20
-5.4229
 30
0.0000
  0
SEQEND
  8
0
  0
POLYLINE
  8
21
 66
1
 10
0.0000
 20
0.0000
 30
0.0000
 40
0.0381
 41
0.0381
 70
0
  0
VERTEX
  8
21
 10
5.3700
 20
-5.4039
 30
0.0000
 42
1.0000
  0
VERTEX
  8
21
 10
5.3700
 20
-5.4420
 30
0.0000
  0
SEQEND
  8
0
  0
POLYLINE
  8
21
 66
1
 10
0.0000
 20
0.0000
 30
0.0000
 40
0.0381
 41
0.0381
 70
0
  0
VERTEX
  8
21
 10
5.7016
 20
-5.4420
 30
0.0000
 42
1.0000
  0
VERTEX
  8
21
 10
5.7016
 20
-5.4039
 30
0.0000
  0
SEQEND
  8
0
  0
POLYLINE
  8
21
 66
1
 10
0.0000
 20
0.0000
 30
0.0000
 40
0.0762
 41
0.0762
 70
0
  0
VERTEX
  8
21
 10
5.3700
 20
-5.4229
 30
0.0000
  0
VERTEX
  8
21
 10
5.3700
 20
-4.2291
 30
0.0000
  0
SEQEND
  8
0
  0
POLYLINE
  8
21
 66
1
 10
0.0000
 20
0.0000
 30
0.0000
 40
0.0381
 41
0.0381
 70
0
  0
VERTEX
  8
21
 10
5.3890
 20
-4.2291
 30
0.0000
 42
1.0000
  0
VERTEX
  8
21
 10
5.3509
 20
-4.2291
 30
0.0000
  0
SEQEND
  8
0
  0
POLYLINE
  8
21
 66
1
 10
0.0000
 20
0.0000
 30
0.0000
 40
0.0381
 41
0.0381
 70
0
  0
VERTEX
  8
21
 10
5.3509
 20
-5.4229
 30
0.0000
 42
1.0000
  0
VERTEX
  8
21
 10
5.3890
 20
-5.4229
 30
0.0000
  0
SEQEND
  8
0
  0
POLYLINE
  8
21
 66
1
 10
0.0000
 20
0.0000
 30
0.0000
 40
0.0762
 41
0.0762
 70
0
  0
VERTEX
  8
21
 10
5.3700
 20
-4.2291
 30
0.0000
  0
VERTEX
  8
21
 10
5.7016
 20
-4.2291
 30
0.0000
  0
SEQEND
  8
0
  0
POLYLINE
  8
21
 66
1
 10
0.0000
 20
0.0000
 30
0.0000
 40
0.0381
 41
0.0381
 70
0
  0
VERTEX
  8
21
 10
5.7016
 20
-4.2481
 30
0.0000
 42
1.0000
  0
VERTEX
  8
21
 10
5.7016
 20
-4.2100
 30
0.0000
  0
SEQEND
  8
0
  0
POLYLINE
  8
21
 66
1
 10
0.0000
 20
0.0000
 30
0.0000
 40
0.0381
 41
0.0381
 70
0
  0
VERTEX
  8
21
 10
5.3700
 20
-4.2100
 30
0.0000
 42
1.0000
  0
VERTEX
  8
21
 10
5.3700
 20
-4.2481
 30
0.0000
  0
SEQEND
  8
0
  0
POLYLINE
  8
21
 66
1
 10
0.0000
 20
0.0000
 30
0.0000
 40
0.0762
 41
0.0762
 70
0
  0
VERTEX
  8
21
 10
5.7016
 20
-4.7597
 30
0.0000
 42
1.0000
  0
VERTEX
  8
21
 10
5.7016
 20
-4.2291
 30
0.0000
  0
SEQEND
  8
0
  0
POLYLINE
  8
21
 66
1
 10
0.0000
 20
0.0000
 30
0.0000
 40
0.0381
 41
0.0381
 70
0
  0
VERTEX
  8
21
 10
5.7016
 20
-4.7406
 30
0.0000
 42
1.0000
  0
VERTEX
  8
21
 10
5.7016
 20
-4.7787
 30
0.0000
  0
SEQEND
  8
0
  0
POLYLINE
  8
21
 66
1
 10
0.0000
 20
0.0000
 30
0.0000
 40
0.0381
 41
0.0381
 70
0
  0
VERTEX
  8
21
 10
5.7016
 20
-4.2100
 30
0.0000
 42
1.0000
  0
VERTEX
  8
21
 10
5.7016
 20
-4.2481
 30
0.0000
  0
SEQEND
  8
0
  0
POLYLINE
  8
1
 66
1
 10
0.0000
 20
0.0000
 30
0.0000
 40
0.4064
 41
0.4064
 70
0
  0
VERTEX
  8
1
 10
2.5400
 20
0.0000
 30
0.0000
  0
VERTEX
  8
1
 10
4.9530
 20
2.4130
 30
0.0000
  0
SEQEND
  8
0
  0
POLYLINE
  8
1
 66
1
 10
0.0000
 20
0.0000
 30
0.0000
 40
0.2032
 41
0.2032
 70
0
  0
VERTEX
  8
1
 10
5.0248
 20
2.3412
 30
0.0000
 42
1.0000
  0
VERTEX
  8
1
 10
4.8812
 20
2.4848
 30
0.0000
  0
SEQEND
  8
0
  0
POLYLINE
  8
1
 66
1
 10
0.0000
 20
0.0000
 30
0.0000
 40
0.2032
 41
0.2032
 70
0
  0
VERTEX
  8
1
 10
2.4682
 20
0.0718
 30
0.0000
 42
1.0000
  0
VERTEX
  8
1
 10
2.6118
 20
-0.0718
 30
0.0000
  0
SEQEND
  8
0
  0
POLYLINE
  8
1
 66
1
 10
0.0000
 20
0.0000
 30
0.0000
 40
0.4064
 41
0.4064
 70
0
  0
VERTEX
  8
1
 10
4.9530
 20
2.4130
 30
0.0000
  0
VERTEX
  8
1
 10
4.9530
 20
3.0480
 30
0.0000
  0
SEQEND
  8
0
  0
POLYLINE
  8
1
 66
1
 10
0.0000
 20
0.0000
 30
0.0000
 40
0.2032
 41
0.2032
 70
0
  0
VERTEX
  8
1
 10
5.0546
 20
3.0480
 30
0.0000
 42
1.0000
  0
VERTEX
  8
1
 10
4.8514
 20
3.0480
 30
0.0000
  0
SEQEND
  8
0
  0
POLYLINE
  8
1
 66
1
 10
0.0000
 20
0.0000
 30
0.0000
 40
0.2032
 41
0.2032
 70
0
  0
VERTEX
  8
1
 10
4.8514
 20
2.4130
 30
0.0000
 42
1.0000
  0
VERTEX
  8
1
 10
5.0546
 20
2.4130
 30
0.0000
  0
SEQEND
  8
0
  0
POLYLINE
  8
1
 66
1
 10
0.0000
 20
0.0000
 30
0.0000
 40
0.4064
 41
0.4064
 70
0
  0
VERTEX
  8
1
 10
4.9530
 20
6.3500
 30
0.0000
  0
VERTEX
  8
1
 10
2.3124
 20
6.3500
 30
0.0000
  0
SEQEND
  8
0
  0
POLYLINE
  8
1
 66
1
 10
0.0000
 20
0.0000
 30
0.0000
 40
0.2032
 41
0.2032
 70
0
  0
VERTEX
  8
1
 10
2.3124
 20
6.4516
 30
0.0000
 42
1.0000
  0
VERTEX
  8
1
 10
2.3124
 20
6.2484
 30
0.0000
  0
SEQEND
  8
0
  0
POLYLINE
  8
1
 66
1
 10
0.0000
 20
0.0000
 30
0.0000
 40
0.2032
 41
0.2032
 70
0
  0
VERTEX
  8
1
 10
4.9530
 20
6.2484
 30
0.0000
 42
1.0000
  0
VERTEX
  8
1
 10
4.9530
 20
6.4516
 30
0.0000
  0
SEQEND
  8
0
  0
POLYLINE
  8
1
 66
1
 10
0.0000
 20
0.0000
 30
0.0000
 40
0.4064
 41
0.4064
 70
0
  0
VERTEX
  8
1
 10
2.3124
 20
6.3500
 30
0.0000
  0
VERTEX
  8
1
 10
2.3114
 20
6.3490
 30
0.0000
  0
SEQEND
  8
0
  0
POLYLINE
  8
1
 66
1
 10
0.0000
 20
0.0000
 30
0.0000
 40
0.2032
 41
0.2032
 70
0
  0
VERTEX
  8
1
 10
2.2396
 20
6.4208
 30
0.0000
 42
1.0000
  0
VERTEX
  8
1
 10
2.3832
 20
6.2772
 30
0.0000
  0
SEQEND
  8
0
  0
POLYLINE
  8
1
 66
1
 10
0.0000
 20
0.0000
 30
0.0000
 40
0.2032
 41
0.2032
 70
0
  0
VERTEX
  8
1
 10
2.3842
 20
6.2782
 30
0.0000
 42
1.0000
  0
VERTEX
  8
1
 10
2.2406
 20
6.4218
 30
0.0000
  0
SEQEND
  8
0
  0
POLYLINE
  8
1
 66
1
 10
0.0000
 20
0.0000
 30
0.0000
 40
0.4064
 41
0.4064
 70
0
  0
VERTEX
  8
1
 10
4.9530
 20
-5.8420
 30
0.0000
  0
VERTEX
  8
1
 10
4.9520
 20
-5.8410
 30
0.0000
  0
SEQEND
  8
0
  0
POLYLINE
  8
1
 66
1
 10
0.0000
 20
0.0000
 30
0.0000
 40
0.2032
 41
0.2032
 70
0
  0
VERTEX
  8
1
 10
5.0238
 20
-5.7692
 30
0.0000
 42
1.0000
  0
VERTEX
  8
1
 10
4.8802
 20
-5.9128
 30
0.0000
  0
SEQEND
  8
0
  0
POLYLINE
  8
1
 66
1
 10
0.0000
 20
0.0000
 30
0.0000
 40
0.2032
 41
0.2032
 70
0
  0
VERTEX
  8
1
 10
4.8812
 20
-5.9138
 30
0.0000
 42
1.0000
  0
VERTEX
  8
1
 10
5.0248
 20
-5.7702
 30
0.0000
  0
SEQEND
  8
0
  0
POLYLINE
  8
1
 66
1
 10
0.0000
 20
0.0000
 30
0.0000
 40
0.4064
 41
0.4064
 70
0
  0
VERTEX
  8
1
 10
4.9530
 20
-5.8420
 30
0.0000
  0
VERTEX
  8
1
 10
2.3114
 20
-3.2004
 30
0.0000
  0
SEQEND
  8
0
  0
POLYLINE
  8
1
 66
1
 10
0.0000
 20
0.0000
 30
0.0000
 40
0.2032
 41
0.2032
 70
0
  0
VERTEX
  8
1
 10
2.3832
 20
-3.1286
 30
0.0000
 42
1.0000
  0
VERTEX
  8
1
 10
2.2396
 20
-3.2722
 30
0.0000
  0
SEQEND
  8
0
  0
POLYLINE
  8
1
 66
1
 10
0.0000
 20
0.0000
 30
0.0000
 40
0.2032
 41
0.2032
 70
0
  0
VERTEX
  8
1
 10
4.8812
 20
-5.9138
 30
0.0000
 42
1.0000
  0
VERTEX
  8
1
 10
5.0248
 20
-5.7702
 30
0.0000
  0
SEQEND
  8
0
  0
POLYLINE
  8
1
 66
1
 10
0.0000
 20
0.0000
 30
0.0000
 40
0.4064
 41
0.4064
 70
0
  0
VERTEX
  8
1
 10
2.3114
 20
-3.1760
 30
0.0000
  0
VERTEX
  8
1
 10
2.3114
 20
-3.2004
 30
0.0000
  0
SEQEND
  8
0
  0
POLYLINE
  8
1
 66
1
 10
0.0000
 20
0.0000
 30
0.0000
 40
0.2032
 41
0.2032
 70
0
  0
VERTEX
  8
1
 10
2.2098
 20
-3.2004
 30
0.0000
 42
1.0000
  0
VERTEX
  8
1
 10
2.4130
 20
-3.2004
 30
0.0000
  0
SEQEND
  8
0
  0
POLYLINE
  8
1
 66
1
 10
0.0000
 20
0.0000
 30
0.0000
 40
0.2032
 41
0.2032
 70
0
  0
VERTEX
  8
1
 10
2.4130
 20
-3.1760
 30
0.0000
 42
1.0000
  0
VERTEX
  8
1
 10
2.2098
 20
-3.1760
 30
0.0000
  0
SEQEND
  8
0
  0
POLYLINE
  8
1
 66
1
 10
0.0000
 20
0.0000
 30
0.0000
 40
0.4064
 41
0.4064
 70
0
  0
VERTEX
  8
1
 10
-2.5654
 20
3.0490
 30
0.0000
  0
VERTEX
  8
1
 10
-4.4704
 20
4.9540
 30
0.0000
  0
SEQEND
  8
0
  0
POLYLINE
  8
1
 66
1
 10
0.0000
 20
0.0000
 30
0.0000
 40
0.2032
 41
0.2032
 70
0
  0
VERTEX
  8
1
 10
-4.3986
 20
5.0258
 30
0.0000
 42
1.0000
  0
VERTEX
  8
1
 10
-4.5422
 20
4.8822
 30
0.0000
  0
SEQEND
  8
0
  0
POLYLINE
  8
1
 66
1
 10
0.0000
 20
0.0000
 30
0.0000
 40
0.2032
 41
0.2032
 70
0
  0
VERTEX
  8
1
 10
-2.6372
 20
2.9772
 30
0.0000
 42
1.0000
  0
VERTEX
  8
1
 10
-2.4936
 20
3.1208
 30
0.0000
  0
SEQEND
  8
0
  0
POLYLINE
  8
1
 66
1
 10
0.0000
 20
0.0000
 30
0.0000
 40
0.4064
 41
0.4064
 70
0
  0
VERTEX
  8
1
 10
-4.4704
 20
4.9540
 30
0.0000
  0
VERTEX
  8
1
 10
-7.1120
 20
4.9540
 30
0.0000
  0
SEQEND
  8
0
  0
POLYLINE
  8
1
 66
1
 10
0.0000
 20
0.0000
 30
0.0000
 40
0.2032
 41
0.2032
 70
0
  0
VERTEX
  8
1
 10
-7.1120
 20
5.0556
 30
0.0000
 42
1.0000
  0
VERTEX
  8
1
 10
-7.1120
 20
4.8524
 30
0.0000
  0
SEQEND
  8
0
  0
POLYLINE
  8
1
 66
1
 10
0.0000
 20
0.0000
 30
0.0000
 40
0.2032
 41
0.2032
 70
0
  0
VERTEX
  8
1
 10
-4.4704
 20
4.8524
 30
0.0000
 42
1.0000
  0
VERTEX
  8
1
 10
-4.4704
 20
5.0556
 30
0.0000
  0
SEQEND
  8
0
  0
POLYLINE
  8
1
 66
1
 10
0.0000
 20
0.0000
 30
0.0000
 40
0.4064
 41
0.4064
 70
0
  0
VERTEX
  8
1
 10
-7.1120
 20
4.9540
 30
0.0000
  0
VERTEX
  8
1
 10
-7.1120
 20
7.5948
 30
0.0000
  0
SEQEND
  8
0
  0
POLYLINE
  8
1
 66
1
 10
0.0000
 20
0.0000
 30
0.0000
 40
0.2032
 41
0.2032
 70
0
  0
VERTEX
  8
1
 10
-7.0104
 20
7.5948
 30
0.0000
 42
1.0000
  0
VERTEX
  8
1
 10
-7.2136
 20
7.5948
 30
0.0000
  0
SEQEND
  8
0
  0
POLYLINE
  8
1
 66
1
 10
0.0000
 20
0.0000
 30
0.0000
 40
0.2032
 41
0.2032
 70
0
  0
VERTEX
  8
1
 10
-7.2136
 20
4.9540
 30
0.0000
 42
1.0000
  0
VERTEX
  8
1
 10
-7.0104
 20
4.9540
 30
0.0000
  0
SEQEND
  8
0
  0
POLYLINE
  8
1
 66
1
 10
0.0000
 20
0.0000
 30
0.0000
 40
0.4064
 41
0.4064
 70
0
  0
VERTEX
  8
1
 10
-7.1120
 20
7.5948
 30
0.0000
  0
VERTEX
  8
1
 10
6.8580
 20
7.5948
 30
0.0000
  0
SEQEND
  8
0
  0
POLYLINE
  8
1
 66
1
 10
0.0000
 20
0.0000
 30
0.0000
 40
0.2032
 41
0.2032
 70
0
  0
VERTEX
  8
1
 10
6.8580
 20
7.4932
 30
0.0000
 42
1.0000
  0
VERTEX
  8
1
 10
6.8580
 20
7.6964
 30
0.0000
  0
SEQEND
  8
0
  0
POLYLINE
  8
1
 66
1
 10
0.0000
 20
0.0000
 30
0.0000
 40
0.2032
 41
0.2032
 70
0
  0
VERTEX
  8
1
 10
-7.1120
 20
7.6964
 30
0.0000
 42
1.0000
  0
VERTEX
  8
1
 10
-7.1120
 20
7.4932
 30
0.0000
  0
SEQEND
  8
0
  0
POLYLINE
  8
1
 66
1
 10
0.0000
 20
0.0000
 30
0.0000
 40
0.4064
 41
0.4064
 70
0
  0
VERTEX
  8
1
 10
6.8580
 20
7.5948
 30
0.0000
  0
VERTEX
  8
1
 10
6.8580
 20
-1.0160
 30
0.0000
  0
SEQEND
  8
0
  0
POLYLINE
  8
1
 66
1
 10
0.0000
 20
0.0000
 30
0.0000
 40
0.2032
 41
0.2032
 70
0
  0
VERTEX
  8
1
 10
6.7564
 20
-1.0160
 30
0.0000
 42
1.0000
  0
VERTEX
  8
1
 10
6.9596
 20
-1.0160
 30
0.0000
  0
SEQEND
  8
0
  0
POLYLINE
  8
1
 66
1
 10
0.0000
 20
0.0000
 30
0.0000
 40
0.2032
 41
0.2032
 70
0
  0
VERTEX
  8
1
 10
6.9596
 20
7.5948
 30
0.0000
 42
1.0000
  0
VERTEX
  8
1
 10
6.7564
 20
7.5948
 30
0.0000
  0
SEQEND
  8
0
  0
POLYLINE
  8
1
 66
1
 10
0.0000
 20
0.0000
 30
0.0000
 40
0.4064
 41
0.4064
 70
0
  0
VERTEX
  8
1
 10
6.8580
 20
-1.0160
 30
0.0000
  0
VERTEX
  8
1
 10
5.3340
 20
-2.5400
 30
0.0000
  0
SEQEND
  8
0
  0
POLYLINE
  8
1
 66
1
 10
0.0000
 20
0.0000
 30
0.0000
 40
0.2032
 41
0.2032
 70
0
  0
VERTEX
  8
1
 10
5.2622
 20
-2.4682
 30
0.0000
 42
1.0000
  0
VERTEX
  8
1
 10
5.4058
 20
-2.6118
 30
0.0000
  0
SEQEND
  8
0
  0
POLYLINE
  8
1
 66
1
 10
0.0000
 20
0.0000
 30
0.0000
 40
0.2032
 41
0.2032
 70
0
  0
VERTEX
  8
1
 10
6.9298
 20
-1.0878
 30
0.0000
 42
1.0000
  0
VERTEX
  8
1
 10
6.7862
 20
-0.9442
 30
0.0000
  0
SEQEND
  8
0
  0
POLYLINE
  8
1
 66
1
 10
0.0000
 20
0.0000
 30
0.0000
 40
0.4064
 41
0.4064
 70
0
  0
VERTEX
  8
1
 10
5.3340
 20
-2.5400
 30
0.0000
  0
VERTEX
  8
1
 10
4.9530
 20
-2.5400
 30
0.0000
  0
SEQEND
  8
0
  0
POLYLINE
  8
1
 66
1
 10
0.0000
 20
0.0000
 30
0.0000
 40
0.2032
 41
0.2032
 70
0
  0
VERTEX
  8
1
 10
4.9530
 20
-2.4384
 30
0.0000
 42
1.0000
  0
VERTEX
  8
1
 10
4.9530
 20
-2.6416
 30
0.0000
  0
SEQEND
  8
0
  0
POLYLINE
  8
1
 66
1
 10
0.0000
 20
0.0000
 30
0.0000
 40
0.2032
 41
0.2032
 70
0
  0
VERTEX
  8
1
 10
5.3340
 20
-2.6416
 30
0.0000
 42
1.0000
  0
VERTEX
  8
1
 10
5.3340
 20
-2.4384
 30
0.0000
  0
SEQEND
  8
0
  0
POLYLINE
  8
1
 66
1
 10
0.0000
 20
0.0000
 30
0.0000
 40
0.4064
 41
0.4064
 70
0
  0
VERTEX
  8
1
 10
0.0000
 20
0.0000
 30
0.0000
  0
VERTEX
  8
1
 10
0.0000
 20
-4.8260
 30
0.0000
  0
SEQEND
  8
0
  0
POLYLINE
  8
1
 66
1
 10
0.0000
 20
0.0000
 30
0.0000
 40
0.2032
 41
0.2032
 70
0
  0
VERTEX
  8
1
 10
-0.1016
 20
-4.8260
 30
0.0000
 42
1.0000
  0
VERTEX
  8
1
 10
0.1016
 20
-4.8260
 30
0.0000
  0
SEQEND
  8
0
  0
POLYLINE
  8
1
 66
1
 10
0.0000
 20
0.0000
 30
0.0000
 40
0.2032
 41
0.2032
 70
0
  0
VERTEX
  8
1
 10
0.1016
 20
0.0000
 30
0.0000
 42
1.0000
  0
VERTEX
  8
1
 10
-0.1016
 20
0.0000
 30
0.0000
  0
SEQEND
  8
0
  0
POLYLINE
  8
1
 66
1
 10
0.0000
 20
0.0000
 30
0.0000
 40
0.4064
 41
0.4064
 70
0
  0
VERTEX
  8
1
 10
2.3114
 20
-6.4760
 30
0.0000
  0
VERTEX
  8
1
 10
0.6614
 20
-4.8260
 30
0.0000
  0
SEQEND
  8
0
  0
POLYLINE
  8
1
 66
1
 10
0.0000
 20
0.0000
 30
0.0000
 40
0.2032
 41
0.2032
 70
0
  0
VERTEX
  8
1
 10
0.7332
 20
-4.7542
 30
0.0000
 42
1.0000
  0
VERTEX
  8
1
 10
0.5896
 20
-4.8978
 30
0.0000
  0
SEQEND
  8
0
  0
POLYLINE
  8
1
 66
1
 10
0.0000
 20
0.0000
 30
0.0000
 40
0.2032
 41
0.2032
 70
0
  0
VERTEX
  8
1
 10
2.2396
 20
-6.5478
 30
0.0000
 42
1.0000
  0
VERTEX
  8
1
 10
2.3832
 20
-6.4042
 30
0.0000
  0
SEQEND
  8
0
  0
POLYLINE
  8
1
 66
1
 10
0.0000
 20
0.0000
 30
0.0000
 40
0.4064
 41
0.4064
 70
0
  0
VERTEX
  8
1
 10
0.6614
 20
-4.8260
 30
0.0000
  0
VERTEX
  8
1
 10
0.5080
 20
-4.8260
 30
0.0000
  0
SEQEND
  8
0
  0
POLYLINE
  8
1
 66
1
 10
0.0000
 20
0.0000
 30
0.0000
 40
0.2032
 41
0.2032
 70
0
  0
VERTEX
  8
1
 10
0.5080
 20
-4.7244
 30
0.0000
 42
1.0000
  0
VERTEX
  8
1
 10
0.5080
 20
-4.9276
 30
0.0000
  0
SEQEND
  8
0
  0
POLYLINE
  8
1
 66
1
 10
0.0000
 20
0.0000
 30
0.0000
 40
0.2032
 41
0.2032
 70
0
  0
VERTEX
  8
1
 10
0.6614
 20
-4.9276
 30
0.0000
 42
1.0000
  0
VERTEX
  8
1
 10
0.6614
 20
-4.7244
 30
0.0000
  0
SEQEND
  8
0
  0
POLYLINE
  8
1
 66
1
 10
0.0000
 20
0.0000
 30
0.0000
 40
0.4064
 41
0.4064
 70
0
  0
VERTEX
  8
1
 10
0.0000
 20
0.0000
 30
0.0000
  0
VERTEX
  8
1
 10
0.0000
 20
1.6510
 30
0.0000
  0
SEQEND
  8
0
  0
POLYLINE
  8
1
 66
1
 10
0.0000
 20
0.0000
 30
0.0000
 40
0.2032
 41
0.2032
 70
0
  0
VERTEX
  8
1
 10
0.1016
 20
1.6510
 30
0.0000
 42
1.0000
  0
VERTEX
  8
1
 10
-0.1016
 20
1.6510
 30
0.0000
  0
SEQEND
  8
0
  0
POLYLINE
  8
1
 66
1
 10
0.0000
 20
0.0000
 30
0.0000
 40
0.2032
 41
0.2032
 70
0
  0
VERTEX
  8
1
 10
-0.1016
 20
0.0000
 30
0.0000
 42
1.0000
  0
VERTEX
  8
1
 10
0.1016
 20
0.0000
 30
0.0000
  0
SEQEND
  8
0
  0
POLYLINE
  8
1
 66
1
 10
0.0000
 20
0.0000
 30
0.0000
 40
0.4064
 41
0.4064
 70
0
  0
VERTEX
  8
1
 10
1.3980
 20
3.0490
 30
0.0000
  0
VERTEX
  8
1
 10
2.3114
 20
3.0490
 30
0.0000
  0
SEQEND
  8
0
  0
POLYLINE
  8
1
 66
1
 10
0.0000
 20
0.0000
 30
0.0000
 40
0.2032
 41
0.2032
 70
0
  0
VERTEX
  8
1
 10
2.3114
 20
2.9474
 30
0.0000
 42
1.0000
  0
VERTEX
  8
1
 10
2.3114
 20
3.1506
 30
0.0000
  0
SEQEND
  8
0
  0
POLYLINE
  8
1
 66
1
 10
0.0000
 20
0.0000
 30
0.0000
 40
0.2032
 41
0.2032
 70
0
  0
VERTEX
  8
1
 10
1.3980
 20
3.1506
 30
0.0000
 42
1.0000
  0
VERTEX
  8
1
 10
1.3980
 20
2.9474
 30
0.0000
  0
SEQEND
  8
0
  0
POLYLINE
  8
1
 66
1
 10
0.0000
 20
0.0000
 30
0.0000
 40
0.4064
 41
0.4064
 70
0
  0
VERTEX
  8
1
 10
0.0000
 20
1.6510
 30
0.0000
  0
VERTEX
  8
1
 10
1.3980
 20
3.0490
 30
0.0000
  0
SEQEND
  8
0
  0
POLYLINE
  8
1
 66
1
 10
0.0000
 20
0.0000
 30
0.0000
 40
0.2032
 41
0.2032
 70
0
  0
VERTEX
  8
1
 10
1.4698
 20
2.9772
 30
0.0000
 42
1.0000
  0
VERTEX
  8
1
 10
1.3262
 20
3.1208
 30
0.0000
  0
SEQEND
  8
0
  0
POLYLINE
  8
1
 66
1
 10
0.0000
 20
0.0000
 30
0.0000
 40
0.2032
 41
0.2032
 70
0
  0
VERTEX
  8
1
 10
-0.0718
 20
1.7228
 30
0.0000
 42
1.0000
  0
VERTEX
  8
1
 10
0.0718
 20
1.5792
 30
0.0000
  0
SEQEND
  8
0
  0
POLYLINE
  8
1
 66
1
 10
0.0000
 20
0.0000
 30
0.0000
 40
0.4064
 41
0.4064
 70
0
  0
VERTEX
  8
1
 10
-5.2070
 20
3.0480
 30
0.0000
  0
VERTEX
  8
1
 10
-5.2070
 20
2.1590
 30
0.0000
  0
SEQEND
  8
0
  0
POLYLINE
  8
1
 66
1
 10
0.0000
 20
0.0000
 30
0.0000
 40
0.2032
 41
0.2032
 70
0
  0
VERTEX
  8
1
 10
-5.3086
 20
2.1590
 30
0.0000
 42
1.0000
  0
VERTEX
  8
1
 10
-5.1054
 20
2.1590
 30
0.0000
  0
SEQEND
  8
0
  0
POLYLINE
  8
1
 66
1
 10
0.0000
 20
0.0000
 30
0.0000
 40
0.2032
 41
0.2032
 70
0
  0
VERTEX
  8
1
 10
-5.1054
 20
3.0480
 30
0.0000
 42
1.0000
  0
VERTEX
  8
1
 10
-5.3086
 20
3.0480
 30
0.0000
  0
SEQEND
  8
0
  0
POLYLINE
  8
1
 66
1
 10
0.0000
 20
0.0000
 30
0.0000
 40
0.4064
 41
0.4064
 70
0
  0
VERTEX
  8
1
 10
-5.2070
 20
2.1590
 30
0.0000
  0
VERTEX
  8
1
 10
-7.1120
 20
0.2540
 30
0.0000
  0
SEQEND
  8
0
  0
POLYLINE
  8
1
 66
1
 10
0.0000
 20
0.0000
 30
0.0000
 40
0.2032
 41
0.2032
 70
0
  0
VERTEX
  8
1
 10
-7.1838
 20
0.3258
 30
0.0000
 42
1.0000
  0
VERTEX
  8
1
 10
-7.0402
 20
0.1822
 30
0.0000
  0
SEQEND
  8
0
  0
POLYLINE
  8
1
 66
1
 10
0.0000
 20
0.0000
 30
0.0000
 40
0.2032
 41
0.2032
 70
0
  0
VERTEX
  8
1
 10
-5.1352
 20
2.0872
 30
0.0000
 42
1.0000
  0
VERTEX
  8
1
 10
-5.2788
 20
2.2308
 30
0.0000
  0
SEQEND
  8
0
  0
POLYLINE
  8
1
 66
1
 10
0.0000
 20
0.0000
 30
0.0000
 40
0.4064
 41
0.4064
 70
0
  0
VERTEX
  8
1
 10
-7.1120
 20
0.2540
 30
0.0000
  0
VERTEX
  8
1
 10
-7.1120
 20
-5.8420
 30
0.0000
  0
SEQEND
  8
0
  0
POLYLINE
  8
1
 66
1
 10
0.0000
 20
0.0000
 30
0.0000
 40
0.2032
 41
0.2032
 70
0
  0
VERTEX
  8
1
 10
-7.2136
 20
-5.8420
 30
0.0000
 42
1.0000
  0
VERTEX
  8
1
 10
-7.0104
 20
-5.8420
 30
0.0000
  0
SEQEND
  8
0
  0
POLYLINE
  8
1
 66
1
 10
0.0000
 20
0.0000
 30
0.0000
 40
0.2032
 41
0.2032
 70
0
  0
VERTEX
  8
1
 10
-7.0104
 20
0.2540
 30
0.0000
 42
1.0000
  0
VERTEX
  8
1
 10
-7.2136
 20
0.2540
 30
0.0000
  0
SEQEND
  8
0
  0
POLYLINE
  8
1
 66
1
 10
0.0000
 20
0.0000
 30
0.0000
 40
0.4064
 41
0.4064
 70
0
  0
VERTEX
  8
1
 10
-7.1120
 20
-5.8420
 30
0.0000
  0
VERTEX
  8
1
 10
-5.2070
 20
-5.8420
 30
0.0000
  0
SEQEND
  8
0
  0
POLYLINE
  8
1
 66
1
 10
0.0000
 20
0.0000
 30
0.0000
 40
0.2032
 41
0.2032
 70
0
  0
VERTEX
  8
1
 10
-5.2070
 20
-5.9436
 30
0.0000
 42
1.0000
  0
VERTEX
  8
1
 10
-5.2070
 20
-5.7404
 30
0.0000
  0
SEQEND
  8
0
  0
POLYLINE
  8
1
 66
1
 10
0.0000
 20
0.0000
 30
0.0000
 40
0.2032
 41
0.2032
 70
0
  0
VERTEX
  8
1
 10
-7.1120
 20
-5.7404
 30
0.0000
 42
1.0000
  0
VERTEX
  8
1
 10
-7.1120
 20
-5.9436
 30
0.0000
  0
SEQEND
  8
0
  0
POLYLINE
  8
1
 66
1
 10
0.0000
 20
0.0000
 30
0.0000
 40
0.4064
 41
0.4064
 70
0
  0
VERTEX
  8
1
 10
-5.2070
 20
-5.8420
 30
0.0000
  0
VERTEX
  8
1
 10
-5.2070
 20
-4.8260
 30
0.0000
  0
SEQEND
  8
0
  0
POLYLINE
  8
1
 66
1
 10
0.0000
 20
0.0000
 30
0.0000
 40
0.2032
 41
0.2032
 70
0
  0
VERTEX
  8
1
 10
-5.1054
 20
-4.8260
 30
0.0000
 42
1.0000
  0
VERTEX
  8
1
 10
-5.3086
 20
-4.8260
 30
0.0000
  0
SEQEND
  8
0
  0
POLYLINE
  8
1
 66
1
 10
0.0000
 20
0.0000
 30
0.0000
 40
0.2032
 41
0.2032
 70
0
  0
VERTEX
  8
1
 10
-5.3086
 20
-5.8420
 30
0.0000
 42
1.0000
  0
VERTEX
  8
1
 10
-5.1054
 20
-5.8420
 30
0.0000
  0
SEQEND
  8
0
  0
POLYLINE
  8
1
 66
1
 10
0.0000
 20
0.0000
 30
0.0000
 40
0.4064
 41
0.4064
 70
0
  0
VERTEX
  8
1
 10
-5.2070
 20
-4.8260
 30
0.0000
  0
VERTEX
  8
1
 10
0.0000
 20
-4.8260
 30
0.0000
  0
SEQEND
  8
0
  0
POLYLINE
  8
1
 66
1
 10
0.0000
 20
0.0000
 30
0.0000
 40
0.2032
 41
0.2032
 70
0
  0
VERTEX
  8
1
 10
0.0000
 20
-4.9276
 30
0.0000
 42
1.0000
  0
VERTEX
  8
1
 10
0.0000
 20
-4.7244
 30
0.0000
  0
SEQEND
  8
0
  0
POLYLINE
  8
1
 66
1
 10
0.0000
 20
0.0000
 30
0.0000
 40
0.2032
 41
0.2032
 70
0
  0
VERTEX
  8
1
 10
-5.2070
 20
-4.7244
 30
0.0000
 42
1.0000
  0
VERTEX
  8
1
 10
-5.2070
 20
-4.9276
 30
0.0000
  0
SEQEND
  8
0
  0
POLYLINE
  8
1
 66
1
 10
0.0000
 20
0.0000
 30
0.0000
 40
0.4064
 41
0.4064
 70
0
  0
VERTEX
  8
1
 10
-0.0381
 20
3.2639
 30
0.0000
  0
VERTEX
  8
1
 10
-0.0381
 20
4.6101
 30
0.0000
  0
SEQEND
  8
0
  0
POLYLINE
  8
1
 66
1
 10
0.0000
 20
0.0000
 30
0.0000
 40
0.2032
 41
0.2032
 70
0
  0
VERTEX
  8
1
 10
0.0635
 20
4.6101
 30
0.0000
 42
1.0000
  0
VERTEX
  8
1
 10
-0.1397
 20
4.6101
 30
0.0000
  0
SEQEND
  8
0
  0
POLYLINE
  8
1
 66
1
 10
0.0000
 20
0.0000
 30
0.0000
 40
0.2032
 41
0.2032
 70
0
  0
VERTEX
  8
1
 10
-0.1397
 20
3.2639
 30
0.0000
 42
1.0000
  0
VERTEX
  8
1
 10
0.0635
 20
3.2639
 30
0.0000
  0
SEQEND
  8
0
  0
POLYLINE
  8
1
 66
1
 10
0.0000
 20
0.0000
 30
0.0000
 40
0.4064
 41
0.4064
 70
0
  0
VERTEX
  8
1
 10
-0.0381
 20
4.6101
 30
0.0000
  0
VERTEX
  8
1
 10
-1.7770
 20
6.3490
 30
0.0000
  0
SEQEND
  8
0
  0
POLYLINE
  8
1
 66
1
 10
0.0000
 20
0.0000
 30
0.0000
 40
0.2032
 41
0.2032
 70
0
  0
VERTEX
  8
1
 10
-1.7052
 20
6.4208
 30
0.0000
 42
1.0000
  0
VERTEX
  8
1
 10
-1.8488
 20
6.2772
 30
0.0000
  0
SEQEND
  8
0
  0
POLYLINE
  8
1
 66
1
 10
0.0000
 20
0.0000
 30
0.0000
 40
0.2032
 41
0.2032
 70
0
  0
VERTEX
  8
1
 10
-0.1099
 20
4.5383
 30
0.0000
 42
1.0000
  0
VERTEX
  8
1
 10
0.0337
 20
4.6819
 30
0.0000
  0
SEQEND
  8
0
  0
POLYLINE
  8
1
 66
1
 10
0.0000
 20
0.0000
 30
0.0000
 40
0.4064
 41
0.4064
 70
0
  0
VERTEX
  8
1
 10
-1.7770
 20
6.3490
 30
0.0000
  0
VERTEX
  8
1
 10
-2.5654
 20
6.3490
 30
0.0000
  0
SEQEND
  8
0
  0
POLYLINE
  8
1
 66
1
 10
0.0000
 20
0.0000
 30
0.0000
 40
0.2032
 41
0.2032
 70
0
  0
VERTEX
  8
1
 10
-2.5654
 20
6.4506
 30
0.0000
 42
1.0000
  0
VERTEX
  8
1
 10
-2.5654
 20
6.2474
 30
0.0000
  0
SEQEND
  8
0
  0
POLYLINE
  8
1
 66
1
 10
0.0000
 20
0.0000
 30
0.0000
 40
0.2032
 41
0.2032
 70
0
  0
VERTEX
  8
1
 10
-1.7770
 20
6.2474
 30
0.0000
 42
1.0000
  0
VERTEX
  8
1
 10
-1.7770
 20
6.4506
 30
0.0000
  0
SEQEND
  8
0
  0
POLYLINE
  8
1
 66
1
 10
0.0000
 20
0.0000
 30
0.0000
 40
0.4064
 41
0.4064
 70
0
  0
VERTEX
  8
1
 10
-2.5400
 20
0.7620
 30
0.0000
  0
VERTEX
  8
1
 10
-0.0381
 20
3.2639
 30
0.0000
  0
SEQEND
  8
0
  0
POLYLINE
  8
1
 66
1
 10
0.0000
 20
0.0000
 30
0.0000
 40
0.2032
 41
0.2032
 70
0
  0
VERTEX
  8
1
 10
0.0337
 20
3.1921
 30
0.0000
 42
1.0000
  0
VERTEX
  8
1
 10
-0.1099
 20
3.3357
 30
0.0000
  0
SEQEND
  8
0
  0
POLYLINE
  8
1
 66
1
 10
0.0000
 20
0.0000
 30
0.0000
 40
0.2032
 41
0.2032
 70
0
  0
VERTEX
  8
1
 10
-2.6118
 20
0.8338
 30
0.0000
 42
1.0000
  0
VERTEX
  8
1
 10
-2.4682
 20
0.6902
 30
0.0000
  0
SEQEND
  8
0
  0
POLYLINE
  8
1
 66
1
 10
0.0000
 20
0.0000
 30
0.0000
 40
0.4064
 41
0.4064
 70
0
  0
VERTEX
  8
1
 10
-5.2070
 20
-2.5400
 30
0.0000
  0
VERTEX
  8
1
 10
-2.5664
 20
-2.5400
 30
0.0000
  0
SEQEND
  8
0
  0
POLYLINE
  8
1
 66
1
 10
0.0000
 20
0.0000
 30
0.0000
 40
0.2032
 41
0.2032
 70
0
  0
VERTEX
  8
1
 10
-2.5664
 20
-2.6416
 30
0.0000
 42
1.0000
  0
VERTEX
  8
1
 10
-2.5664
 20
-2.4384
 30
0.0000
  0
SEQEND
  8
0
  0
POLYLINE
  8
1
 66
1
 10
0.0000
 20
0.0000
 30
0.0000
 40
0.2032
 41
0.2032
 70
0
  0
VERTEX
  8
1
 10
-5.2070
 20
-2.4384
 30
0.0000
 42
1.0000
  0
VERTEX
  8
1
 10
-5.2070
 20
-2.6416
 30
0.0000
  0
SEQEND
  8
0
  0
POLYLINE
  8
1
 66
1
 10
0.0000
 20
0.0000
 30
0.0000
 40
0.4064
 41
0.4064
 70
0
  0
VERTEX
  8
1
 10
-2.5664
 20
-3.1750
 30
0.0000
  0
VERTEX
  8
1
 10
-2.5654
 20
-3.1760
 30
0.0000
  0
SEQEND
  8
0
  0
POLYLINE
  8
1
 66
1
 10
0.0000
 20
0.0000
 30
0.0000
 40
0.2032
 41
0.2032
 70
0
  0
VERTEX
  8
1
 10
-2.6372
 20
-3.2478
 30
0.0000
 42
1.0000
  0
VERTEX
  8
1
 10
-2.4936
 20
-3.1042
 30
0.0000
  0
SEQEND
  8
0
  0
POLYLINE
  8
1
 66
1
 10
0.0000
 20
0.0000
 30
0.0000
 40
0.2032
 41
0.2032
 70
0
  0
VERTEX
  8
1
 10
-2.4946
 20
-3.1032
 30
0.0000
 42
1.0000
  0
VERTEX
  8
1
 10
-2.6382
 20
-3.2468
 30
0.0000
  0
SEQEND
  8
0
  0
POLYLINE
  8
1
 66
1
 10
0.0000
 20
0.0000
 30
0.0000
 40
0.4064
 41
0.4064
 70
0
  0
VERTEX
  8
1
 10
-2.5664
 20
-0.0264
 30
0.0000
  0
VERTEX
  8
1
 10
-2.5664
 20
-2.5400
 30
0.0000
  0
SEQEND
  8
0
  0
POLYLINE
  8
1
 66
1
 10
0.0000
 20
0.0000
 30
0.0000
 40
0.2032
 41
0.2032
 70
0
  0
VERTEX
  8
1
 10
-2.6680
 20
-2.5400
 30
0.0000
 42
1.0000
  0
VERTEX
  8
1
 10
-2.4648
 20
-2.5400
 30
0.0000
  0
SEQEND
  8
0
  0
POLYLINE
  8
1
 66
1
 10
0.0000
 20
0.0000
 30
0.0000
 40
0.2032
 41
0.2032
 70
0
  0
VERTEX
  8
1
 10
-2.4648
 20
-0.0264
 30
0.0000
 42
1.0000
  0
VERTEX
  8
1
 10
-2.6680
 20
-0.0264
 30
0.0000
  0
SEQEND
  8
0
  0
POLYLINE
  8
1
 66
1
 10
0.0000
 20
0.0000
 30
0.0000
 40
0.4064
 41
0.4064
 70
0
  0
VERTEX
  8
1
 10
-2.5664
 20
-2.5400
 30
0.0000
  0
VERTEX
  8
1
 10
-2.5664
 20
-3.1750
 30
0.0000
  0
SEQEND
  8
0
  0
POLYLINE
  8
1
 66
1
 10
0.0000
 20
0.0000
 30
0.0000
 40
0.2032
 41
0.2032
 70
0
  0
VERTEX
  8
1
 10
-2.6680
 20
-3.1750
 30
0.0000
 42
1.0000
  0
VERTEX
  8
1
 10
-2.4648
 20
-3.1750
 30
0.0000
  0
SEQEND
  8
0
  0
POLYLINE
  8
1
 66
1
 10
0.0000
 20
0.0000
 30
0.0000
 40
0.2032
 41
0.2032
 70
0
  0
VERTEX
  8
1
 10
-2.4648
 20
-2.5400
 30
0.0000
 42
1.0000
  0
VERTEX
  8
1
 10
-2.6680
 20
-2.5400
 30
0.0000
  0
SEQEND
  8
0
  0
POLYLINE
  8
1
 66
1
 10
0.0000
 20
0.0000
 30
0.0000
 40
0.4064
 41
0.4064
 70
0
  0
VERTEX
  8
1
 10
-2.5400
 20
0.0000
 30
0.0000
  0
VERTEX
  8
1
 10
-2.5664
 20
-0.0264
 30
0.0000
  0
SEQEND
  8
0
  0
POLYLINE
  8
1
 66
1
 10
0.0000
 20
0.0000
 30
0.0000
 40
0.2032
 41
0.2032
 70
0
  0
VERTEX
  8
1
 10
-2.6382
 20
0.0454
 30
0.0000
 42
1.0000
  0
VERTEX
  8
1
 10
-2.4946
 20
-0.0982
 30
0.0000
  0
SEQEND
  8
0
  0
POLYLINE
  8
1
 66
1
 10
0.0000
 20
0.0000
 30
0.0000
 40
0.2032
 41
0.2032
 70
0
  0
VERTEX
  8
1
 10
-2.4682
 20
-0.0718
 30
0.0000
 42
1.0000
  0
VERTEX
  8
1
 10
-2.6118
 20
0.0718
 30
0.0000
  0
SEQEND
  8
0
  0
POLYLINE
  8
1
 66
1
 10
0.0000
 20
0.0000
 30
0.0000
 40
0.4064
 41
0.4064
 70
0
  0
VERTEX
  8
1
 10
-2.5400
 20
0.0000
 30
0.0000
  0
VERTEX
  8
1
 10
-2.5400
 20
0.7620
 30
0.0000
  0
SEQEND
  8
0
  0
POLYLINE
  8
1
 66
1
 10
0.0000
 20
0.0000
 30
0.0000
 40
0.2032
 41
0.2032
 70
0
  0
VERTEX
  8
1
 10
-2.4384
 20
0.7620
 30
0.0000
 42
1.0000
  0
VERTEX
  8
1
 10
-2.6416
 20
0.7620
 30
0.0000
  0
SEQEND
  8
0
  0
POLYLINE
  8
1
 66
1
 10
0.0000
 20
0.0000
 30
0.0000
 40
0.2032
 41
0.2032
 70
0
  0
VERTEX
  8
1
 10
-2.6416
 20
0.0000
 30
0.0000
 42
1.0000
  0
VERTEX
  8
1
 10
-2.4384
 20
0.0000
 30
0.0000
  0
SEQEND
  8
0
  0
POLYLINE
  8
1
 66
1
 10
0.0000
 20
0.0000
 30
0.0000
 40
0.4064
 41
0.4064
 70
0
  0
VERTEX
  8
1
 10
-5.2070
 20
6.3500
 30
0.0000
  0
VERTEX
  8
1
 10
-2.5664
 20
6.3500
 30
0.0000
  0
SEQEND
  8
0
  0
POLYLINE
  8
1
 66
1
 10
0.0000
 20
0.0000
 30
0.0000
 40
0.2032
 41
0.2032
 70
0
  0
VERTEX
  8
1
 10
-2.5664
 20
6.2484
 30
0.0000
 42
1.0000
  0
VERTEX
  8
1
 10
-2.5664
 20
6.4516
 30
0.0000
  0
SEQEND
  8
0
  0
POLYLINE
  8
1
 66
1
 10
0.0000
 20
0.0000
 30
0.0000
 40
0.2032
 41
0.2032
 70
0
  0
VERTEX
  8
1
 10
-5.2070
 20
6.4516
 30
0.0000
 42
1.0000
  0
VERTEX
  8
1
 10
-5.2070
 20
6.2484
 30
0.0000
  0
SEQEND
  8
0
  0
POLYLINE
  8
1
 66
1
 10
0.0000
 20
0.0000
 30
0.0000
 40
0.4064
 41
0.4064
 70
0
  0
VERTEX
  8
1
 10
-2.5664
 20
6.3500
 30
0.0000
  0
VERTEX
  8
1
 10
-2.5654
 20
6.3490
 30
0.0000
  0
SEQEND
  8
0
  0
POLYLINE
  8
1
 66
1
 10
0.0000
 20
0.0000
 30
0.0000
 40
0.2032
 41
0.2032
 70
0
  0
VERTEX
  8
1
 10
-2.6372
 20
6.2772
 30
0.0000
 42
1.0000
  0
VERTEX
  8
1
 10
-2.4936
 20
6.4208
 30
0.0000
  0
SEQEND
  8
0
  0
POLYLINE
  8
1
 66
1
 10
0.0000
 20
0.0000
 30
0.0000
 40
0.2032
 41
0.2032
 70
0
  0
VERTEX
  8
1
 10
-2.4946
 20
6.4218
 30
0.0000
 42
1.0000
  0
VERTEX
  8
1
 10
-2.6382
 20
6.2782
 30
0.0000
  0
SEQEND
  8
0
  0
ENDSEC
  0
EOF
