0
SECTION
2
HEADER
9
$INSUNITS
70
4
9
$ACADVER
1
AC1014
9
$HANDSEED
5
FFFF
0
ENDSEC
0
SECTION
2
TABLES
0
TABLE
2
VPORT
5
8
100
AcDbSymbolTable
0
ENDTAB
0
TABLE
2
LTYPE
5
5
100
AcDbSymbolTable
0
LTYPE
5
14
100
AcDbSymbolTableRecord
100
AcDbLinetypeTableRecord
2
BYBLOCK
70
0
0
LTYPE
5
15
100
AcDbSymbolTableRecord
100
AcDbLinetypeTableRecord
2
BYLAYER
70
0
0
ENDTAB
0
TABLE
2
LAYER
5
2
100
AcDbSymbolTable
70
2
0
LAYER
5
50
100
AcDbSymbolTableRecord
100
AcDbLayerTableRecord
2
0
70
0
6
CONTINUOUS
0
ENDTAB
0
TABLE
2
STYLE
5
3
100
AcDbSymbolTable
70
1
0
STYLE
5
11
100
AcDbSymbolTableRecord
100
AcDbTextStyleTableRecord
2
STANDARD
70
0
0
ENDTAB
0
TABLE
2
VIEW
5
6
100
AcDbSymbolTable
70
0
0
ENDTAB
0
TABLE
2
UCS
5
7
100
AcDbSymbolTable
70
0
0
ENDTAB
0
TABLE
2
APPID
5
9
100
AcDbSymbolTable
70
2
0
APPID
5
12
100
AcDbSymbolTableRecord
100
AcDbRegAppTableRecord
2
ACAD
70
0
0
ENDTAB
0
TABLE
2
DIMSTYLE
5
A
100
AcDbSymbolTable
70
1
0
ENDTAB
0
TABLE
2
BLOCK_RECORD
5
1
100
AcDbSymbolTable
70
1
0
BLOCK_RECORD
5
1F
100
AcDbSymbolTableRecord
100
AcDbBlockTableRecord
2
*MODEL_SPACE
0
BLOCK_RECORD
5
1B
100
AcDbSymbolTableRecord
100
AcDbBlockTableRecord
2
*PAPER_SPACE
0
ENDTAB
0
ENDSEC
0
SECTION
2
BLOCKS
0
BLOCK
5
20
100
AcDbEntity
100
AcDbBlockBegin
2
*MODEL_SPACE
0
ENDBLK
5
21
100
AcDbEntity
100
AcDbBlockEnd
0
BLOCK
5
1C
100
AcDbEntity
100
AcDbBlockBegin
2
*PAPER_SPACE
0
ENDBLK
5
1D
100
AcDbEntity
100
AcDbBlockEnd
0
ENDSEC
0
SECTION
2
ENTITIES
0
ARC
5
100
100
AcDbEntity
8
0
100
AcDbCircle
10
-45
20
22.499999999999996
30
0
40
8
210
-0
220
0
230
1
100
AcDbArc
50
270
51
313.38256559583414
0
LINE
5
101
100
AcDbEntity
8
0
100
AcDbLine
10
-45
20
14.499999999999995
30
0
11
-57.015640288664351
21
14.499999999999991
31
0
0
ARC
5
102
100
AcDbEntity
8
0
100
AcDbCircle
10
-65.000000000000014
20
15
30
0
40
8
210
-0
220
0
230
1
100
AcDbArc
50
300.53878273550686
51
356.41667830152812
0
SPLINE
5
103
100
AcDbEntity
8
0
100
AcDbSpline
70
0
71
3
72
17
73
13
74
0
42
0.000000001
43
0.0000000001
44
0.0000000001
40
0.77991433558239676
40
0.77991433558239676
40
0.77991433558239676
40
0.77991433558239676
40
0.86382740233443989
40
0.86382740233443989
40
0.86382740233443989
40
1.4579638882102195
40
1.4579638882102195
40
1.4579638882102195
40
2.0492791772823087
40
2.0492791772823087
40
2.0492791772823087
40
2.3616783180073964
40
2.3616783180073964
40
2.3616783180073964
40
2.3616783180073964
10
-60.935028226162572
20
8.1097166620011265
30
0
10
-60.991456836346664
20
7.9422773924291112
30
0
10
-61.049382091621581
20
7.7562480511655529
30
0
10
-61.107537203024535
20
7.5520211233882115
30
0
10
-61.519297550513208
20
6.1060166584413835
30
0
10
-61.882574332517763
20
3.8049756680442059
30
0
10
-61.973906422140814
20
1.3869430452259528
30
0
10
-62.064804830605674
20
-1.0196077950913347
30
0
10
-61.898855422286474
20
-3.5572133927189227
30
0
10
-61.555427097779216
20
-5.5435575767000351
30
0
10
-61.373989689581833
20
-6.5929676422400867
30
0
10
-61.143404042887056
20
-7.4914080693388012
30
0
10
-60.935028226162572
20
-8.1097166620011301
30
0
0
ARC
5
104
100
AcDbEntity
8
0
100
AcDbCircle
10
-65.000000000000014
20
-15.000000000000002
30
0
40
8.0000000000000036
210
0
220
-0
230
1
100
AcDbArc
50
3.5833216984719058
51
59.461217264493044
0
LINE
5
105
100
AcDbEntity
8
0
100
AcDbLine
10
-57.015640288664351
20
-14.499999999999996
30
0
11
-44.999999999999993
21
-14.500000000000009
31
0
0
ARC
5
106
100
AcDbEntity
8
0
100
AcDbCircle
10
-45
20
-22.500000000000007
30
0
40
8.0000000000000036
210
0
220
-0
230
1
100
AcDbArc
50
46.617434404166062
51
89.999999999999901
0
SPLINE
5
107
100
AcDbEntity
8
0
100
AcDbSpline
70
0
71
3
72
23
73
19
74
0
42
0.000000001
43
0.0000000001
44
0.0000000001
40
3.5340208006840794
40
3.5340208006840794
40
3.5340208006840794
40
3.5340208006840794
40
3.5707680134673745
40
3.5707680134673745
40
3.5707680134673745
40
3.9148292456422307
40
3.9148292456422307
40
3.9148292456422307
40
4.6568046433937669
40
4.6568046433937669
40
4.6568046433937669
40
5.3447057233414057
40
5.3447057233414057
40
5.3447057233414057
40
5.6886562633152247
40
5.6886562633152247
40
5.6886562633152247
40
5.8907571600852995
40
5.8907571600852995
40
5.8907571600852995
40
5.8907571600852995
10
-39.505068870218437
20
-16.685730322821506
30
0
10
-39.359979700968807
20
-16.724679749389722
30
0
10
-39.20301910348897
20
-16.764793916682098
30
0
10
-39.031352530219358
20
-16.806474624872067
30
0
10
-37.424052050841865
20
-17.196727782365418
30
0
10
-34.699187868369414
20
-17.656576220027095
30
0
10
-31.299490206827819
20
-18.043621909845264
30
0
10
-23.967969568154611
20
-18.878294208829836
30
0
10
-13.342478732706249
20
-19.425092496647945
30
0
10
-2.4505490539875923
20
-19.492430826380357
30
0
10
7.6475892554625631
20
-19.554861615709992
30
0
10
17.933176693487709
20
-19.212031623245686
30
0
10
25.946568475390542
20
-18.55968002298291
30
0
10
29.953264366341948
20
-18.233504222851526
30
0
10
33.40360518042197
20
-17.830073364529031
30
0
10
35.981295241608187
20
-17.406474565981576
30
0
10
37.495912642705143
20
-17.157573380759757
30
0
10
38.715193461321554
20
-16.897773677924988
30
0
10
39.505068870218437
20
-16.685730322821509
30
0
0
ARC
5
108
100
AcDbEntity
8
0
100
AcDbCircle
10
45
20
-22.500000000000018
30
0
40
7.9999999999999982
210
0
220
0
230
1
100
AcDbArc
50
90.000000000000057
51
133.38256559583391
0
LINE
5
109
100
AcDbEntity
8
0
100
AcDbLine
10
44.999999999999993
20
-14.50000000000002
30
0
11
57.015640288664343
21
-14.499999999999996
31
0
0
ARC
5
110
100
AcDbEntity
8
0
100
AcDbCircle
10
64.999999999999986
20
-15.000000000000002
30
0
40
7.9999999999999982
210
0
220
0
230
1
100
AcDbArc
50
120.53878273550683
51
176.41667830152812
0
SPLINE
5
111
100
AcDbEntity
8
0
100
AcDbSpline
70
0
71
3
72
17
73
13
74
0
42
0.000000001
43
0.0000000001
44
0.0000000001
40
3.9215069891721903
40
3.9215069891721903
40
3.9215069891721903
40
3.9215069891721903
40
4.0054200559242323
40
4.0054200559242323
40
4.0054200559242323
40
4.5995565418000108
40
4.5995565418000108
40
4.5995565418000108
40
5.1908718308721014
40
5.1908718308721014
40
5.1908718308721014
40
5.5032709715971908
40
5.5032709715971908
40
5.5032709715971908
40
5.5032709715971908
10
60.935028226162551
20
-8.1097166620011301
30
0
10
60.991456836346657
20
-7.9422773924291121
30
0
10
61.049382091621567
20
-7.7562480511655583
30
0
10
61.107537203024513
20
-7.5520211233882222
30
0
10
61.519297550513194
20
-6.1060166584413977
30
0
10
61.882574332517741
20
-3.8049756680442282
30
0
10
61.9739064221408
20
-1.3869430452259808
30
0
10
62.064804830605659
20
1.0196077950913107
30
0
10
61.898855422286474
20
3.5572133927189054
30
0
10
61.555427097779202
20
5.5435575767000245
30
0
10
61.373989689581819
20
6.5929676422400814
30
0
10
61.143404042887042
20
7.4914080693388021
30
0
10
60.935028226162551
20
8.1097166620011336
30
0
0
ARC
5
112
100
AcDbEntity
8
0
100
AcDbCircle
10
65
20
14.999999999999998
30
0
40
8.0000000000000036
210
0
220
0
230
1
100
AcDbArc
50
183.58332169847191
51
239.46121726449309
0
LINE
5
113
100
AcDbEntity
8
0
100
AcDbLine
10
57.015640288664343
20
14.499999999999993
30
0
11
45
21
14.499999999999991
31
0
0
ARC
5
114
100
AcDbEntity
8
0
100
AcDbCircle
10
45
20
22.499999999999993
30
0
40
8.0000000000000036
210
0
220
0
230
1
100
AcDbArc
50
226.61743440416589
51
270
0
SPLINE
5
115
100
AcDbEntity
8
0
100
AcDbSpline
70
0
71
3
72
23
73
19
74
0
42
0.000000001
43
0.0000000001
44
0.0000000001
40
0.39242814709428847
40
0.39242814709428847
40
0.39242814709428847
40
0.39242814709428847
40
0.42917535987758115
40
0.42917535987758115
40
0.42917535987758115
40
0.77323659205243733
40
0.77323659205243733
40
0.77323659205243733
40
1.5152119898040528
40
1.5152119898040528
40
1.5152119898040528
40
2.2031130697516517
40
2.2031130697516517
40
2.2031130697516517
40
2.5470636097254511
40
2.5470636097254511
40
2.5470636097254511
40
2.7491645064955041
40
2.7491645064955041
40
2.7491645064955041
40
2.7491645064955041
10
39.505068870218416
20
16.685730322821499
30
0
10
39.359979700968793
20
16.724679749389711
30
0
10
39.203019103488963
20
16.764793916682081
30
0
10
39.031352530219358
20
16.806474624872049
30
0
10
37.424052050841873
20
17.1967277823654
30
0
10
34.699187868369414
20
17.656576220027077
30
0
10
31.299490206827819
20
18.043621909845243
30
0
10
23.96796956815383
20
18.878294208829907
30
0
10
13.342478732703977
20
19.425092496648038
30
0
10
2.4505490539841057
20
19.492430826380364
30
0
10
-7.6475892554655083
20
19.554861615709903
30
0
10
-17.933176693489806
20
19.212031623245554
30
0
10
-25.946568475391913
20
18.559680022982782
30
0
10
-29.953264366342967
20
18.233504222851398
30
0
10
-33.403605180422666
20
17.830073364528914
30
0
10
-35.981295241608628
20
17.406474565981483
30
0
10
-37.495912642705363
20
17.157573380759693
30
0
10
-38.715193461321626
20
16.897773677924949
30
0
10
-39.505068870218409
20
16.685730322821499
30
0
0
ARC
5
116
100
AcDbEntity
8
0
100
AcDbCircle
10
-60.000000000000007
20
17.499999999999993
30
0
40
4.9999999999999982
210
0
220
-0
230
1
100
AcDbArc
50
90
51
180
0
LINE
5
117
100
AcDbEntity
8
0
100
AcDbLine
10
-65.000000000000014
20
17.499999999999993
30
0
11
-65.000000000000014
21
15
31
0
0
ELLIPSE
5
118
100
AcDbEntity
8
0
100
AcDbEllipse
10
-65.000000000000014
20
-2.2204460492503131e-15
30
0
11
0
21
15
31
0.0
40
0.33333333333333331
41
0
42
3.1415926535897931
0
LINE
5
119
100
AcDbEntity
8
0
100
AcDbLine
10
-65.000000000000014
20
-15.000000000000004
30
0
11
-65.000000000000014
21
-17.499999999999996
31
0
0
ARC
5
120
100
AcDbEntity
8
0
100
AcDbCircle
10
-60.000000000000007
20
-17.499999999999996
30
0
40
5
210
0
220
0
230
1
100
AcDbArc
50
180
51
270
0
LINE
5
121
100
AcDbEntity
8
0
100
AcDbLine
10
-60.000000000000007
20
-22.499999999999996
30
0
11
-45
21
-22.500000000000007
31
0
0
ELLIPSE
5
122
100
AcDbEntity
8
0
100
AcDbEllipse
10
0
20
-22.500000000000007
30
0
11
45
21
0
31
0.0
40
0.1111111111111111
41
3.1415926535897949
42
6.2831853071795845
0
LINE
5
123
100
AcDbEntity
8
0
100
AcDbLine
10
45
20
-22.500000000000007
30
0
11
59.999999999999993
21
-22.499999999999996
31
0
0
ARC
5
124
100
AcDbEntity
8
0
100
AcDbCircle
10
59.999999999999993
20
-17.499999999999996
30
0
40
5
210
-0
220
0
230
1
100
AcDbArc
50
-90
51
0
0
LINE
5
125
100
AcDbEntity
8
0
100
AcDbLine
10
64.999999999999986
20
-17.499999999999996
30
0
11
64.999999999999986
21
-15.000000000000002
31
0
0
ELLIPSE
5
126
100
AcDbEntity
8
0
100
AcDbEllipse
10
64.999999999999986
20
-2.2204460492503131e-15
30
0
11
0
21
15
31
0.0
40
0.33333333333333331
41
3.1415926535897967
42
6.2831853071795827
0
LINE
5
127
100
AcDbEntity
8
0
100
AcDbLine
10
64.999999999999986
20
14.999999999999998
30
0
11
64.999999999999986
21
17.499999999999993
31
0
0
ARC
5
128
100
AcDbEntity
8
0
100
AcDbCircle
10
59.999999999999993
20
17.499999999999993
30
0
40
5
210
0
220
-0
230
1
100
AcDbArc
50
0
51
89.999999999999929
0
LINE
5
129
100
AcDbEntity
8
0
100
AcDbLine
10
60
20
22.499999999999993
30
0
11
45
21
22.499999999999993
31
0
0
LINE
5
130
100
AcDbEntity
8
0
100
AcDbLine
10
-45
20
22.499999999999993
30
0
11
-60.000000000000007
21
22.499999999999993
31
0
0
ELLIPSE
5
131
100
AcDbEntity
8
0
100
AcDbEllipse
10
0
20
22.499999999999993
30
0
11
45
21
0
31
0.0
40
0.1111111111111111
41
0
42
3.1415926535897931
0
CIRCLE
5
132
100
AcDbEntity
8
0
100
AcDbCircle
10
-51.999999999999993
20
0
30
0
40
1.5000000000000011
210
0
220
-0
230
1
0
CIRCLE
5
133
100
AcDbEntity
8
0
100
AcDbCircle
10
52.000000000000014
20
0
30
0
40
1.5000000000000011
210
0
220
-0
230
1
0
LWPOLYLINE
5
134
100
AcDbEntity
8
0
100
AcDbPolyline
90
4
70
1
43
0.0
10
-59.201033315344631
20
-7.9614137832174903
10
59.201033315344631
20
-7.961413783217588
10
59.201033315344631
20
7.9614137832174903
10
-59.201033315344596
20
7.9614137832175791
0
SPLINE
5
135
100
AcDbEntity
8
0
100
AcDbSpline
70
0
71
2
72
6
73
3
74
0
42
0.000000001
43
0.0000000001
44
0.0000000001
40
0
40
0
40
0
40
1
40
1
40
1
10
-32.565739354773342
20
0.072376054907934417
30
0
10
-33.39806576697427
20
0.072376054907935528
30
0
10
-34.085641107245266
20
0.27141086497415867
30
0
0
SPLINE
5
136
100
AcDbEntity
8
0
100
AcDbSpline
70
0
71
2
72
6
73
3
74
0
42
0.000000001
43
0.0000000001
44
0.0000000001
40
0
40
0
40
0
40
1
40
1
40
1
10
-34.085641107245266
20
0.27141086497415867
30
0
10
-34.773216447516262
20
0.47044567504038293
30
0
10
-35.261757573767483
20
0.82328073420633752
30
0
0
SPLINE
5
137
100
AcDbEntity
8
0
100
AcDbSpline
70
0
71
2
72
6
73
3
74
0
42
0.000000001
43
0.0000000001
44
0.0000000001
40
0
40
0
40
0
40
1
40
1
40
1
10
-35.261757573767483
20
0.82328073420633752
30
0
10
-35.750298700018703
20
1.1761151973258455
30
0
10
-36.02170964209634
20
1.6827499095450837
30
0
0
SPLINE
5
138
100
AcDbEntity
8
0
100
AcDbSpline
70
0
71
2
72
6
73
3
74
0
42
0.000000001
43
0.0000000001
44
0.0000000001
40
0
40
0
40
0
40
1
40
1
40
1
10
-36.02170964209634
20
1.6827499095450837
30
0
10
-36.293120584173977
20
2.1893840257178745
30
0
10
-36.293120584173977
20
2.804583233977457
30
0
0
SPLINE
5
139
100
AcDbEntity
8
0
100
AcDbSpline
70
0
71
2
72
6
73
3
74
0
42
0.000000001
43
0.0000000001
44
0.0000000001
40
0
40
0
40
0
40
1
40
1
40
1
10
-36.293120584173977
20
2.804583233977457
30
0
10
-36.293120584173977
20
3.582628888274332
30
0
10
-35.886004171057522
20
4.0259348575126124
30
0
0
SPLINE
5
140
100
AcDbEntity
8
0
100
AcDbSpline
70
0
71
2
72
6
73
3
74
0
42
0.000000001
43
0.0000000001
44
0.0000000001
40
0
40
0
40
0
40
1
40
1
40
1
10
-35.886004171057522
20
4.0259348575126124
30
0
10
-35.478885373755276
20
4.4692396346579981
30
0
10
-34.827499589606106
20
4.4692396346579972
30
0
0
SPLINE
5
141
100
AcDbEntity
8
0
100
AcDbSpline
70
0
71
2
72
6
73
3
74
0
42
0.000000001
43
0.0000000001
44
0.0000000001
40
0
40
0
40
0
40
1
40
1
40
1
10
-34.827499589606106
20
4.4692396346579972
30
0
10
-34.447524747534572
20
4.4692396346579972
30
0
10
-34.148972234412014
20
4.3244861785422746
30
0
0
SPLINE
5
142
100
AcDbEntity
8
0
100
AcDbSpline
70
0
71
2
72
6
73
3
74
0
42
0.000000001
43
0.0000000001
44
0.0000000001
40
0
40
0
40
0
40
1
40
1
40
1
10
-34.148972234412014
20
4.3244861785422746
30
0
10
-33.850419721289455
20
4.1797339145194465
30
0
10
-33.642337522192776
20
3.9354633513938362
30
0
0
SPLINE
5
143
100
AcDbEntity
8
0
100
AcDbSpline
70
0
71
2
72
6
73
3
74
0
42
0.000000001
43
0.0000000001
44
0.0000000001
40
0
40
0
40
0
40
1
40
1
40
1
10
-33.642337522192776
20
3.9354633513938362
30
0
10
-33.434255323096096
20
3.6911939803611213
30
0
10
-33.325689038916408
20
3.3745466891776497
30
0
0
SPLINE
5
144
100
AcDbEntity
8
0
100
AcDbSpline
70
0
71
2
72
6
73
3
74
0
42
0.000000001
43
0.0000000001
44
0.0000000001
40
0
40
0
40
0
40
1
40
1
40
1
10
-33.325689038916408
20
3.3745466891776497
30
0
10
-33.217125138922512
20
3.057900590087073
30
0
10
-33.217125138922512
20
2.7141129199515754
30
0
0
SPLINE
5
145
100
AcDbEntity
8
0
100
AcDbSpline
70
0
71
2
72
6
73
3
74
0
42
0.000000001
43
0.0000000001
44
0.0000000001
40
0
40
0
40
0
40
1
40
1
40
1
10
-33.217125138922512
20
2.7141129199515754
30
0
10
-33.217125138922512
20
2.5693606559287483
30
0
10
-33.325689038916408
20
2.4607955638419563
30
0
0
SPLINE
5
146
100
AcDbEntity
8
0
100
AcDbSpline
70
0
71
2
72
6
73
3
74
0
42
0.000000001
43
0.0000000001
44
0.0000000001
40
0
40
0
40
0
40
1
40
1
40
1
10
-33.325689038916408
20
2.4607955638419563
30
0
10
-33.434255323096096
20
2.3522310678016121
30
0
10
-33.579006395026028
20
2.3522310678016121
30
0
0
SPLINE
5
147
100
AcDbEntity
8
0
100
AcDbSpline
70
0
71
2
72
6
73
3
74
0
42
0.000000001
43
0.0000000001
44
0.0000000001
40
0
40
0
40
0
40
1
40
1
40
1
10
-33.579006395026028
20
2.3522310678016121
30
0
10
-33.72375985114175
20
2.3522310678016121
30
0
10
-33.832323751135647
20
2.4607955638419563
30
0
0
SPLINE
5
148
100
AcDbEntity
8
0
100
AcDbSpline
70
0
71
2
72
6
73
3
74
0
42
0.000000001
43
0.0000000001
44
0.0000000001
40
0
40
0
40
0
40
1
40
1
40
1
10
-33.832323751135647
20
2.4607955638419563
30
0
10
-33.940890035315334
20
2.5693606559287483
30
0
10
-33.940890035315334
20
2.7141129199515754
30
0
0
SPLINE
5
149
100
AcDbEntity
8
0
100
AcDbSpline
70
0
71
2
72
6
73
3
74
0
42
0.000000001
43
0.0000000001
44
0.0000000001
40
0
40
0
40
0
40
1
40
1
40
1
10
-33.940890035315334
20
2.7141129199515754
30
0
10
-33.940890035315334
20
3.0940889541160042
30
0
10
-34.158017835303127
20
3.41978184619059
30
0
0
SPLINE
5
150
100
AcDbEntity
8
0
100
AcDbSpline
70
0
71
2
72
6
73
3
74
0
42
0.000000001
43
0.0000000001
44
0.0000000001
40
0
40
0
40
0
40
1
40
1
40
1
10
-34.158017835303127
20
3.41978184619059
30
0
10
-34.375148019476711
20
3.7454759303580705
30
0
10
-34.809406003638088
20
3.7454759303580709
30
0
0
SPLINE
5
151
100
AcDbEntity
8
0
100
AcDbSpline
70
0
71
2
72
6
73
3
74
0
42
0.000000001
43
0.0000000001
44
0.0000000001
40
0
40
0
40
0
40
1
40
1
40
1
10
-34.809406003638088
20
3.7454759303580709
30
0
10
-35.153193673773586
20
3.7454759303580709
30
0
10
-35.361275872870266
20
3.501205367232461
30
0
0
SPLINE
5
152
100
AcDbEntity
8
0
100
AcDbSpline
70
0
71
2
72
6
73
3
74
0
42
0.000000001
43
0.0000000001
44
0.0000000001
40
0
40
0
40
0
40
1
40
1
40
1
10
-35.361275872870266
20
3.501205367232461
30
0
10
-35.569358071966946
20
3.2569359961997462
30
0
10
-35.569358071966946
20
2.7864896480094381
30
0
0
SPLINE
5
153
100
AcDbEntity
8
0
100
AcDbSpline
70
0
71
2
72
6
73
3
74
0
42
0.000000001
43
0.0000000001
44
0.0000000001
40
0
40
0
40
0
40
1
40
1
40
1
10
-35.569358071966946
20
2.7864896480094381
30
0
10
-35.569358071966946
20
1.8817847196113058
30
0
10
-34.74607487647134
20
1.3389622394095846
30
0
0
SPLINE
5
154
100
AcDbEntity
8
0
100
AcDbSpline
70
0
71
2
72
6
73
3
74
0
42
0.000000001
43
0.0000000001
44
0.0000000001
40
0
40
0
40
0
40
1
40
1
40
1
10
-34.74607487647134
20
1.3389622394095846
30
0
10
-33.922794065161526
20
0.79613916316141453
30
0
10
-32.565739354773342
20
0.79613916316141342
30
0
0
SPLINE
5
155
100
AcDbEntity
8
0
100
AcDbSpline
70
0
71
2
72
6
73
3
74
0
42
0.000000001
43
0.0000000001
44
0.0000000001
40
0
40
0
40
0
40
1
40
1
40
1
10
-32.565739354773342
20
0.79613916316141342
30
0
10
-32.33051558463174
20
0.79613916316141342
30
0
10
-32.113385400458156
20
0.81423334517587875
30
0
0
SPLINE
5
156
100
AcDbEntity
8
0
100
AcDbSpline
70
0
71
2
72
6
73
3
74
0
42
0.000000001
43
0.0000000001
44
0.0000000001
40
0
40
0
40
0
40
1
40
1
40
1
10
-32.113385400458156
20
0.81423334517587875
30
0
10
-31.896257600470364
20
0.83232752719034409
30
0
10
-31.67912741629678
20
0.86851589121927475
30
0
0
SPLINE
5
157
100
AcDbEntity
8
0
100
AcDbSpline
70
0
71
2
72
6
73
3
74
0
42
0.000000001
43
0.0000000001
44
0.0000000001
40
0
40
0
40
0
40
1
40
1
40
1
10
-31.67912741629678
20
0.86851589121927475
30
0
10
-32.041008672400295
20
1.2303977433692381
30
0
10
-32.249090871496975
20
1.7279850665580199
30
0
0
SPLINE
5
158
100
AcDbEntity
8
0
100
AcDbSpline
70
0
71
2
72
6
73
3
74
0
42
0.000000001
43
0.0000000001
44
0.0000000001
40
0
40
0
40
0
40
1
40
1
40
1
10
-32.249090871496975
20
1.7279850665580199
30
0
10
-32.457173070593655
20
2.2255723897468016
30
0
10
-32.457173070593655
20
2.8769599620353148
30
0
0
SPLINE
5
159
100
AcDbEntity
8
0
100
AcDbSpline
70
0
71
2
72
6
73
3
74
0
42
0.000000001
43
0.0000000001
44
0.0000000001
40
0
40
0
40
0
40
1
40
1
40
1
10
-32.457173070593655
20
2.8769599620353148
30
0
10
-32.457173070593655
20
3.4197818461905882
30
0
10
-32.303374013586819
20
3.9083229724418089
30
0
0
SPLINE
5
160
100
AcDbEntity
8
0
100
AcDbSpline
70
0
71
2
72
6
73
3
74
0
42
0.000000001
43
0.0000000001
44
0.0000000001
40
0
40
0
40
0
40
1
40
1
40
1
10
-32.303374013586819
20
3.9083229724418089
30
0
10
-32.149574956579983
20
4.3968629066001341
30
0
10
-31.851022443457424
20
4.7768389407645619
30
0
0
SPLINE
5
161
100
AcDbEntity
8
0
100
AcDbSpline
70
0
71
2
72
6
73
3
74
0
42
0.000000001
43
0.0000000001
44
0.0000000001
40
0
40
0
40
0
40
1
40
1
40
1
10
-31.851022443457424
20
4.7768389407645619
30
0
10
-31.552469930334865
20
5.1568149749289915
30
0
10
-31.127257547064602
20
5.3739439670096791
30
0
0
SPLINE
5
162
100
AcDbEntity
8
0
100
AcDbSpline
70
0
71
2
72
6
73
3
74
0
42
0.000000001
43
0.0000000001
44
0.0000000001
40
0
40
0
40
0
40
1
40
1
40
1
10
-31.127257547064602
20
5.3739439670096791
30
0
10
-30.702047547980129
20
5.5910729590903676
30
0
10
-30.159223279639065
20
5.5910729590903667
30
0
0
SPLINE
5
163
100
AcDbEntity
8
0
100
AcDbSpline
70
0
71
2
72
6
73
3
74
0
42
0.000000001
43
0.0000000001
44
0.0000000001
40
0
40
0
40
0
40
1
40
1
40
1
10
-30.159223279639065
20
5.5910729590903667
30
0
10
-29.254520139380276
20
5.5910729590903667
30
0
10
-28.711698255225002
20
4.9939679328452486
30
0
0
SPLINE
5
164
100
AcDbEntity
8
0
100
AcDbSpline
70
0
71
2
72
6
73
3
74
0
42
0.000000001
43
0.0000000001
44
0.0000000001
40
0
40
0
40
0
40
1
40
1
40
1
10
-28.711698255225002
20
4.9939679328452486
30
0
10
-28.168873986883938
20
4.3968629066001306
30
0
10
-28.168873986883938
20
3.4197818461905847
30
0
0
SPLINE
5
165
100
AcDbEntity
8
0
100
AcDbSpline
70
0
71
2
72
6
73
3
74
0
42
0.000000001
43
0.0000000001
44
0.0000000001
40
0
40
0
40
0
40
1
40
1
40
1
10
-28.168873986883938
20
3.4197818461905847
30
0
10
-28.168873986883938
20
2.5331722918998132
30
0
10
-28.621227941199123
20
1.8365495625983608
30
0
0
SPLINE
5
166
100
AcDbEntity
8
0
100
AcDbSpline
70
0
71
2
72
6
73
3
74
0
42
0.000000001
43
0.0000000001
44
0.0000000001
40
0
40
0
40
0
40
1
40
1
40
1
10
-28.621227941199123
20
1.8365495625983608
30
0
10
-29.073579511328518
20
1.1399268332969092
30
0
10
-29.887812337561428
20
0.70566884913553229
30
0
0
SPLINE
5
167
100
AcDbEntity
8
0
100
AcDbSpline
70
0
71
2
72
6
73
3
74
0
42
0.000000001
43
0.0000000001
44
0.0000000001
40
0
40
0
40
0
40
1
40
1
40
1
10
-29.887812337561428
20
0.70566884913553229
30
0
10
-29.580214223547756
20
0.61519853510965339
30
0
10
-29.272613725348293
20
0.58805756011117927
30
0
0
SPLINE
5
168
100
AcDbEntity
8
0
100
AcDbSpline
70
0
71
2
72
6
73
3
74
0
42
0.000000001
43
0.0000000001
44
0.0000000001
40
0
40
0
40
0
40
1
40
1
40
1
10
-29.272613725348293
20
0.58805756011117927
30
0
10
-28.96501322714883
20
0.56091598906625739
30
0
10
-28.657415113135158
20
0.56091598906625628
30
0
0
SPLINE
5
169
100
AcDbEntity
8
0
100
AcDbSpline
70
0
71
2
72
6
73
3
74
0
42
0.000000001
43
0.0000000001
44
0.0000000001
40
0
40
0
40
0
40
1
40
1
40
1
10
-28.657415113135158
20
0.56091598906625628
30
0
10
-28.078403672858059
20
0.56091598906625628
30
0
10
-27.436063489600002
20
0.67852787413705595
30
0
0
SPLINE
5
170
100
AcDbEntity
8
0
100
AcDbSpline
70
0
71
2
72
6
73
3
74
0
42
0.000000001
43
0.0000000001
44
0.0000000001
40
0
40
0
40
0
40
1
40
1
40
1
10
-27.436063489600002
20
0.67852787413705595
30
0
10
-26.793723306341946
20
0.79613916316140898
30
0
10
-26.160431108160793
20
1.0313623372565617
30
0
0
SPLINE
5
171
100
AcDbEntity
8
0
100
AcDbSpline
70
0
71
2
72
6
73
3
74
0
42
0.000000001
43
0.0000000001
44
0.0000000001
40
0
40
0
40
0
40
1
40
1
40
1
10
-26.160431108160793
20
1.0313623372565617
30
0
10
-26.920383176489651
20
1.8275027696143509
30
0
10
-27.472253045721828
20
2.6417361918937088
30
0
0
SPLINE
5
172
100
AcDbEntity
8
0
100
AcDbSpline
70
0
71
2
72
6
73
3
74
0
42
0.000000001
43
0.0000000001
44
0.0000000001
40
0
40
0
40
0
40
1
40
1
40
1
10
-27.472253045721828
20
2.6417361918937088
30
0
10
-28.024122914954006
20
3.4559702102195153
30
0
10
-28.024122914954006
20
4.4149576846610437
30
0
0
SPLINE
5
173
100
AcDbEntity
8
0
100
AcDbSpline
70
0
71
2
72
6
73
3
74
0
42
0.000000001
43
0.0000000001
44
0.0000000001
40
0
40
0
40
0
40
1
40
1
40
1
10
-28.024122914954006
20
4.4149576846610437
30
0
10
-28.024122914954006
20
5.0301562968741784
30
0
10
-27.806992730780422
20
5.5910729590903649
30
0
0
SPLINE
5
174
100
AcDbEntity
8
0
100
AcDbSpline
70
0
71
2
72
6
73
3
74
0
42
0.000000001
43
0.0000000001
44
0.0000000001
40
0
40
0
40
0
40
1
40
1
40
1
10
-27.806992730780422
20
5.5910729590903649
30
0
10
-27.589862546606838
20
6.1519896213065506
30
0
10
-27.209887704535305
20
6.56815401949991
30
0
0
SPLINE
5
175
100
AcDbEntity
8
0
100
AcDbSpline
70
0
71
2
72
6
73
3
74
0
42
0.000000001
43
0.0000000001
44
0.0000000001
40
0
40
0
40
0
40
1
40
1
40
1
10
-27.209887704535305
20
6.56815401949991
30
0
10
-26.829912862463772
20
6.9843184176932693
30
0
10
-26.296136579199612
20
7.237634581709993
30
0
0
SPLINE
5
176
100
AcDbEntity
8
0
100
AcDbSpline
70
0
71
2
72
6
73
3
74
0
42
0.000000001
43
0.0000000001
44
0.0000000001
40
0
40
0
40
0
40
1
40
1
40
1
10
-26.296136579199612
20
7.237634581709993
30
0
10
-25.762360295935451
20
7.4909519378196112
30
0
10
-25.129068097754299
20
7.4909519378196112
30
0
0
SPLINE
5
177
100
AcDbEntity
8
0
100
AcDbSpline
70
0
71
2
72
6
73
3
74
0
42
0.000000001
43
0.0000000001
44
0.0000000001
40
0
40
0
40
0
40
1
40
1
40
1
10
-25.129068097754299
20
7.4909519378196112
30
0
10
-24.531963071509182
20
7.4909519378196094
30
0
10
-24.025328359289944
20
7.273822945738921
30
0
0
SPLINE
5
178
100
AcDbEntity
8
0
100
AcDbSpline
70
0
71
2
72
6
73
3
74
0
42
0.000000001
43
0.0000000001
44
0.0000000001
40
0
40
0
40
0
40
1
40
1
40
1
10
-24.025328359289944
20
7.273822945738921
30
0
10
-23.518693647070705
20
7.0566939536582325
30
0
10
-23.15681239096719
20
6.6857659045707072
30
0
0
SPLINE
5
179
100
AcDbEntity
8
0
100
AcDbSpline
70
0
71
2
72
6
73
3
74
0
42
0.000000001
43
0.0000000001
44
0.0000000001
40
0
40
0
40
0
40
1
40
1
40
1
10
-23.15681239096719
20
6.6857659045707072
30
0
10
-22.794931134863674
20
6.3148366633902873
30
0
10
-22.595894536658108
20
5.7991551581870402
30
0
0
SPLINE
5
180
100
AcDbEntity
8
0
100
AcDbSpline
70
0
71
2
72
6
73
3
74
0
42
0.000000001
43
0.0000000001
44
0.0000000001
40
0
40
0
40
0
40
1
40
1
40
1
10
-22.595894536658108
20
5.7991551581870402
30
0
10
-22.396860322638332
20
5.2834736529837922
30
0
10
-22.396860322638332
20
4.6863686267386759
30
0
0
SPLINE
5
181
100
AcDbEntity
8
0
100
AcDbSpline
70
0
71
2
72
6
73
3
74
0
42
0.000000001
43
0.0000000001
44
0.0000000001
40
0
40
0
40
0
40
1
40
1
40
1
10
-22.396860322638332
20
4.6863686267386759
30
0
10
-22.396860322638332
20
4.0349816504966105
30
0
10
-22.586848935766994
20
3.4650170032035197
30
0
0
SPLINE
5
182
100
AcDbEntity
8
0
100
AcDbSpline
70
0
71
2
72
6
73
3
74
0
42
0.000000001
43
0.0000000001
44
0.0000000001
40
0
40
0
40
0
40
1
40
1
40
1
10
-22.586848935766994
20
3.4650170032035197
30
0
10
-22.776835164709865
20
2.8950535480033244
30
0
10
-23.11157723395425
20
2.415560406829008
30
0
0
SPLINE
5
183
100
AcDbEntity
8
0
100
AcDbSpline
70
0
71
2
72
6
73
3
74
0
42
0.000000001
43
0.0000000001
44
0.0000000001
40
0
40
0
40
0
40
1
40
1
40
1
10
-23.11157723395425
20
2.415560406829008
30
0
10
-23.446316919012844
20
1.9360672656546918
30
0
10
-23.907716474219143
20
1.5379970494757988
30
0
0
SPLINE
5
184
100
AcDbEntity
8
0
100
AcDbSpline
70
0
71
2
72
6
73
3
74
0
42
0.000000001
43
0.0000000001
44
0.0000000001
40
0
40
0
40
0
40
1
40
1
40
1
10
-23.907716474219143
20
1.5379970494757988
30
0
10
-24.369116029425442
20
1.1399268332969048
30
0
10
-24.893844327612697
20
0.83232752719033853
30
0
0
LINE
5
185
100
AcDbEntity
8
0
100
AcDbLine
10
-24.893844327612697
20
0.83232752719033853
30
0
11
-24.441492757483303
21
0.37997536101449592
31
0
0
SPLINE
5
186
100
AcDbEntity
8
0
100
AcDbSpline
70
0
71
2
72
6
73
3
74
0
42
0.000000001
43
0.0000000001
44
0.0000000001
40
0
40
0
40
0
40
1
40
1
40
1
10
-24.441492757483303
20
0.37997536101449514
30
0
10
-23.9710452172001
20
-0.090470987175812478
30
0
10
-23.527739247961819
20
-0.57901151738058654
30
0
0
SPLINE
5
187
100
AcDbEntity
8
0
100
AcDbSpline
70
0
71
2
72
6
73
3
74
0
42
0.000000001
43
0.0000000001
44
0.0000000001
40
0
40
0
40
0
40
1
40
1
40
1
10
-23.527739247961819
20
-0.57901151738058654
30
0
10
-23.084435662909328
20
-1.0675514515389117
30
0
10
-22.74064799277383
20
-1.6103745277870807
30
0
0
SPLINE
5
188
100
AcDbEntity
8
0
100
AcDbSpline
70
0
71
2
72
6
73
3
74
0
42
0.000000001
43
0.0000000001
44
0.0000000001
40
0
40
0
40
0
40
1
40
1
40
1
10
-22.74064799277383
20
-1.6103745277870807
30
0
10
-22.396860322638332
20
-2.1531976040352507
30
0
10
-22.188778123541653
20
-2.7412546452034636
30
0
0
SPLINE
5
189
100
AcDbEntity
8
0
100
AcDbSpline
70
0
71
2
72
6
73
3
74
0
42
0.000000001
43
0.0000000001
44
0.0000000001
40
0
40
0
40
0
40
1
40
1
40
1
10
-22.188778123541653
20
-2.7412546452034636
30
0
10
-21.980695924444973
20
-3.329312878464572
30
0
10
-21.980695924444973
20
-3.998793440674655
30
0
0
SPLINE
5
190
100
AcDbEntity
8
0
100
AcDbSpline
70
0
71
2
72
6
73
3
74
0
42
0.000000001
43
0.0000000001
44
0.0000000001
40
0
40
0
40
0
40
1
40
1
40
1
10
-21.980695924444973
20
-3.998793440674655
30
0
10
-21.980695924444973
20
-5.1387215431679412
30
0
10
-22.613990506811916
20
-5.9710491474617644
30
0
0
SPLINE
5
191
100
AcDbEntity
8
0
100
AcDbSpline
70
0
71
2
72
6
73
3
74
0
42
0.000000001
43
0.0000000001
44
0.0000000001
40
0
40
0
40
0
40
1
40
1
40
1
10
-22.613990506811916
20
-5.9710491474617644
30
0
10
-22.053072652502834
20
-5.7177329834450408
30
0
10
-21.546437940283596
20
-5.319662171219699
30
0
0
SPLINE
5
192
100
AcDbEntity
8
0
100
AcDbSpline
70
0
71
2
72
6
73
3
74
0
42
0.000000001
43
0.0000000001
44
0.0000000001
40
0
40
0
40
0
40
1
40
1
40
1
10
-21.546437940283596
20
-5.319662171219699
30
0
10
-21.039803228064358
20
-4.9215925510872527
30
0
10
-20.596497258826076
20
-4.4511462028969451
30
0
0
SPLINE
5
193
100
AcDbEntity
8
0
100
AcDbSpline
70
0
71
2
72
6
73
3
74
0
42
0.000000001
43
0.0000000001
44
0.0000000001
40
0
40
0
40
0
40
1
40
1
40
1
10
-20.596497258826076
20
-4.4511462028969451
30
0
10
-20.153193673773586
20
-3.9806998547066397
30
0
10
-19.79131003348428
20
-3.4378779705513662
30
0
0
SPLINE
5
194
100
AcDbEntity
8
0
100
AcDbSpline
70
0
71
2
72
6
73
3
74
0
42
0.000000001
43
0.0000000001
44
0.0000000001
40
0
40
0
40
0
40
1
40
1
40
1
10
-19.79131003348428
20
-3.4378779705513662
30
0
10
-19.429428777380764
20
-2.8950548943031973
30
0
10
-19.194205007239162
20
-2.3522318180550283
30
0
0
SPLINE
5
195
100
AcDbEntity
8
0
100
AcDbSpline
70
0
71
2
72
6
73
3
74
0
42
0.000000001
43
0.0000000001
44
0.0000000001
40
0
40
0
40
0
40
1
40
1
40
1
10
-19.194205007239162
20
-2.3522318180550283
30
0
10
-19.103734693213283
20
-2.1351028259743399
30
0
10
-18.868515691443264
20
-2.1351028259743399
30
0
0
SPLINE
5
196
100
AcDbEntity
8
0
100
AcDbSpline
70
0
71
2
72
6
73
3
74
0
42
0.000000001
43
0.0000000001
44
0.0000000001
40
0
40
0
40
0
40
1
40
1
40
1
10
-18.868515691443264
20
-2.1351028259743399
30
0
10
-18.723757466955959
20
-2.1351028259743399
30
0
10
-18.615195951147854
20
-2.2436679180611319
30
0
0
SPLINE
5
197
100
AcDbEntity
8
0
100
AcDbSpline
70
0
71
2
72
6
73
3
74
0
42
0.000000001
43
0.0000000001
44
0.0000000001
40
0
40
0
40
0
40
1
40
1
40
1
10
-18.615195951147854
20
-2.2436679180611319
30
0
10
-18.506629666968166
20
-2.3522318180550283
30
0
10
-18.506629666968166
20
-2.496985274170751
30
0
0
SPLINE
5
198
100
AcDbEntity
8
0
100
AcDbSpline
70
0
71
2
72
6
73
3
74
0
42
0.000000001
43
0.0000000001
44
0.0000000001
40
0
40
0
40
0
40
1
40
1
40
1
10
-18.506629666968166
20
-2.496985274170751
30
0
10
-18.506629666968166
20
-2.5331724461067862
30
0
10
-18.542816838904201
20
-2.6417375381935781
30
0
0
SPLINE
5
199
100
AcDbEntity
8
0
100
AcDbSpline
70
0
71
2
72
6
73
3
74
0
42
0.000000001
43
0.0000000001
44
0.0000000001
40
0
40
0
40
0
40
1
40
1
40
1
10
-18.542816838904201
20
-2.6417375381935781
30
0
10
-19.049456319495022
20
-3.7816656406868643
30
0
10
-19.818451604529201
20
-4.6773231800545396
30
0
0
SPLINE
5
200
100
AcDbEntity
8
0
100
AcDbSpline
70
0
71
2
72
6
73
3
74
0
42
0.000000001
43
0.0000000001
44
0.0000000001
40
0
40
0
40
0
40
1
40
1
40
1
10
-19.818451604529201
20
-4.6773231800545396
30
0
10
-20.587451657934963
20
-5.5729795273293181
30
0
10
-21.546437940283596
20
-6.1972261246193572
30
0
0
SPLINE
5
201
100
AcDbEntity
8
0
100
AcDbSpline
70
0
71
2
72
6
73
3
74
0
42
0.000000001
43
0.0000000001
44
0.0000000001
40
0
40
0
40
0
40
1
40
1
40
1
10
-21.546437940283596
20
-6.1972261246193572
30
0
10
-22.505424222632229
20
-6.8214715298165007
30
0
10
-23.645351133032619
20
-7.1562124069679882
30
0
0
SPLINE
5
202
100
AcDbEntity
8
0
100
AcDbSpline
70
0
71
2
72
6
73
3
74
0
42
0.000000001
43
0.0000000001
44
0.0000000001
40
0
40
0
40
0
40
1
40
1
40
1
10
-23.645351133032619
20
-7.1562124069679882
30
0
10
-24.785280427618801
20
-7.4909532841194775
30
0
10
-26.033771238013088
20
-7.4909532841194748
30
0
0
SPLINE
5
203
100
AcDbEntity
8
0
100
AcDbSpline
70
0
71
2
72
6
73
3
74
0
42
0.000000001
43
0.0000000001
44
0.0000000001
40
0
40
0
40
0
40
1
40
1
40
1
10
-26.033771238013088
20
-7.4909532841194748
30
0
10
-26.829912862463772
20
-7.4909532841194748
30
0
10
-27.589862546606838
20
-7.3009658630837082
30
0
0
SPLINE
5
204
100
AcDbEntity
8
0
100
AcDbSpline
70
0
71
2
72
6
73
3
74
0
42
0.000000001
43
0.0000000001
44
0.0000000001
40
0
40
0
40
0
40
1
40
1
40
1
10
-27.589862546606838
20
-7.3009658630837082
30
0
10
-28.349816999121487
20
-7.1109772499550434
30
0
10
-28.937874040289699
20
-6.7038608368385884
30
0
0
SPLINE
5
205
100
AcDbEntity
8
0
100
AcDbSpline
70
0
71
2
72
6
73
3
74
0
42
0.000000001
43
0.0000000001
44
0.0000000001
40
0
40
0
40
0
40
1
40
1
40
1
10
-28.937874040289699
20
-6.7038608368385884
30
0
10
-29.525931081457912
20
-6.2967432316292378
30
0
10
-29.887812337561428
20
-5.6544030483711811
30
0
0
SPLINE
5
206
100
AcDbEntity
8
0
100
AcDbSpline
70
0
71
2
72
6
73
3
74
0
42
0.000000001
43
0.0000000001
44
0.0000000001
40
0
40
0
40
0
40
1
40
1
40
1
10
-29.887812337561428
20
-5.6544030483711811
30
0
10
-30.249693593664944
20
-5.0120628651131245
30
0
10
-30.249693593664944
20
-4.0892649467934223
30
0
0
SPLINE
5
207
100
AcDbEntity
8
0
100
AcDbSpline
70
0
71
2
72
6
73
3
74
0
42
0.000000001
43
0.0000000001
44
0.0000000001
40
0
40
0
40
0
40
1
40
1
40
1
10
-30.249693593664944
20
-4.0892649467934223
30
0
10
-30.249693593664944
20
-3.4559715565193749
30
0
10
-30.050659379645168
20
-2.9221952732552148
30
0
0
SPLINE
5
208
100
AcDbEntity
8
0
100
AcDbSpline
70
0
71
2
72
6
73
3
74
0
42
0.000000001
43
0.0000000001
44
0.0000000001
40
0
40
0
40
0
40
1
40
1
40
1
10
-30.050659379645168
20
-2.9221952732552148
30
0
10
-29.851625165625393
20
-2.3884201820839501
30
0
10
-29.480695924444973
20
-1.9993973549355126
30
0
0
SPLINE
5
209
100
AcDbEntity
8
0
100
AcDbSpline
70
0
71
2
72
6
73
3
74
0
42
0.000000001
43
0.0000000001
44
0.0000000001
40
0
40
0
40
0
40
1
40
1
40
1
10
-29.480695924444973
20
-1.9993973549355126
30
0
10
-29.109766683264553
20
-1.6103745277870751
30
0
10
-28.603131971045315
20
-1.3932455357063878
30
0
0
SPLINE
5
210
100
AcDbEntity
8
0
100
AcDbSpline
70
0
71
2
72
6
73
3
74
0
42
0.000000001
43
0.0000000001
44
0.0000000001
40
0
40
0
40
0
40
1
40
1
40
1
10
-28.603131971045315
20
-1.3932455357063878
30
0
10
-28.096497258826076
20
-1.1761165436256993
30
0
10
-27.481298646612942
20
-1.1761165436257004
30
0
0
SPLINE
5
211
100
AcDbEntity
8
0
100
AcDbSpline
70
0
71
2
72
6
73
3
74
0
42
0.000000001
43
0.0000000001
44
0.0000000001
40
0
40
0
40
0
40
1
40
1
40
1
10
-27.481298646612942
20
-1.1761165436257004
30
0
10
-26.504218778296291
20
-1.1761165436257004
30
0
10
-25.916159352942287
20
-1.682750659798492
30
0
0
SPLINE
5
212
100
AcDbEntity
8
0
100
AcDbSpline
70
0
71
2
72
6
73
3
74
0
42
0.000000001
43
0.0000000001
44
0.0000000001
40
0
40
0
40
0
40
1
40
1
40
1
10
-25.916159352942287
20
-1.682750659798492
30
0
10
-25.328102311774074
20
-2.1893847759712837
30
0
10
-25.328102311774074
20
-3.03980715832602
30
0
0
SPLINE
5
213
100
AcDbEntity
8
0
100
AcDbSpline
70
0
71
2
72
6
73
3
74
0
42
0.000000001
43
0.0000000001
44
0.0000000001
40
0
40
0
40
0
40
1
40
1
40
1
10
-25.328102311774074
20
-3.03980715832602
30
0
10
-25.328102311774074
20
-3.3655012424935005
30
0
10
-25.418572625799953
20
-3.6911953266609809
30
0
0
SPLINE
5
214
100
AcDbEntity
8
0
100
AcDbSpline
70
0
71
2
72
6
73
3
74
0
42
0.000000001
43
0.0000000001
44
0.0000000001
40
0
40
0
40
0
40
1
40
1
40
1
10
-25.418572625799953
20
-3.6911953266609809
30
0
10
-25.509045324011623
20
-4.0168882187355663
30
0
10
-25.680937966986477
20
-4.2792523678291916
30
0
0
SPLINE
5
215
100
AcDbEntity
8
0
100
AcDbSpline
70
0
71
2
72
6
73
3
74
0
42
0.000000001
43
0.0000000001
44
0.0000000001
40
0
40
0
40
0
40
1
40
1
40
1
10
-25.680937966986477
20
-4.2792523678291916
30
0
10
-25.85283060996133
20
-4.5416165169228195
30
0
10
-26.115195951147854
20
-4.7135103519905686
30
0
0
SPLINE
5
216
100
AcDbEntity
8
0
100
AcDbSpline
70
0
71
2
72
6
73
3
74
0
42
0.000000001
43
0.0000000001
44
0.0000000001
40
0
40
0
40
0
40
1
40
1
40
1
10
-26.115195951147854
20
-4.7135103519905686
30
0
10
-26.377561292334377
20
-4.8854041870583176
30
0
10
-26.721346578284084
20
-4.8854041870583176
30
0
0
SPLINE
5
217
100
AcDbEntity
8
0
100
AcDbSpline
70
0
71
2
72
6
73
3
74
0
42
0.000000001
43
0.0000000001
44
0.0000000001
40
0
40
0
40
0
40
1
40
1
40
1
10
-26.721346578284084
20
-4.8854041870583176
30
0
10
-26.866100034399807
20
-4.8854041870583176
30
0
10
-26.974663934393703
20
-4.7768402870644211
30
0
0
SPLINE
5
218
100
AcDbEntity
8
0
100
AcDbSpline
70
0
71
2
72
6
73
3
74
0
42
0.000000001
43
0.0000000001
44
0.0000000001
40
0
40
0
40
0
40
1
40
1
40
1
10
-26.974663934393703
20
-4.7768402870644211
30
0
10
-27.083230218573391
20
-4.6682751949776291
30
0
10
-27.083230218573391
20
-4.523522930954802
30
0
0
SPLINE
5
219
100
AcDbEntity
8
0
100
AcDbSpline
70
0
71
2
72
6
73
3
74
0
42
0.000000001
43
0.0000000001
44
0.0000000001
40
0
40
0
40
0
40
1
40
1
40
1
10
-27.083230218573391
20
-4.523522930954802
30
0
10
-27.083230218573391
20
-4.3787706669319748
30
0
10
-26.974663934393703
20
-4.2702055748451828
30
0
0
SPLINE
5
220
100
AcDbEntity
8
0
100
AcDbSpline
70
0
71
2
72
6
73
3
74
0
42
0.000000001
43
0.0000000001
44
0.0000000001
40
0
40
0
40
0
40
1
40
1
40
1
10
-26.974663934393703
20
-4.2702055748451828
30
0
10
-26.866100034399807
20
-4.1616404827583908
30
0
10
-26.721346578284084
20
-4.1616404827583908
30
0
0
SPLINE
5
221
100
AcDbEntity
8
0
100
AcDbSpline
70
0
71
2
72
6
73
3
74
0
42
0.000000001
43
0.0000000001
44
0.0000000001
40
0
40
0
40
0
40
1
40
1
40
1
10
-26.721346578284084
20
-4.1616404827583908
30
0
10
-26.468031606360256
20
-4.1616404827583908
30
0
10
-26.259949407263576
20
-3.8449943836678147
30
0
0
SPLINE
5
222
100
AcDbEntity
8
0
100
AcDbSpline
70
0
71
2
72
6
73
3
74
0
42
0.000000001
43
0.0000000001
44
0.0000000001
40
0
40
0
40
0
40
1
40
1
40
1
10
-26.259949407263576
20
-3.8449943836678147
30
0
10
-26.051867208166897
20
-3.5283482845772385
30
0
10
-26.051867208166897
20
-3.1121838863838791
30
0
0
SPLINE
5
223
100
AcDbEntity
8
0
100
AcDbSpline
70
0
71
2
72
6
73
3
74
0
42
0.000000001
43
0.0000000001
44
0.0000000001
40
0
40
0
40
0
40
1
40
1
40
1
10
-26.051867208166897
20
-3.1121838863838791
30
0
10
-26.051867208166897
20
-2.5512672241676926
30
0
10
-26.449935636206447
20
-2.2255731400002121
30
0
0
SPLINE
5
224
100
AcDbEntity
8
0
100
AcDbSpline
70
0
71
2
72
6
73
3
74
0
42
0.000000001
43
0.0000000001
44
0.0000000001
40
0
40
0
40
0
40
1
40
1
40
1
10
-26.449935636206447
20
-2.2255731400002121
30
0
10
-26.848006448431789
20
-1.8998796518791794
30
0
10
-27.481298646612942
20
-1.8998796518791794
30
0
0
SPLINE
5
225
100
AcDbEntity
8
0
100
AcDbSpline
70
0
71
2
72
6
73
3
74
0
42
0.000000001
43
0.0000000001
44
0.0000000001
40
0
40
0
40
0
40
1
40
1
40
1
10
-27.481298646612942
20
-1.8998796518791794
30
0
10
-28.404097757025539
20
-1.8998796518791783
30
0
10
-28.96501322714883
20
-2.5150788601387597
30
0
0
SPLINE
5
226
100
AcDbEntity
8
0
100
AcDbSpline
70
0
71
2
72
6
73
3
74
0
42
0.000000001
43
0.0000000001
44
0.0000000001
40
0
40
0
40
0
40
1
40
1
40
1
10
-28.96501322714883
20
-2.5150788601387597
30
0
10
-29.525931081457912
20
-3.1302774723518945
30
0
10
-29.525931081457912
20
-4.1073585327614399
30
0
0
SPLINE
5
227
100
AcDbEntity
8
0
100
AcDbSpline
70
0
71
2
72
6
73
3
74
0
42
0.000000001
43
0.0000000001
44
0.0000000001
40
0
40
0
40
0
40
1
40
1
40
1
10
-29.525931081457912
20
-4.1073585327614399
30
0
10
-29.525931081457912
20
-4.8311222370613667
30
0
10
-29.227378568335354
20
-5.337756949280605
30
0
0
SPLINE
5
228
100
AcDbEntity
8
0
100
AcDbSpline
70
0
71
2
72
6
73
3
74
0
42
0.000000001
43
0.0000000001
44
0.0000000001
40
0
40
0
40
0
40
1
40
1
40
1
10
-29.227378568335354
20
-5.337756949280605
30
0
10
-28.928826055212795
20
-5.8443916614998432
30
0
10
-28.440287313147365
20
-6.1610377605904194
30
0
0
SPLINE
5
229
100
AcDbEntity
8
0
100
AcDbSpline
70
0
71
2
72
6
73
3
74
0
42
0.000000001
43
0.0000000001
44
0.0000000001
40
0
40
0
40
0
40
1
40
1
40
1
10
-28.440287313147365
20
-6.1610377605904194
30
0
10
-27.951746186896145
20
-6.4776838596809982
30
0
10
-27.33654757468301
20
-6.6224373157967209
30
0
0
SPLINE
5
230
100
AcDbEntity
8
0
100
AcDbSpline
70
0
71
2
72
6
73
3
74
0
42
0.000000001
43
0.0000000001
44
0.0000000001
40
0
40
0
40
0
40
1
40
1
40
1
10
-27.33654757468301
20
-6.6224373157967209
30
0
10
-26.721346578284084
20
-6.7671895798195481
30
0
10
-26.106147966070949
20
-6.7671895798195481
30
0
0
SPLINE
5
231
100
AcDbEntity
8
0
100
AcDbSpline
70
0
71
2
72
6
73
3
74
0
42
0.000000001
43
0.0000000001
44
0.0000000001
40
0
40
0
40
0
40
1
40
1
40
1
10
-26.106147966070949
20
-6.7671895798195481
30
0
10
-25.346195897742092
20
-6.7671895798195507
30
0
10
-24.721949300452053
20
-6.559107380722871
30
0
0
SPLINE
5
232
100
AcDbEntity
8
0
100
AcDbSpline
70
0
71
2
72
6
73
3
74
0
42
0.000000001
43
0.0000000001
44
0.0000000001
40
0
40
0
40
0
40
1
40
1
40
1
10
-24.721949300452053
20
-6.559107380722871
30
0
10
-24.097705087347805
20
-6.3510251816261913
30
0
10
-23.654399118109524
20
-5.9800971325386669
30
0
0
SPLINE
5
233
100
AcDbEntity
8
0
100
AcDbSpline
70
0
71
2
72
6
73
3
74
0
42
0.000000001
43
0.0000000001
44
0.0000000001
40
0
40
0
40
0
40
1
40
1
40
1
10
-23.654399118109524
20
-5.9800971325386669
30
0
10
-23.211095533057033
20
-5.609167891358247
30
0
10
-22.966823777838528
20
-5.0934863861549999
30
0
0
SPLINE
5
234
100
AcDbEntity
8
0
100
AcDbSpline
70
0
71
2
72
6
73
3
74
0
42
0.000000001
43
0.0000000001
44
0.0000000001
40
0
40
0
40
0
40
1
40
1
40
1
10
-22.966823777838528
20
-5.0934863861549999
30
0
10
-22.722554406805813
20
-4.5778048809517546
30
0
10
-22.722554406805813
20
-3.9445114906777068
30
0
0
SPLINE
5
235
100
AcDbEntity
8
0
100
AcDbSpline
70
0
71
2
72
6
73
3
74
0
42
0.000000001
43
0.0000000001
44
0.0000000001
40
0
40
0
40
0
40
1
40
1
40
1
10
-22.722554406805813
20
-3.9445114906777068
30
0
10
-22.722554406805813
20
-3.2750309284676238
30
0
10
-23.003013333960354
20
-2.6598311241615913
30
0
0
SPLINE
5
236
100
AcDbEntity
8
0
100
AcDbSpline
70
0
71
2
72
6
73
3
74
0
42
0.000000001
43
0.0000000001
44
0.0000000001
40
0
40
0
40
0
40
1
40
1
40
1
10
-23.003013333960354
20
-2.6598311241615913
30
0
10
-23.283469876929104
20
-2.0446325119484565
30
0
10
-23.708682260199367
20
-1.4927626427162788
30
0
0
SPLINE
5
237
100
AcDbEntity
8
0
100
AcDbSpline
70
0
71
2
72
6
73
3
74
0
42
0.000000001
43
0.0000000001
44
0.0000000001
40
0
40
0
40
0
40
1
40
1
40
1
10
-23.708682260199367
20
-1.4927626427162788
30
0
10
-24.13389225928384
20
-0.94089336953054881
30
0
10
-24.640526971503078
20
-0.44330545029531931
30
0
0
SPLINE
5
238
100
AcDbEntity
8
0
100
AcDbSpline
70
0
71
2
72
6
73
3
74
0
42
0.000000001
43
0.0000000001
44
0.0000000001
40
0
40
0
40
0
40
1
40
1
40
1
10
-24.640526971503078
20
-0.44330545029531931
30
0
10
-25.147161683722317
20
0.054281872893463534
30
0
10
-25.617606839819729
20
0.48853985705484049
30
0
0
SPLINE
5
239
100
AcDbEntity
8
0
100
AcDbSpline
70
0
71
2
72
6
73
3
74
0
42
0.000000001
43
0.0000000001
44
0.0000000001
40
0
40
0
40
0
40
1
40
1
40
1
10
-25.617606839819729
20
0.48853985705484049
30
0
10
-26.359465322180569
20
0.16284636893380888
30
0
10
-27.137510976477444
20
-6.7314993135170198e-07
30
0
0
SPLINE
5
240
100
AcDbEntity
8
0
100
AcDbSpline
70
0
71
2
72
6
73
3
74
0
42
0.000000001
43
0.0000000001
44
0.0000000001
40
0
40
0
40
0
40
1
40
1
40
1
10
-27.137510976477444
20
-6.7314993135170198e-07
30
0
10
-27.915556630774319
20
-0.16284711918722272
30
0
10
-28.675508699103176
20
-0.16284711918722272
30
0
0
SPLINE
5
241
100
AcDbEntity
8
0
100
AcDbSpline
70
0
71
2
72
6
73
3
74
0
42
0.000000001
43
0.0000000001
44
0.0000000001
40
0
40
0
40
0
40
1
40
1
40
1
10
-28.675508699103176
20
-0.16284711918722272
30
0
10
-29.272613725348293
20
-0.16284711918722161
30
0
10
-29.833531579657375
20
-0.054282623146877373
30
0
0
SPLINE
5
242
100
AcDbEntity
8
0
100
AcDbSpline
70
0
71
2
72
6
73
3
74
0
42
0.000000001
43
0.0000000001
44
0.0000000001
40
0
40
0
40
0
40
1
40
1
40
1
10
-29.833531579657375
20
-0.054282623146877373
30
0
10
-30.394447049780666
20
0.054281872893467975
30
0
10
-30.882988176031887
20
0.28950504698862178
30
0
0
SPLINE
5
243
100
AcDbEntity
8
0
100
AcDbSpline
70
0
71
2
72
6
73
3
74
0
42
0.000000001
43
0.0000000001
44
0.0000000001
40
0
40
0
40
0
40
1
40
1
40
1
10
-30.882988176031887
20
0.28950504698862178
30
0
10
-31.642940244360744
20
0.072376054907934417
30
0
10
-32.565739354773342
20
0.072376054907934417
30
0
0
SPLINE
5
244
100
AcDbEntity
8
0
100
AcDbSpline
70
0
71
2
72
6
73
3
74
0
42
0.000000001
43
0.0000000001
44
0.0000000001
40
0
40
0
40
0
40
1
40
1
40
1
10
-25.436666211767971
20
1.3570564214240421
30
0
10
-24.459586343451321
20
1.8817847196112969
30
0
10
-23.790104589148342
20
2.7141129199515679
30
0
0
SPLINE
5
245
100
AcDbEntity
8
0
100
AcDbSpline
70
0
71
2
72
6
73
3
74
0
42
0.000000001
43
0.0000000001
44
0.0000000001
40
0
40
0
40
0
40
1
40
1
40
1
10
-23.790104589148342
20
2.7141129199515679
30
0
10
-23.120625219031155
20
3.5464405242453898
30
0
10
-23.120625219031155
20
4.6863686267386759
30
0
0
SPLINE
5
246
100
AcDbEntity
8
0
100
AcDbSpline
70
0
71
2
72
6
73
3
74
0
42
0.000000001
43
0.0000000001
44
0.0000000001
40
0
40
0
40
0
40
1
40
1
40
1
10
-23.120625219031155
20
4.6863686267386759
30
0
10
-23.120625219031155
20
5.5729793731223429
30
0
10
-23.654399118109524
20
6.170084399367461
30
0
0
SPLINE
5
247
100
AcDbEntity
8
0
100
AcDbSpline
70
0
71
2
72
6
73
3
74
0
42
0.000000001
43
0.0000000001
44
0.0000000001
40
0
40
0
40
0
40
1
40
1
40
1
10
-23.654399118109524
20
6.170084399367461
30
0
10
-24.188175401373684
20
6.7671882335196827
30
0
10
-25.11097212760049
20
6.7671882335196845
30
0
0
SPLINE
5
248
100
AcDbEntity
8
0
100
AcDbSpline
70
0
71
2
72
6
73
3
74
0
42
0.000000001
43
0.0000000001
44
0.0000000001
40
0
40
0
40
0
40
1
40
1
40
1
10
-25.11097212760049
20
6.7671882335196845
30
0
10
-25.599515638037502
20
6.7671882335196845
30
0
10
-26.006629666968166
20
6.5772008124839179
30
0
0
SPLINE
5
249
100
AcDbEntity
8
0
100
AcDbSpline
70
0
71
2
72
6
73
3
74
0
42
0.000000001
43
0.0000000001
44
0.0000000001
40
0
40
0
40
0
40
1
40
1
40
1
10
-26.006629666968166
20
6.5772008124839179
30
0
10
-26.413748464270412
20
6.3872133914481521
30
0
10
-26.694205007239162
20
6.0705661002646805
30
0
0
SPLINE
5
250
100
AcDbEntity
8
0
100
AcDbSpline
70
0
71
2
72
6
73
3
74
0
42
0.000000001
43
0.0000000001
44
0.0000000001
40
0
40
0
40
0
40
1
40
1
40
1
10
-26.694205007239162
20
6.0705661002646805
30
0
10
-26.974663934393703
20
5.7539200011741043
30
0
10
-27.137510976477444
20
5.3287088099967361
30
0
0
SPLINE
5
251
100
AcDbEntity
8
0
100
AcDbSpline
70
0
71
2
72
6
73
3
74
0
42
0.000000001
43
0.0000000001
44
0.0000000001
40
0
40
0
40
0
40
1
40
1
40
1
10
-27.137510976477444
20
5.3287088099967361
30
0
10
-27.300358018561184
20
4.9034976188193689
30
0
10
-27.300358018561184
20
4.4149576846610437
30
0
0
SPLINE
5
252
100
AcDbEntity
8
0
100
AcDbSpline
70
0
71
2
72
6
73
3
74
0
42
0.000000001
43
0.0000000001
44
0.0000000001
40
0
40
0
40
0
40
1
40
1
40
1
10
-27.300358018561184
20
4.4149576846610437
30
0
10
-27.300358018561184
20
3.6188172523032551
30
0
10
-26.748488149329006
20
2.8769599620353103
30
0
0
SPLINE
5
253
100
AcDbEntity
8
0
100
AcDbSpline
70
0
71
2
72
6
73
3
74
0
42
0.000000001
43
0.0000000001
44
0.0000000001
40
0
40
0
40
0
40
1
40
1
40
1
10
-26.748488149329006
20
2.8769599620353103
30
0
10
-26.196620664282619
20
2.1351020757209174
30
0
10
-25.436666211767971
20
1.3570564214240421
30
0
0
SPLINE
5
254
100
AcDbEntity
8
0
100
AcDbSpline
70
0
71
2
72
6
73
3
74
0
42
0.000000001
43
0.0000000001
44
0.0000000001
40
0
40
0
40
0
40
1
40
1
40
1
10
-30.810611447974026
20
1.0856448832999621
30
0
10
-29.942095479651272
20
1.3932441894065284
30
0
10
-29.417367181464016
20
2.0084433976661109
30
0
0
SPLINE
5
255
100
AcDbEntity
8
0
100
AcDbSpline
70
0
71
2
72
6
73
3
74
0
42
0.000000001
43
0.0000000001
44
0.0000000001
40
0
40
0
40
0
40
1
40
1
40
1
10
-29.417367181464016
20
2.0084433976661109
30
0
10
-28.89263888327676
20
2.6236426059256921
30
0
10
-28.89263888327676
20
3.4378766242514986
30
0
0
SPLINE
5
256
100
AcDbEntity
8
0
100
AcDbSpline
70
0
71
2
72
6
73
3
74
0
42
0.000000001
43
0.0000000001
44
0.0000000001
40
0
40
0
40
0
40
1
40
1
40
1
10
-28.89263888327676
20
3.4378766242514986
30
0
10
-28.89263888327676
20
4.0892636004935641
30
0
10
-29.227378568335354
20
4.4782864276420016
30
0
0
SPLINE
5
257
100
AcDbEntity
8
0
100
AcDbSpline
70
0
71
2
72
6
73
3
74
0
42
0.000000001
43
0.0000000001
44
0.0000000001
40
0
40
0
40
0
40
1
40
1
40
1
10
-29.227378568335354
20
4.4782864276420016
30
0
10
-29.562118253393947
20
4.86730925479044
30
0
10
-30.141129693671047
20
4.86730925479044
30
0
0
SPLINE
5
258
100
AcDbEntity
8
0
100
AcDbSpline
70
0
71
2
72
6
73
3
74
0
42
0.000000001
43
0.0000000001
44
0.0000000001
40
0
40
0
40
0
40
1
40
1
40
1
10
-30.141129693671047
20
4.86730925479044
30
0
10
-30.846798619910061
20
4.8673092547904409
30
0
10
-31.290104589148342
20
4.3154393855582631
30
0
0
SPLINE
5
259
100
AcDbEntity
8
0
100
AcDbSpline
70
0
71
2
72
6
73
3
74
0
42
0.000000001
43
0.0000000001
44
0.0000000001
40
0
40
0
40
0
40
1
40
1
40
1
10
-31.290104589148342
20
4.3154393855582631
30
0
10
-31.733410558386623
20
3.7635695163260858
30
0
10
-31.733410558386623
20
2.8769599620353148
30
0
0
SPLINE
5
260
100
AcDbEntity
8
0
100
AcDbSpline
70
0
71
2
72
6
73
3
74
0
42
0.000000001
43
0.0000000001
44
0.0000000001
40
0
40
0
40
0
40
1
40
1
40
1
10
-31.733410558386623
20
2.8769599620353148
30
0
10
-31.733410558386623
20
2.2255723897468016
30
0
10
-31.480093202277004
20
1.7913144055854235
30
0
0
SPLINE
5
261
100
AcDbEntity
8
0
100
AcDbSpline
70
0
71
2
72
6
73
3
74
0
42
0.000000001
43
0.0000000001
44
0.0000000001
40
0
40
0
40
0
40
1
40
1
40
1
10
-31.480093202277004
20
1.7913144055854235
30
0
10
-31.226775846167385
20
1.3570564214240466
30
0
10
-30.810611447974026
20
1.0856448832999621
30
0
0
SPLINE
5
262
100
AcDbEntity
8
0
100
AcDbSpline
70
0
71
2
72
6
73
3
74
0
42
0.000000001
43
0.0000000001
44
0.0000000001
40
0
40
0
40
0
40
1
40
1
40
1
10
-17.16405173270303
20
-7.4909532841194837
30
0
10
-17.779247960730373
20
-7.490953284119481
30
0
10
-18.195412358923733
20
-7.1833539780129136
30
0
0
SPLINE
5
263
100
AcDbEntity
8
0
100
AcDbSpline
70
0
71
2
72
6
73
3
74
0
42
0.000000001
43
0.0000000001
44
0.0000000001
40
0
40
0
40
0
40
1
40
1
40
1
10
-18.195412358923733
20
-7.1833539780129136
30
0
10
-18.611576757117092
20
-6.8757546719063463
30
0
10
-18.855846128149807
20
-6.4053083237160386
30
0
0
SPLINE
5
264
100
AcDbEntity
8
0
100
AcDbSpline
70
0
71
2
72
6
73
3
74
0
42
0.000000001
43
0.0000000001
44
0.0000000001
40
0
40
0
40
0
40
1
40
1
40
1
10
-18.855846128149807
20
-6.4053083237160386
30
0
10
-19.100115499182522
20
-5.934861975525731
30
0
10
-19.199636182471096
20
-5.3739453133095445
30
0
0
SPLINE
5
265
100
AcDbEntity
8
0
100
AcDbSpline
70
0
71
2
72
6
73
3
74
0
42
0.000000001
43
0.0000000001
44
0.0000000001
40
0
40
0
40
0
40
1
40
1
40
1
10
-19.199636182471096
20
-5.3739453133095445
30
0
10
-19.299152097388088
20
-4.813028651093358
30
0
10
-19.299152097388088
20
-4.3244875248421373
30
0
0
SPLINE
5
266
100
AcDbEntity
8
0
100
AcDbSpline
70
0
71
2
72
6
73
3
74
0
42
0.000000001
43
0.0000000001
44
0.0000000001
40
0
40
0
40
0
40
1
40
1
40
1
10
-19.299152097388088
20
-4.3244875248421373
30
0
10
-19.299152097388088
20
-3.8902295406807608
30
0
10
-19.208681783362209
20
-3.2840777214516348
30
0
0
SPLINE
5
267
100
AcDbEntity
8
0
100
AcDbSpline
70
0
71
2
72
6
73
3
74
0
42
0.000000001
43
0.0000000001
44
0.0000000001
40
0
40
0
40
0
40
1
40
1
40
1
10
-19.208681783362209
20
-3.2840777214516348
30
0
10
-19.11821146933633
20
-2.6779259022225088
30
0
10
-18.882987699194729
20
-2.1351040180672354
30
0
0
SPLINE
5
268
100
AcDbEntity
8
0
100
AcDbSpline
70
0
71
2
72
6
73
3
74
0
42
0.000000001
43
0.0000000001
44
0.0000000001
40
0
40
0
40
0
40
1
40
1
40
1
10
-18.882987699194729
20
-2.1351040180672354
30
0
10
-18.647763929053127
20
-1.5922809418190664
30
0
10
-18.25874110190469
20
-1.2123049076546377
30
0
0
SPLINE
5
269
100
AcDbEntity
8
0
100
AcDbSpline
70
0
71
2
72
6
73
3
74
0
42
0.000000001
43
0.0000000001
44
0.0000000001
40
0
40
0
40
0
40
1
40
1
40
1
10
-18.25874110190469
20
-1.2123049076546377
30
0
10
-17.869718274756252
20
-0.83232887349021012
30
0
10
-17.290709218664944
20
-0.83232887349021012
30
0
0
SPLINE
5
270
100
AcDbEntity
8
0
100
AcDbSpline
70
0
71
2
72
6
73
3
74
0
42
0.000000001
43
0.0000000001
44
0.0000000001
40
0
40
0
40
0
40
1
40
1
40
1
10
-17.290709218664944
20
-0.83232887349021012
30
0
10
-16.711695394202053
20
-0.83232887349021123
30
0
10
-16.413147649451076
20
-1.2123049076546399
30
0
0
SPLINE
5
271
100
AcDbEntity
8
0
100
AcDbSpline
70
0
71
2
72
6
73
3
74
0
42
0.000000001
43
0.0000000001
44
0.0000000001
40
0
40
0
40
0
40
1
40
1
40
1
10
-16.413147649451076
20
-1.2123049076546399
30
0
10
-16.114590367956936
20
-1.5922809418190687
30
0
10
-16.114590367956936
20
-2.1170092400063245
30
0
0
SPLINE
5
272
100
AcDbEntity
8
0
100
AcDbSpline
70
0
71
2
72
6
73
3
74
0
42
0.000000001
43
0.0000000001
44
0.0000000001
40
0
40
0
40
0
40
1
40
1
40
1
10
-16.114590367956936
20
-2.1170092400063245
30
0
10
-16.114590367956936
20
-2.3522318180550306
30
0
10
-16.16887351004678
20
-2.6236439522255628
30
0
0
SPLINE
5
273
100
AcDbEntity
8
0
100
AcDbSpline
70
0
71
2
72
6
73
3
74
0
42
0.000000001
43
0.0000000001
44
0.0000000001
40
0
40
0
40
0
40
1
40
1
40
1
10
-16.16887351004678
20
-2.6236439522255628
30
0
10
-16.25934859244424
20
-2.8769613083351819
30
0
10
-16.530754766150295
20
-2.8769613083351819
30
0
0
SPLINE
5
274
100
AcDbEntity
8
0
100
AcDbSpline
70
0
71
2
72
6
73
3
74
0
42
0.000000001
43
0.0000000001
44
0.0000000001
40
0
40
0
40
0
40
1
40
1
40
1
10
-16.530754766150295
20
-2.8769613083351819
30
0
10
-16.765978536291897
20
-2.8769613083351819
30
0
10
-16.82026167838174
20
-2.7503026302803724
30
0
0
SPLINE
5
275
100
AcDbEntity
8
0
100
AcDbSpline
70
0
71
2
72
6
73
3
74
0
42
0.000000001
43
0.0000000001
44
0.0000000001
40
0
40
0
40
0
40
1
40
1
40
1
10
-16.82026167838174
20
-2.7503026302803724
30
0
10
-16.874544820471584
20
-2.6236439522255628
30
0
10
-16.874544820471584
20
-2.4427021320809095
30
0
0
SPLINE
5
276
100
AcDbEntity
8
0
100
AcDbSpline
70
0
71
2
72
6
73
3
74
0
42
0.000000001
43
0.0000000001
44
0.0000000001
40
0
40
0
40
0
40
1
40
1
40
1
10
-16.874544820471584
20
-2.4427021320809095
30
0
10
-16.838357648535549
20
-2.3522318180550306
30
0
10
-16.838357648535549
20
-2.270809489106056
30
0
0
SPLINE
5
277
100
AcDbEntity
8
0
100
AcDbSpline
70
0
71
2
72
6
73
3
74
0
42
0.000000001
43
0.0000000001
44
0.0000000001
40
0
40
0
40
0
40
1
40
1
40
1
10
-16.838357648535549
20
-2.270809489106056
30
0
10
-16.838357648535549
20
-2.1893847759712903
30
0
10
-16.838357648535549
20
-2.0989144619454114
30
0
0
SPLINE
5
278
100
AcDbEntity
8
0
100
AcDbSpline
70
0
71
2
72
6
73
3
74
0
42
0.000000001
43
0.0000000001
44
0.0000000001
40
0
40
0
40
0
40
1
40
1
40
1
10
-16.838357648535549
20
-2.0989144619454114
30
0
10
-16.838357648535549
20
-1.8455977018822389
30
0
10
-16.928827962561428
20
-1.7008454378594118
30
0
0
SPLINE
5
279
100
AcDbEntity
8
0
100
AcDbSpline
70
0
71
2
72
6
73
3
74
0
42
0.000000001
43
0.0000000001
44
0.0000000001
40
0
40
0
40
0
40
1
40
1
40
1
10
-16.928827962561428
20
-1.7008454378594118
30
0
10
-17.019298276587307
20
-1.5560925777901369
30
0
10
-17.290709218664944
20
-1.5560925777901369
30
0
0
SPLINE
5
280
100
AcDbEntity
8
0
100
AcDbSpline
70
0
71
2
72
6
73
3
74
0
42
0.000000001
43
0.0000000001
44
0.0000000001
40
0
40
0
40
0
40
1
40
1
40
1
10
-17.290709218664944
20
-1.5560925777901369
30
0
10
-17.670681676550686
20
-1.5560925777901369
30
0
10
-17.914955815954983
20
-1.8908328588951784
30
0
0
SPLINE
5
281
100
AcDbEntity
8
0
100
AcDbSpline
70
0
71
2
72
6
73
3
74
0
42
0.000000001
43
0.0000000001
44
0.0000000001
40
0
40
0
40
0
40
1
40
1
40
1
10
-17.914955815954983
20
-1.8908328588951784
30
0
10
-18.159225186987697
20
-2.2255743320931143
30
0
10
-18.30397864310342
20
-2.6869726952065176
30
0
0
SPLINE
5
282
100
AcDbEntity
8
0
100
AcDbSpline
70
0
71
2
72
6
73
3
74
0
42
0.000000001
43
0.0000000001
44
0.0000000001
40
0
40
0
40
0
40
1
40
1
40
1
10
-18.30397864310342
20
-2.6869726952065176
30
0
10
-18.448727330847561
20
-3.1483722504128164
30
0
10
-18.5120608422001
20
-3.6097718056191153
30
0
0
SPLINE
5
283
100
AcDbEntity
8
0
100
AcDbSpline
70
0
71
2
72
6
73
3
74
0
42
0.000000001
43
0.0000000001
44
0.0000000001
40
0
40
0
40
0
40
1
40
1
40
1
10
-18.5120608422001
20
-3.6097718056191153
30
0
10
-18.575389585181057
20
-4.0711701687325181
30
0
10
-18.575389585181057
20
-4.3244875248421373
30
0
0
SPLINE
5
284
100
AcDbEntity
8
0
100
AcDbSpline
70
0
71
2
72
6
73
3
74
0
42
0.000000001
43
0.0000000001
44
0.0000000001
40
0
40
0
40
0
40
1
40
1
40
1
10
-18.575389585181057
20
-4.3244875248421373
30
0
10
-18.575389585181057
20
-4.6501816090096177
30
0
10
-18.521106443091213
20
-5.0753928001869859
30
0
0
SPLINE
5
285
100
AcDbEntity
8
0
100
AcDbSpline
70
0
71
2
72
6
73
3
74
0
42
0.000000001
43
0.0000000001
44
0.0000000001
40
0
40
0
40
0
40
1
40
1
40
1
10
-18.521106443091213
20
-5.0753928001869859
30
0
10
-18.466823301001369
20
-5.5006039913643541
30
0
10
-18.30397864310342
20
-5.8715320404518785
30
0
0
SPLINE
5
286
100
AcDbEntity
8
0
100
AcDbSpline
70
0
71
2
72
6
73
3
74
0
42
0.000000001
43
0.0000000001
44
0.0000000001
40
0
40
0
40
0
40
1
40
1
40
1
10
-18.30397864310342
20
-5.8715320404518785
30
0
10
-18.141129216833889
20
-6.2424612816322984
30
0
10
-17.869718274756252
20
-6.5048254307259263
30
0
0
SPLINE
5
287
100
AcDbEntity
8
0
100
AcDbSpline
70
0
71
2
72
6
73
3
74
0
42
0.000000001
43
0.0000000001
44
0.0000000001
40
0
40
0
40
0
40
1
40
1
40
1
10
-17.869718274756252
20
-6.5048254307259263
30
0
10
-17.598307332678615
20
-6.7671895798195543
30
0
10
-17.16405173270303
20
-6.7671895798195569
30
0
0
SPLINE
5
288
100
AcDbEntity
8
0
100
AcDbSpline
70
0
71
2
72
6
73
3
74
0
42
0.000000001
43
0.0000000001
44
0.0000000001
40
0
40
0
40
0
40
1
40
1
40
1
10
-17.16405173270303
20
-6.7671895798195569
30
0
10
-16.440289220495998
20
-6.7671895798195569
30
0
10
-15.825088224097072
20
-6.2876964386452405
30
0
0
SPLINE
5
289
100
AcDbEntity
8
0
100
AcDbSpline
70
0
71
2
72
6
73
3
74
0
42
0.000000001
43
0.0000000001
44
0.0000000001
40
0
40
0
40
0
40
1
40
1
40
1
10
-15.825088224097072
20
-6.2876964386452405
30
0
10
-15.209887227698147
20
-5.8082032974709241
30
0
10
-14.70325728385049
20
-5.1115811642159219
30
0
0
SPLINE
5
290
100
AcDbEntity
8
0
100
AcDbSpline
70
0
71
2
72
6
73
3
74
0
42
0.000000001
43
0.0000000001
44
0.0000000001
40
0
40
0
40
0
40
1
40
1
40
1
10
-14.70325728385049
20
-5.1115811642159219
30
0
10
-14.19661780325967
20
-4.4149578388680215
30
0
10
-13.816645345373928
20
-3.6550069626320592
30
0
0
SPLINE
5
291
100
AcDbEntity
8
0
100
AcDbSpline
70
0
71
2
72
6
73
3
74
0
42
0.000000001
43
0.0000000001
44
0.0000000001
40
0
40
0
40
0
40
1
40
1
40
1
10
-13.816645345373928
20
-3.6550069626320592
30
0
10
-13.436668119116604
20
-2.8950548943032017
30
0
10
-13.201444348975002
20
-2.3341382320870152
30
0
0
SPLINE
5
292
100
AcDbEntity
8
0
100
AcDbSpline
70
0
71
2
72
6
73
3
74
0
42
0.000000001
43
0.0000000001
44
0.0000000001
40
0
40
0
40
0
40
1
40
1
40
1
10
-13.201444348975002
20
-2.3341382320870152
30
0
10
-13.092882833166897
20
-2.1351040180672398
30
0
10
-12.875750264807522
20
-2.1351040180672398
30
0
0
SPLINE
5
293
100
AcDbEntity
8
0
100
AcDbSpline
70
0
71
2
72
6
73
3
74
0
42
0.000000001
43
0.0000000001
44
0.0000000001
40
0
40
0
40
0
40
1
40
1
40
1
10
-12.875750264807522
20
-2.1351040180672398
30
0
10
-12.731001577063381
20
-2.1351040180672398
30
0
10
-12.622435292883694
20
-2.2436679180611363
30
0
0
SPLINE
5
294
100
AcDbEntity
8
0
100
AcDbSpline
70
0
71
2
72
6
73
3
74
0
42
0.000000001
43
0.0000000001
44
0.0000000001
40
0
40
0
40
0
40
1
40
1
40
1
10
-12.622435292883694
20
-2.2436679180611363
30
0
10
-12.513869008704006
20
-2.3522318180550328
30
0
10
-12.513869008704006
20
-2.4969852741707554
30
0
0
SPLINE
5
295
100
AcDbEntity
8
0
100
AcDbSpline
70
0
71
2
72
6
73
3
74
0
42
0.000000001
43
0.0000000001
44
0.0000000001
40
0
40
0
40
0
40
1
40
1
40
1
10
-12.513869008704006
20
-2.4969852741707554
30
0
10
-12.513869008704006
20
-2.5512672241677037
30
0
10
-12.550060949011623
20
-2.6598323162544957
30
0
0
SPLINE
5
296
100
AcDbEntity
8
0
100
AcDbSpline
70
0
71
2
72
6
73
3
74
0
42
0.000000001
43
0.0000000001
44
0.0000000001
40
0
40
0
40
0
40
1
40
1
40
1
10
-12.550060949011623
20
-2.6598323162544957
30
0
10
-12.966220578833401
20
-3.4740651424874058
30
0
10
-13.355243405981838
20
-4.2611587818611856
30
0
0
SPLINE
5
297
100
AcDbEntity
8
0
100
AcDbSpline
70
0
71
2
72
6
73
3
74
0
42
0.000000001
43
0.0000000001
44
0.0000000001
40
0
40
0
40
0
40
1
40
1
40
1
10
-13.355243405981838
20
-4.2611587818611856
30
0
10
-13.744271001501858
20
-5.0482512291420694
30
0
10
-14.305184087439358
20
-5.7720149334419961
30
0
0
SPLINE
5
298
100
AcDbEntity
8
0
100
AcDbSpline
70
0
71
2
72
6
73
3
74
0
42
0.000000001
43
0.0000000001
44
0.0000000001
40
0
40
0
40
0
40
1
40
1
40
1
10
-14.305184087439358
20
-5.7720149334419961
30
0
10
-15.60796042410928
20
-7.4909532841194837
30
0
10
-17.16405173270303
20
-7.4909532841194837
30
0
0
SPLINE
5
299
100
AcDbEntity
8
0
100
AcDbSpline
70
0
71
2
72
6
73
3
74
0
42
0.000000001
43
0.0000000001
44
0.0000000001
40
0
40
0
40
0
40
1
40
1
40
1
10
-12.148373326941311
20
-0.7961405094612839
30
0
10
-11.786492070837795
20
-0.30759997925651095
30
0
10
-11.397469243689358
20
0.33474020400154458
30
0
0
SPLINE
5
300
100
AcDbEntity
8
0
100
AcDbSpline
70
0
71
2
72
6
73
3
74
0
42
0.000000001
43
0.0000000001
44
0.0000000001
40
0
40
0
40
0
40
1
40
1
40
1
10
-11.397469243689358
20
0.33474020400154458
30
0
10
-11.00844641654092
20
0.97708038725960122
30
0
10
-10.682747564001858
20
1.6737025205146061
30
0
0
SPLINE
5
301
100
AcDbEntity
8
0
100
AcDbSpline
70
0
71
2
72
6
73
3
74
0
42
0.000000001
43
0.0000000001
44
0.0000000001
40
0
40
0
40
0
40
1
40
1
40
1
10
-10.682747564001858
20
1.6737025205146061
30
0
10
-10.357058248205959
20
2.3703252498160587
30
0
10
-10.14897604910928
20
3.0850421611319763
30
0
0
SPLINE
5
302
100
AcDbEntity
8
0
100
AcDbSpline
70
0
71
2
72
6
73
3
74
0
42
0.000000001
43
0.0000000001
44
0.0000000001
40
0
40
0
40
0
40
1
40
1
40
1
10
-10.14897604910928
20
3.0850421611319763
30
0
10
-9.9408938500125998
20
3.7997590724478942
30
0
10
-9.9408938500125998
20
4.4511460486899592
30
0
0
SPLINE
5
303
100
AcDbEntity
8
0
100
AcDbSpline
70
0
71
2
72
6
73
3
74
0
42
0.000000001
43
0.0000000001
44
0.0000000001
40
0
40
0
40
0
40
1
40
1
40
1
10
-9.9408938500125998
20
4.4511460486899592
30
0
10
-9.9408938500125998
20
4.5597099486838557
30
0
10
-9.9589850517948264
20
4.7135101977835872
30
0
0
SPLINE
5
304
100
AcDbEntity
8
0
100
AcDbSpline
70
0
71
2
72
6
73
3
74
0
42
0.000000001
43
0.0000000001
44
0.0000000001
40
0
40
0
40
0
40
1
40
1
40
1
10
-9.9589850517948264
20
4.7135101977835872
30
0
10
-9.977081021948635
20
4.8673104468833186
30
0
10
-10.022318563147365
20
5.0120627109061466
30
0
0
SPLINE
5
305
100
AcDbEntity
8
0
100
AcDbSpline
70
0
71
2
72
6
73
3
74
0
42
0.000000001
43
0.0000000001
44
0.0000000001
40
0
40
0
40
0
40
1
40
1
40
1
10
-10.022318563147365
20
5.0120627109061466
30
0
10
-10.067551335974514
20
5.1568149749289738
30
0
10
-10.14897604910928
20
5.2653800670157658
30
0
0
SPLINE
5
306
100
AcDbEntity
8
0
100
AcDbSpline
70
0
71
2
72
6
73
3
74
0
42
0.000000001
43
0.0000000001
44
0.0000000001
40
0
40
0
40
0
40
1
40
1
40
1
10
-10.14897604910928
20
5.2653800670157658
30
0
10
-10.230400762244045
20
5.3739439670096623
30
0
10
-10.375149449988186
20
5.3739439670096623
30
0
0
SPLINE
5
307
100
AcDbEntity
8
0
100
AcDbSpline
70
0
71
2
72
6
73
3
74
0
42
0.000000001
43
0.0000000001
44
0.0000000001
40
0
40
0
40
0
40
1
40
1
40
1
10
-10.375149449988186
20
5.3739439670096623
30
0
10
-10.664656362219631
20
5.3739439670096623
30
0
10
-10.908925733252346
20
4.9668275538932072
30
0
0
SPLINE
5
308
100
AcDbEntity
8
0
100
AcDbSpline
70
0
71
2
72
6
73
3
74
0
42
0.000000001
43
0.0000000001
44
0.0000000001
40
0
40
0
40
0
40
1
40
1
40
1
10
-10.908925733252346
20
4.9668275538932072
30
0
10
-11.153195104285061
20
4.5597099486838575
30
0
10
-11.352231702490627
20
3.9354645434867135
30
0
0
SPLINE
5
309
100
AcDbEntity
8
0
100
AcDbSpline
70
0
71
2
72
6
73
3
74
0
42
0.000000001
43
0.0000000001
44
0.0000000001
40
0
40
0
40
0
40
1
40
1
40
1
10
-11.352231702490627
20
3.9354645434867135
30
0
10
-11.551268300696194
20
3.3112179461966744
30
0
10
-11.696016988440334
20
2.5693606559287305
30
0
0
SPLINE
5
310
100
AcDbEntity
8
0
100
AcDbSpline
70
0
71
2
72
6
73
3
74
0
42
0.000000001
43
0.0000000001
44
0.0000000001
40
0
40
0
40
0
40
1
40
1
40
1
10
-11.696016988440334
20
2.5693606559287305
30
0
10
-11.840775212927639
20
1.8275021735678909
30
0
10
-11.931240758581936
20
1.1399268332968948
30
0
0
SPLINE
5
311
100
AcDbEntity
8
0
100
AcDbSpline
70
0
71
2
72
6
73
3
74
0
42
0.000000001
43
0.0000000001
44
0.0000000001
40
0
40
0
40
0
40
1
40
1
40
1
10
-11.931240758581936
20
1.1399268332968948
30
0
10
-12.021715840979397
20
0.45235149302589872
30
0
10
-12.075994214697658
20
-0.081424194191813681
30
0
0
SPLINE
5
312
100
AcDbEntity
8
0
100
AcDbSpline
70
0
71
2
72
6
73
3
74
0
42
0.000000001
43
0.0000000001
44
0.0000000001
40
0
40
0
40
0
40
1
40
1
40
1
10
-12.075994214697658
20
-0.081424194191813681
30
0
10
-12.130277356787502
20
-0.61519988140952608
30
0
10
-12.148373326941311
20
-0.7961405094612839
30
0
0
SPLINE
5
313
100
AcDbEntity
8
0
100
AcDbSpline
70
0
71
2
72
6
73
3
74
0
42
0.000000001
43
0.0000000001
44
0.0000000001
40
0
40
0
40
0
40
1
40
1
40
1
10
-7.6067568871219748
20
-7.4909532841194899
30
0
10
-8.0410124870975608
20
-7.4909532841194899
30
0
10
-8.2852866265018577
20
-7.2828710850228102
30
0
0
SPLINE
5
314
100
AcDbEntity
8
0
100
AcDbSpline
70
0
71
2
72
6
73
3
74
0
42
0.000000001
43
0.0000000001
44
0.0000000001
40
0
40
0
40
0
40
1
40
1
40
1
10
-8.2852866265018577
20
-7.2828710850228102
30
0
10
-8.5295512291629905
20
-7.0747888859261305
30
0
10
-8.6562087151249045
20
-6.7490959938515456
30
0
0
SPLINE
5
315
100
AcDbEntity
8
0
100
AcDbSpline
70
0
71
2
72
6
73
3
74
0
42
0.000000001
43
0.0000000001
44
0.0000000001
40
0
40
0
40
0
40
1
40
1
40
1
10
-8.6562087151249045
20
-6.7490959938515456
30
0
10
-8.7828709694584006
20
-6.4234019096840651
30
0
10
-8.8190581413944358
20
-6.0524726685036452
30
0
0
SPLINE
5
316
100
AcDbEntity
8
0
100
AcDbSpline
70
0
71
2
72
6
73
3
74
0
42
0.000000001
43
0.0000000001
44
0.0000000001
40
0
40
0
40
0
40
1
40
1
40
1
10
-8.8190581413944358
20
-6.0524726685036452
30
0
10
-8.855250081702053
20
-5.6815446194161208
30
0
10
-8.855250081702053
20
-5.3558505352486403
30
0
0
SPLINE
5
317
100
AcDbEntity
8
0
100
AcDbSpline
70
0
71
2
72
6
73
3
74
0
42
0.000000001
43
0.0000000001
44
0.0000000001
40
0
40
0
40
0
40
1
40
1
40
1
10
-8.855250081702053
20
-5.3558505352486403
30
0
10
-8.855250081702053
20
-5.0844395931710036
30
0
10
-8.8461997124393577
20
-4.7949338730324538
30
0
0
SPLINE
5
318
100
AcDbEntity
8
0
100
AcDbSpline
70
0
71
2
72
6
73
3
74
0
42
0.000000001
43
0.0000000001
44
0.0000000001
40
0
40
0
40
0
40
1
40
1
40
1
10
-8.8461997124393577
20
-4.7949338730324538
30
0
10
-8.8371493431766623
20
-4.505428152893904
30
0
10
-8.8190581413944358
20
-4.1978288467873366
30
0
0
SPLINE
5
319
100
AcDbEntity
8
0
100
AcDbSpline
70
0
71
2
72
6
73
3
74
0
42
0.000000001
43
0.0000000001
44
0.0000000001
40
0
40
0
40
0
40
1
40
1
40
1
10
-8.8190581413944358
20
-4.1978288467873366
30
0
10
-8.8009669396122092
20
-3.9083231266487872
30
0
10
-8.7828709694584006
20
-3.6188185986031329
30
0
0
SPLINE
5
320
100
AcDbEntity
8
0
100
AcDbSpline
70
0
71
2
72
6
73
3
74
0
42
0.000000001
43
0.0000000001
44
0.0000000001
40
0
40
0
40
0
40
1
40
1
40
1
10
-8.7828709694584006
20
-3.6188185986031329
30
0
10
-8.764774999304592
20
-3.3293128784645831
30
0
10
-8.764774999304592
20
-3.0398071583260333
30
0
0
SPLINE
5
321
100
AcDbEntity
8
0
100
AcDbSpline
70
0
71
2
72
6
73
3
74
0
42
0.000000001
43
0.0000000001
44
0.0000000001
40
0
40
0
40
0
40
1
40
1
40
1
10
-8.764774999304592
20
-3.0398071583260333
30
0
10
-8.764774999304592
20
-2.8950548943032062
30
0
10
-8.7738253685672873
20
-2.641737538193587
30
0
0
SPLINE
5
322
100
AcDbEntity
8
0
100
AcDbSpline
70
0
71
2
72
6
73
3
74
0
42
0.000000001
43
0.0000000001
44
0.0000000001
40
0
40
0
40
0
40
1
40
1
40
1
10
-8.7738253685672873
20
-2.641737538193587
30
0
10
-8.7828709694584006
20
-2.3884201820839679
30
0
10
-8.8371493431766623
20
-2.1531976040352618
30
0
0
SPLINE
5
323
100
AcDbEntity
8
0
100
AcDbSpline
70
0
71
2
72
6
73
3
74
0
42
0.000000001
43
0.0000000001
44
0.0000000001
40
0
40
0
40
0
40
1
40
1
40
1
10
-8.8371493431766623
20
-2.1531976040352618
30
0
10
-8.8914324852665061
20
-1.9179738338936592
30
0
10
-9.0090491387088889
20
-1.7460799988259101
30
0
0
SPLINE
5
324
100
AcDbEntity
8
0
100
AcDbSpline
70
0
71
2
72
6
73
3
74
0
42
0.000000001
43
0.0000000001
44
0.0000000001
40
0
40
0
40
0
40
1
40
1
40
1
10
-9.0090491387088889
20
-1.7460799988259101
30
0
10
-9.1266562554081077
20
-1.5741861637581611
30
0
10
-9.3437888237674827
20
-1.5741861637581611
30
0
0
SPLINE
5
325
100
AcDbEntity
8
0
100
AcDbSpline
70
0
71
2
72
6
73
3
74
0
42
0.000000001
43
0.0000000001
44
0.0000000001
40
0
40
0
40
0
40
1
40
1
40
1
10
-9.3437888237674827
20
-1.5741861637581611
30
0
10
-9.5971037956913108
20
-1.5741861637581611
30
0
10
-9.8866107079227561
20
-1.9360680159081245
30
0
0
SPLINE
5
326
100
AcDbEntity
8
0
100
AcDbSpline
70
0
71
2
72
6
73
3
74
0
42
0.000000001
43
0.0000000001
44
0.0000000001
40
0
40
0
40
0
40
1
40
1
40
1
10
-9.8866107079227561
20
-1.9360680159081245
30
0
10
-10.176117620154201
20
-2.2979498680580868
30
0
10
-10.456574163122951
20
-2.8498197372902645
30
0
0
SPLINE
5
327
100
AcDbEntity
8
0
100
AcDbSpline
70
0
71
2
72
6
73
3
74
0
42
0.000000001
43
0.0000000001
44
0.0000000001
40
0
40
0
40
0
40
1
40
1
40
1
10
-10.456574163122951
20
-2.8498197372902645
30
0
10
-10.737030706091701
20
-3.4016896065224422
30
0
10
-11.00844641654092
20
-4.0802181538094295
30
0
0
SPLINE
5
328
100
AcDbEntity
8
0
100
AcDbSpline
70
0
71
2
72
6
73
3
74
0
42
0.000000001
43
0.0000000001
44
0.0000000001
40
0
40
0
40
0
40
1
40
1
40
1
10
-11.00844641654092
20
-4.0802181538094295
30
0
10
-11.279852590246975
20
-4.7587455090035213
30
0
10
-11.49698515860635
20
-5.3920388992775692
30
0
0
SPLINE
5
329
100
AcDbEntity
8
0
100
AcDbSpline
70
0
71
2
72
6
73
3
74
0
42
0.000000001
43
0.0000000001
44
0.0000000001
40
0
40
0
40
0
40
1
40
1
40
1
10
-11.49698515860635
20
-5.3920388992775692
30
0
10
-11.714112958594143
20
-6.025332289551617
30
0
10
-11.876957616492092
20
-6.5319670017708553
30
0
0
SPLINE
5
330
100
AcDbEntity
8
0
100
AcDbSpline
70
0
71
2
72
6
73
3
74
0
42
0.000000001
43
0.0000000001
44
0.0000000001
40
0
40
0
40
0
40
1
40
1
40
1
10
-11.876957616492092
20
-6.5319670017708553
30
0
10
-12.039807042761623
20
-7.0386005218971981
30
0
10
-12.094090184851467
20
-7.2557307060707821
30
0
0
SPLINE
5
331
100
AcDbEntity
8
0
100
AcDbSpline
70
0
71
2
72
6
73
3
74
0
42
0.000000001
43
0.0000000001
44
0.0000000001
40
0
40
0
40
0
40
1
40
1
40
1
10
-12.094090184851467
20
-7.2557307060707821
30
0
10
-12.130277356787502
20
-7.3642946060646768
30
0
10
-12.229798040076076
20
-7.4366713341225381
30
0
0
SPLINE
5
332
100
AcDbEntity
8
0
100
AcDbSpline
70
0
71
2
72
6
73
3
74
0
42
0.000000001
43
0.0000000001
44
0.0000000001
40
0
40
0
40
0
40
1
40
1
40
1
10
-12.229798040076076
20
-7.4366713341225381
30
0
10
-12.329313954993069
20
-7.5090468700875039
30
0
10
-12.437875470801174
20
-7.5090468700875039
30
0
0
SPLINE
5
333
100
AcDbEntity
8
0
100
AcDbSpline
70
0
71
2
72
6
73
3
74
0
42
0.000000001
43
0.0000000001
44
0.0000000001
40
0
40
0
40
0
40
1
40
1
40
1
10
-12.437875470801174
20
-7.5090468700875039
30
0
10
-12.727382383032619
20
-7.5090468700875039
30
0
10
-12.799761495276272
20
-7.2195423420418496
30
0
0
SPLINE
5
334
100
AcDbEntity
8
0
100
AcDbSpline
70
0
71
2
72
6
73
3
74
0
42
0.000000001
43
0.0000000001
44
0.0000000001
40
0
40
0
40
0
40
1
40
1
40
1
10
-12.799761495276272
20
-7.2195423420418496
30
0
10
-12.890227040930569
20
-6.7310012157906289
30
0
10
-12.944510183020412
20
-5.8896268185127969
30
0
0
SPLINE
5
335
100
AcDbEntity
8
0
100
AcDbSpline
70
0
71
2
72
6
73
3
74
0
42
0.000000001
43
0.0000000001
44
0.0000000001
40
0
40
0
40
0
40
1
40
1
40
1
10
-12.944510183020412
20
-5.8896268185127969
30
0
10
-12.998793325110256
20
-5.0482512291420694
30
0
10
-12.998793325110256
20
-4.0168882187355752
30
0
0
SPLINE
5
336
100
AcDbEntity
8
0
100
AcDbSpline
70
0
71
2
72
6
73
3
74
0
42
0.000000001
43
0.0000000001
44
0.0000000001
40
0
40
0
40
0
40
1
40
1
40
1
10
-12.998793325110256
20
-4.0168882187355752
30
0
10
-12.998793325110256
20
-3.6369121845711461
30
0
10
-12.98070212332803
20
-2.7322078522194615
30
0
0
SPLINE
5
337
100
AcDbEntity
8
0
100
AcDbSpline
70
0
71
2
72
6
73
3
74
0
42
0.000000001
43
0.0000000001
44
0.0000000001
40
0
40
0
40
0
40
1
40
1
40
1
10
-12.98070212332803
20
-2.7322078522194615
30
0
10
-12.962606153174221
20
-1.8275035198677769
30
0
10
-12.872135839148342
20
-0.70567019543540388
30
0
0
SPLINE
5
338
100
AcDbEntity
8
0
100
AcDbSpline
70
0
71
2
72
6
73
3
74
0
42
0.000000001
43
0.0000000001
44
0.0000000001
40
0
40
0
40
0
40
1
40
1
40
1
10
-12.872135839148342
20
-0.70567019543540388
30
0
10
-12.781660756750881
20
0.41616372504341581
30
0
10
-12.618820867224514
20
1.619420570517659
30
0
0
SPLINE
5
339
100
AcDbEntity
8
0
100
AcDbSpline
70
0
71
2
72
6
73
3
74
0
42
0.000000001
43
0.0000000001
44
0.0000000001
40
0
40
0
40
0
40
1
40
1
40
1
10
-12.618820867224514
20
1.619420570517659
30
0
10
-12.455971440954983
20
2.8226780120383497
30
0
10
-12.166464528723537
20
3.8178526584159131
30
0
0
SPLINE
5
340
100
AcDbEntity
8
0
100
AcDbSpline
70
0
71
2
72
6
73
3
74
0
42
0.000000001
43
0.0000000001
44
0.0000000001
40
0
40
0
40
0
40
1
40
1
40
1
10
-12.166464528723537
20
3.8178526584159131
30
0
10
-11.876957616492092
20
4.8130273047934766
30
0
10
-11.433651647253811
20
5.4553674880515324
30
0
0
SPLINE
5
341
100
AcDbEntity
8
0
100
AcDbSpline
70
0
71
2
72
6
73
3
74
0
42
0.000000001
43
0.0000000001
44
0.0000000001
40
0
40
0
40
0
40
1
40
1
40
1
10
-11.433651647253811
20
5.4553674880515324
30
0
10
-10.990350446387112
20
6.097707671309589
30
0
10
-10.375149449988186
20
6.097707671309589
30
0
0
SPLINE
5
342
100
AcDbEntity
8
0
100
AcDbSpline
70
0
71
2
72
6
73
3
74
0
42
0.000000001
43
0.0000000001
44
0.0000000001
40
0
40
0
40
0
40
1
40
1
40
1
10
-10.375149449988186
20
6.097707671309589
30
0
10
-10.049460134192287
20
6.097707671309589
30
0
10
-9.823277196570217
20
5.9439086143027522
30
0
0
SPLINE
5
343
100
AcDbEntity
8
0
100
AcDbSpline
70
0
71
2
72
6
73
3
74
0
42
0.000000001
43
0.0000000001
44
0.0000000001
40
0
40
0
40
0
40
1
40
1
40
1
10
-9.823277196570217
20
5.9439086143027522
30
0
10
-9.5971037956913108
20
5.7901083652030207
30
0
10
-9.4704463097293967
20
5.5458378020774104
30
0
0
SPLINE
5
344
100
AcDbEntity
8
0
100
AcDbSpline
70
0
71
2
72
6
73
3
74
0
42
0.000000001
43
0.0000000001
44
0.0000000001
40
0
40
0
40
0
40
1
40
1
40
1
10
-9.4704463097293967
20
5.5458378020774104
30
0
10
-9.3437888237674827
20
5.3015684310446956
30
0
10
-9.2895056816776389
20
5.0120627109061457
30
0
0
SPLINE
5
345
100
AcDbEntity
8
0
100
AcDbSpline
70
0
71
2
72
6
73
3
74
0
42
0.000000001
43
0.0000000001
44
0.0000000001
40
0
40
0
40
0
40
1
40
1
40
1
10
-9.2895056816776389
20
5.0120627109061457
30
0
10
-9.2352225395877952
20
4.7225569907675959
30
0
10
-9.2352225395877952
20
4.4511460486899592
30
0
0
SPLINE
5
346
100
AcDbEntity
8
0
100
AcDbSpline
70
0
71
2
72
6
73
3
74
0
42
0.000000001
43
0.0000000001
44
0.0000000001
40
0
40
0
40
0
40
1
40
1
40
1
10
-9.2352225395877952
20
4.4511460486899592
30
0
10
-9.2352225395877952
20
3.854041022444842
30
0
10
-9.416163167639553
20
3.1031357470999934
30
0
0
SPLINE
5
347
100
AcDbEntity
8
0
100
AcDbSpline
70
0
71
2
72
6
73
3
74
0
42
0.000000001
43
0.0000000001
44
0.0000000001
40
0
40
0
40
0
40
1
40
1
40
1
10
-9.416163167639553
20
3.1031357470999934
30
0
10
-9.5971037956913108
20
2.3522310678015925
30
0
10
-9.9680354210575217
20
1.5108560744773125
30
0
0
SPLINE
5
348
100
AcDbEntity
8
0
100
AcDbSpline
70
0
71
2
72
6
73
3
74
0
42
0.000000001
43
0.0000000001
44
0.0000000001
40
0
40
0
40
0
40
1
40
1
40
1
10
-9.9680354210575217
20
1.5108560744773125
30
0
10
-10.338962278052151
20
0.66948048510658609
30
0
10
-10.908925733252346
20
-0.24427064022910727
30
0
0
SPLINE
5
349
100
AcDbEntity
8
0
100
AcDbSpline
70
0
71
2
72
6
73
3
74
0
42
0.000000001
43
0.0000000001
44
0.0000000001
40
0
40
0
40
0
40
1
40
1
40
1
10
-10.908925733252346
20
-0.24427064022910727
30
0
10
-11.478889188452541
20
-1.1580223616112473
30
0
10
-12.238838872595608
20
-2.0627272900093785
30
0
0
SPLINE
5
350
100
AcDbEntity
8
0
100
AcDbSpline
70
0
71
2
72
6
73
3
74
0
42
0.000000001
43
0.0000000001
44
0.0000000001
40
0
40
0
40
0
40
1
40
1
40
1
10
-12.238838872595608
20
-2.0627272900093785
30
0
10
-12.275030812903225
20
-2.5874555881966343
30
0
10
-12.275030812903225
20
-3.0759955223549595
30
0
0
SPLINE
5
351
100
AcDbEntity
8
0
100
AcDbSpline
70
0
71
2
72
6
73
3
74
0
42
0.000000001
43
0.0000000001
44
0.0000000001
40
0
40
0
40
0
40
1
40
1
40
1
10
-12.275030812903225
20
-3.0759955223549595
30
0
10
-12.275030812903225
20
-3.5645354565132847
30
0
10
-12.275030812903225
20
-4.0168882187355752
30
0
0
SPLINE
5
352
100
AcDbEntity
8
0
100
AcDbSpline
70
0
71
2
72
6
73
3
74
0
42
0.000000001
43
0.0000000001
44
0.0000000001
40
0
40
0
40
0
40
1
40
1
40
1
10
-12.275030812903225
20
-4.0168882187355752
30
0
10
-12.275030812903225
20
-4.3968642529000039
30
0
10
-12.275030812903225
20
-4.740651923035502
30
0
0
SPLINE
5
353
100
AcDbEntity
8
0
100
AcDbSpline
70
0
71
2
72
6
73
3
74
0
42
0.000000001
43
0.0000000001
44
0.0000000001
40
0
40
0
40
0
40
1
40
1
40
1
10
-12.275030812903225
20
-4.740651923035502
30
0
10
-12.275030812903225
20
-5.084439593171
30
0
10
-12.256934842749416
20
-5.3920388992775674
30
0
0
SPLINE
5
354
100
AcDbEntity
8
0
100
AcDbSpline
70
0
71
2
72
6
73
3
74
0
42
0.000000001
43
0.0000000001
44
0.0000000001
40
0
40
0
40
0
40
1
40
1
40
1
10
-12.256934842749416
20
-5.3920388992775674
30
0
10
-12.05789824454385
20
-4.8311222370613827
30
0
10
-11.84981604544717
20
-4.2340172108162655
30
0
0
SPLINE
5
355
100
AcDbEntity
8
0
100
AcDbSpline
70
0
71
2
72
6
73
3
74
0
42
0.000000001
43
0.0000000001
44
0.0000000001
40
0
40
0
40
0
40
1
40
1
40
1
10
-11.84981604544717
20
-4.2340172108162655
30
0
10
-11.64173384635049
20
-3.6369121845711483
30
0
10
-11.388418874426662
20
-3.0940903004158749
30
0
0
SPLINE
5
356
100
AcDbEntity
8
0
100
AcDbSpline
70
0
71
2
72
6
73
3
74
0
42
0.000000001
43
0.0000000001
44
0.0000000001
40
0
40
0
40
0
40
1
40
1
40
1
10
-11.388418874426662
20
-3.0940903004158749
30
0
10
-10.863688192053615
20
-1.9541621979225887
30
0
10
-10.366103849097072
20
-1.402292328690411
30
0
0
SPLINE
5
357
100
AcDbEntity
8
0
100
AcDbSpline
70
0
71
2
72
6
73
3
74
0
42
0.000000001
43
0.0000000001
44
0.0000000001
40
0
40
0
40
0
40
1
40
1
40
1
10
-10.366103849097072
20
-1.402292328690411
30
0
10
-9.8685195061405295
20
-0.85042305550468211
30
0
10
-9.3437888237674827
20
-0.85042305550468211
30
0
0
SPLINE
5
358
100
AcDbEntity
8
0
100
AcDbSpline
70
0
71
2
72
6
73
3
74
0
42
0.000000001
43
0.0000000001
44
0.0000000001
40
0
40
0
40
0
40
1
40
1
40
1
10
-9.3437888237674827
20
-0.85042305550468211
30
0
10
-8.9095284554203147
20
-0.85042305550468211
30
0
10
-8.6562087151249045
20
-1.0585046585549152
30
0
0
SPLINE
5
359
100
AcDbEntity
8
0
100
AcDbSpline
70
0
71
2
72
6
73
3
74
0
42
0.000000001
43
0.0000000001
44
0.0000000001
40
0
40
0
40
0
40
1
40
1
40
1
10
-8.6562087151249045
20
-1.0585046585549152
30
0
10
-8.4028937432010764
20
-1.2665868576515948
30
0
10
-8.267185887976467
20
-1.5922803457726276
30
0
0
SPLINE
5
360
100
AcDbEntity
8
0
100
AcDbSpline
70
0
71
2
72
6
73
3
74
0
42
0.000000001
43
0.0000000001
44
0.0000000001
40
0
40
0
40
0
40
1
40
1
40
1
10
-8.267185887976467
20
-1.5922803457726276
30
0
10
-8.1314828011234397
20
-1.9179738338936603
30
0
10
-8.0952956291874045
20
-2.297949868058089
30
0
0
SPLINE
5
361
100
AcDbEntity
8
0
100
AcDbSpline
70
0
71
2
72
6
73
3
74
0
42
0.000000001
43
0.0000000001
44
0.0000000001
40
0
40
0
40
0
40
1
40
1
40
1
10
-8.0952956291874045
20
-2.297949868058089
30
0
10
-8.0591036888797873
20
-2.6779259022225177
30
0
10
-8.0591036888797873
20
-3.0036199863899982
30
0
0
SPLINE
5
362
100
AcDbEntity
8
0
100
AcDbSpline
70
0
71
2
72
6
73
3
74
0
42
0.000000001
43
0.0000000001
44
0.0000000001
40
0
40
0
40
0
40
1
40
1
40
1
10
-8.0591036888797873
20
-3.0036199863899982
30
0
10
-8.0591036888797873
20
-3.31121810040367
30
0
10
-8.0681540581424827
20
-3.6188185986031329
30
0
0
SPLINE
5
363
100
AcDbEntity
8
0
100
AcDbSpline
70
0
71
2
72
6
73
3
74
0
42
0.000000001
43
0.0000000001
44
0.0000000001
40
0
40
0
40
0
40
1
40
1
40
1
10
-8.0681540581424827
20
-3.6188185986031329
30
0
10
-8.077204427405178
20
-3.9264179047097003
30
0
10
-8.0952956291874045
20
-4.2340172108162673
30
0
0
SPLINE
5
364
100
AcDbEntity
8
0
100
AcDbSpline
70
0
71
2
72
6
73
3
74
0
42
0.000000001
43
0.0000000001
44
0.0000000001
40
0
40
0
40
0
40
1
40
1
40
1
10
-8.0952956291874045
20
-4.2340172108162673
30
0
10
-8.1133868309696311
20
-4.4873345669258864
30
0
10
-8.1224372002323264
20
-4.7316051300514967
30
0
0
SPLINE
5
365
100
AcDbEntity
8
0
100
AcDbSpline
70
0
71
2
72
6
73
3
74
0
42
0.000000001
43
0.0000000001
44
0.0000000001
40
0
40
0
40
0
40
1
40
1
40
1
10
-8.1224372002323264
20
-4.7316051300514967
30
0
10
-8.1314828011234397
20
-4.9758756931771071
30
0
10
-8.1314828011234397
20
-5.2291918571938307
30
0
0
SPLINE
5
366
100
AcDbEntity
8
0
100
AcDbSpline
70
0
71
2
72
6
73
3
74
0
42
0.000000001
43
0.0000000001
44
0.0000000001
40
0
40
0
40
0
40
1
40
1
40
1
10
-8.1314828011234397
20
-5.2291918571938307
30
0
10
-8.1314828011234397
20
-5.3739453133095534
30
0
10
-8.1314828011234397
20
-5.627261477326277
30
0
0
SPLINE
5
367
100
AcDbEntity
8
0
100
AcDbSpline
70
0
71
2
72
6
73
3
74
0
42
0.000000001
43
0.0000000001
44
0.0000000001
40
0
40
0
40
0
40
1
40
1
40
1
10
-8.1314828011234397
20
-5.627261477326277
30
0
10
-8.1314828011234397
20
-5.8805788334358962
30
0
10
-8.0862452599247092
20
-6.1338961895455153
30
0
0
SPLINE
5
368
100
AcDbEntity
8
0
100
AcDbSpline
70
0
71
2
72
6
73
3
74
0
42
0.000000001
43
0.0000000001
44
0.0000000001
40
0
40
0
40
0
40
1
40
1
40
1
10
-8.0862452599247092
20
-6.1338961895455153
30
0
10
-8.0410124870975608
20
-6.3872135456551344
30
0
10
-7.9324462029178733
20
-6.5772021587837965
30
0
0
SPLINE
5
369
100
AcDbEntity
8
0
100
AcDbSpline
70
0
71
2
72
6
73
3
74
0
42
0.000000001
43
0.0000000001
44
0.0000000001
40
0
40
0
40
0
40
1
40
1
40
1
10
-7.9324462029178733
20
-6.5772021587837965
30
0
10
-7.8238846871097678
20
-6.7671895798195631
30
0
10
-7.6067568871219748
20
-6.7671895798195631
30
0
0
SPLINE
5
370
100
AcDbEntity
8
0
100
AcDbSpline
70
0
71
2
72
6
73
3
74
0
42
0.000000001
43
0.0000000001
44
0.0000000001
40
0
40
0
40
0
40
1
40
1
40
1
10
-7.6067568871219748
20
-6.7671895798195631
30
0
10
-7.082026204748928
20
-6.7671895798195631
30
0
10
-6.5572955223758811
20
-6.2334144886483012
30
0
0
SPLINE
5
371
100
AcDbEntity
8
0
100
AcDbSpline
70
0
71
2
72
6
73
3
74
0
42
0.000000001
43
0.0000000001
44
0.0000000001
40
0
40
0
40
0
40
1
40
1
40
1
10
-6.5572955223758811
20
-6.2334144886483012
30
0
10
-6.0325696083744162
20
-5.699638205384141
30
0
10
-5.5711676689823264
20
-4.9758756931771098
30
0
0
SPLINE
5
372
100
AcDbEntity
8
0
100
AcDbSpline
70
0
71
2
72
6
73
3
74
0
42
0.000000001
43
0.0000000001
44
0.0000000001
40
0
40
0
40
0
40
1
40
1
40
1
10
-5.5711676689823264
20
-4.9758756931771098
30
0
10
-5.1097704979618186
20
-4.2521107967842875
30
0
10
-4.7388388725956077
20
-3.5102535065163432
30
0
0
SPLINE
5
373
100
AcDbEntity
8
0
100
AcDbSpline
70
0
71
2
72
6
73
3
74
0
42
0.000000001
43
0.0000000001
44
0.0000000001
40
0
40
0
40
0
40
1
40
1
40
1
10
-4.7388388725956077
20
-3.5102535065163432
30
0
10
-4.3679167839725608
20
-2.7683962162483988
30
0
10
-4.1869713875492209
20
-2.3522318180550394
30
0
0
SPLINE
5
374
100
AcDbEntity
8
0
100
AcDbSpline
70
0
71
2
72
6
73
3
74
0
42
0.000000001
43
0.0000000001
44
0.0000000001
40
0
40
0
40
0
40
1
40
1
40
1
10
-4.1869713875492209
20
-2.3522318180550394
30
0
10
-4.096501073523342
20
-2.135102825974351
30
0
10
-3.8612773033817405
20
-2.1351028259743532
30
0
0
SPLINE
5
375
100
AcDbEntity
8
0
100
AcDbSpline
70
0
71
2
72
6
73
3
74
0
42
0.000000001
43
0.0000000001
44
0.0000000001
40
0
40
0
40
0
40
1
40
1
40
1
10
-3.8612773033817405
20
-2.1351028259743532
30
0
10
-3.7165286156375998
20
-2.1351028259743532
30
0
10
-3.6079623314579123
20
-2.2436679180611452
30
0
0
SPLINE
5
376
100
AcDbEntity
8
0
100
AcDbSpline
70
0
71
2
72
6
73
3
74
0
42
0.000000001
43
0.0000000001
44
0.0000000001
40
0
40
0
40
0
40
1
40
1
40
1
10
-3.6079623314579123
20
-2.2436679180611452
30
0
10
-3.4993960472782248
20
-2.3522318180550417
30
0
10
-3.4993960472782248
20
-2.4969852741707643
30
0
0
SPLINE
5
377
100
AcDbEntity
8
0
100
AcDbSpline
70
0
71
2
72
6
73
3
74
0
42
0.000000001
43
0.0000000001
44
0.0000000001
40
0
40
0
40
0
40
1
40
1
40
1
10
-3.4993960472782248
20
-2.4969852741707643
30
0
10
-3.4993960472782248
20
-2.5331724461067995
30
0
10
-3.535587987585842
20
-2.6417375381935915
30
0
0
SPLINE
5
378
100
AcDbEntity
8
0
100
AcDbSpline
70
0
71
2
72
6
73
3
74
0
42
0.000000001
43
0.0000000001
44
0.0000000001
40
0
40
0
40
0
40
1
40
1
40
1
10
-3.535587987585842
20
-2.6417375381935915
30
0
10
-3.7708117577274436
20
-3.1845606144417604
30
0
10
-4.1869713875492209
20
-4.0168882187355814
30
0
0
SPLINE
5
379
100
AcDbEntity
8
0
100
AcDbSpline
70
0
71
2
72
6
73
3
74
0
42
0.000000001
43
0.0000000001
44
0.0000000001
40
0
40
0
40
0
40
1
40
1
40
1
10
-4.1869713875492209
20
-4.0168882187355814
30
0
10
-4.6031357857425803
20
-4.8492158230294047
30
0
10
-5.1369120690067405
20
-5.6182146843422709
30
0
0
SPLINE
5
380
100
AcDbEntity
8
0
100
AcDbSpline
70
0
71
2
72
6
73
3
74
0
42
0.000000001
43
0.0000000001
44
0.0000000001
40
0
40
0
40
0
40
1
40
1
40
1
10
-5.1369120690067405
20
-5.6182146843422709
30
0
10
-5.6706835838993186
20
-6.3872135456551371
30
0
10
-6.2949301811893577
20
-6.9390834148873148
30
0
0
SPLINE
5
381
100
AcDbEntity
8
0
100
AcDbSpline
70
0
71
2
72
6
73
3
74
0
42
0.000000001
43
0.0000000001
44
0.0000000001
40
0
40
0
40
0
40
1
40
1
40
1
10
-6.2949301811893577
20
-6.9390834148873148
30
0
10
-6.9191767784793967
20
-7.4909532841194899
30
0
10
-7.6067568871219748
20
-7.4909532841194899
30
0
0
SPLINE
5
382
100
AcDbEntity
8
0
100
AcDbSpline
70
0
71
2
72
6
73
3
74
0
42
0.000000001
43
0.0000000001
44
0.0000000001
40
0
40
0
40
0
40
1
40
1
40
1
10
-2.5548865410526389
20
-7.4909532841194952
30
0
10
-3.0977084252079123
20
-7.4909532841194952
30
0
10
-3.4053065392215842
20
-7.2104943569649542
30
0
0
SPLINE
5
383
100
AcDbEntity
8
0
100
AcDbSpline
70
0
71
2
72
6
73
3
74
0
42
0.000000001
43
0.0000000001
44
0.0000000001
40
0
40
0
40
0
40
1
40
1
40
1
10
-3.4053065392215842
20
-7.2104943569649542
30
0
10
-3.7129046532352561
20
-6.9300366219033087
30
0
10
-3.8757540795047873
20
-6.5138722237099493
30
0
0
SPLINE
5
384
100
AcDbEntity
8
0
100
AcDbSpline
70
0
71
2
72
6
73
3
74
0
42
0.000000001
43
0.0000000001
44
0.0000000001
40
0
40
0
40
0
40
1
40
1
40
1
10
-3.8757540795047873
20
-6.5138722237099493
30
0
10
-4.0386035057743186
20
-6.0977090176094828
30
0
10
-4.0747906777103537
20
-5.6091678913582621
30
0
0
SPLINE
5
385
100
AcDbEntity
8
0
100
AcDbSpline
70
0
71
2
72
6
73
3
74
0
42
0.000000001
43
0.0000000001
44
0.0000000001
40
0
40
0
40
0
40
1
40
1
40
1
10
-4.0747906777103537
20
-5.6091678913582621
30
0
10
-4.1109778496463889
20
-5.1206279571999369
30
0
10
-4.1109778496463889
20
-4.7225583370674906
30
0
0
SPLINE
5
386
100
AcDbEntity
8
0
100
AcDbSpline
70
0
71
2
72
6
73
3
74
0
42
0.000000001
43
0.0000000001
44
0.0000000001
40
0
40
0
40
0
40
1
40
1
40
1
10
-4.1109778496463889
20
-4.7225583370674906
30
0
10
-4.1109778496463889
20
-4.2340172108162699
30
0
10
-4.0747906777103537
20
-3.6731005486000834
30
0
0
SPLINE
5
387
100
AcDbEntity
8
0
100
AcDbSpline
70
0
71
2
72
6
73
3
74
0
42
0.000000001
43
0.0000000001
44
0.0000000001
40
0
40
0
40
0
40
1
40
1
40
1
10
-4.0747906777103537
20
-3.6731005486000834
30
0
10
-4.0386035057743186
20
-3.1121838863838969
30
0
10
-3.9843203636844748
20
-2.4788904961098512
30
0
0
SPLINE
5
388
100
AcDbEntity
8
0
100
AcDbSpline
70
0
71
2
72
6
73
3
74
0
42
0.000000001
43
0.0000000001
44
0.0000000001
40
0
40
0
40
0
40
1
40
1
40
1
10
-3.9843203636844748
20
-2.4788904961098512
30
0
10
-3.9662243935306662
20
-2.3341382320870241
30
0
10
-3.8576628777225608
20
-2.2255731400002321
30
0
0
SPLINE
5
389
100
AcDbEntity
8
0
100
AcDbSpline
70
0
71
2
72
6
73
3
74
0
42
0.000000001
43
0.0000000001
44
0.0000000001
40
0
40
0
40
0
40
1
40
1
40
1
10
-3.8576628777225608
20
-2.2255731400002321
30
0
10
-3.7490965935428733
20
-2.1170080479134401
30
0
10
-3.6043431374271506
20
-2.1351028259743532
30
0
0
SPLINE
5
390
100
AcDbEntity
8
0
100
AcDbSpline
70
0
71
2
72
6
73
3
74
0
42
0.000000001
43
0.0000000001
44
0.0000000001
40
0
40
0
40
0
40
1
40
1
40
1
10
-3.6043431374271506
20
-2.1351028259743532
30
0
10
-3.459589681311428
20
-2.1531976040352663
30
0
10
-3.3510233971317405
20
-2.2708094891060671
30
0
0
SPLINE
5
391
100
AcDbEntity
8
0
100
AcDbSpline
70
0
71
2
72
6
73
3
74
0
42
0.000000001
43
0.0000000001
44
0.0000000001
40
0
40
0
40
0
40
1
40
1
40
1
10
-3.3510233971317405
20
-2.2708094891060671
30
0
10
-3.242461881323635
20
-2.3884201820839723
30
0
10
-3.2605578514774436
20
-2.5331724461067995
30
0
0
SPLINE
5
392
100
AcDbEntity
8
0
100
AcDbSpline
70
0
71
2
72
6
73
3
74
0
42
0.000000001
43
0.0000000001
44
0.0000000001
40
0
40
0
40
0
40
1
40
1
40
1
10
-3.2605578514774436
20
-2.5331724461067995
30
0
10
-3.3148409935672873
20
-3.1664658363808473
30
0
10
-3.3510233971317405
20
-3.700240927552112
30
0
0
SPLINE
5
393
100
AcDbEntity
8
0
100
AcDbSpline
70
0
71
2
72
6
73
3
74
0
42
0.000000001
43
0.0000000001
44
0.0000000001
40
0
40
0
40
0
40
1
40
1
40
1
10
-3.3510233971317405
20
-3.700240927552112
30
0
10
-3.3872153374393577
20
-4.2340172108162726
30
0
10
-3.3872153374393577
20
-4.7044635590065802
30
0
0
SPLINE
5
394
100
AcDbEntity
8
0
100
AcDbSpline
70
0
71
2
72
6
73
3
74
0
42
0.000000001
43
0.0000000001
44
0.0000000001
40
0
40
0
40
0
40
1
40
1
40
1
10
-3.3872153374393577
20
-4.7044635590065802
30
0
10
-3.3872153374393577
20
-4.9215925510872687
30
0
10
-3.3781649681766623
20
-5.2744270142067755
30
0
0
SPLINE
5
395
100
AcDbEntity
8
0
100
AcDbSpline
70
0
71
2
72
6
73
3
74
0
42
0.000000001
43
0.0000000001
44
0.0000000001
40
0
40
0
40
0
40
1
40
1
40
1
10
-3.3781649681766623
20
-5.2744270142067755
30
0
10
-3.3691193672855491
20
-5.6272614773262823
30
0
10
-3.2967402550418967
20
-5.9620023544777716
30
0
0
SPLINE
5
396
100
AcDbEntity
8
0
100
AcDbSpline
70
0
71
2
72
6
73
3
74
0
42
0.000000001
43
0.0000000001
44
0.0000000001
40
0
40
0
40
0
40
1
40
1
40
1
10
-3.2967402550418967
20
-5.9620023544777716
30
0
10
-3.2243659111698264
20
-6.2967432316292609
30
0
10
-3.0524756523807639
20
-6.5319670017708624
30
0
0
SPLINE
5
397
100
AcDbEntity
8
0
100
AcDbSpline
70
0
71
2
72
6
73
3
74
0
42
0.000000001
43
0.0000000001
44
0.0000000001
40
0
40
0
40
0
40
1
40
1
40
1
10
-3.0524756523807639
20
-6.5319670017708624
30
0
10
-2.8805806252201194
20
-6.7671895798195685
30
0
10
-2.5548865410526389
20
-6.7671895798195685
30
0
0
SPLINE
5
398
100
AcDbEntity
8
0
100
AcDbSpline
70
0
71
2
72
6
73
3
74
0
42
0.000000001
43
0.0000000001
44
0.0000000001
40
0
40
0
40
0
40
1
40
1
40
1
10
-2.5548865410526389
20
-6.7671895798195685
30
0
10
-2.030155858679592
20
-6.7671895798195685
30
0
10
-1.5054299446781272
20
-6.2334144886483038
30
0
0
SPLINE
5
399
100
AcDbEntity
8
0
100
AcDbSpline
70
0
71
2
72
6
73
3
74
0
42
0.000000001
43
0.0000000001
44
0.0000000001
40
0
40
0
40
0
40
1
40
1
40
1
10
-1.5054299446781272
20
-6.2334144886483038
30
0
10
-0.98070403067666234
20
-5.6996382053841455
30
0
10
-0.5193020912845725
20
-4.9758745010842187
30
0
0
SPLINE
5
400
100
AcDbEntity
8
0
100
AcDbSpline
70
0
71
2
72
6
73
3
74
0
42
0.000000001
43
0.0000000001
44
0.0000000001
40
0
40
0
40
0
40
1
40
1
40
1
10
-0.5193020912845725
20
-4.9758745010842187
30
0
10
-0.057900151892482654
20
-4.2521107967842919
30
0
10
0.31302670510214625
20
-3.5102535065163476
30
0
0
SPLINE
5
401
100
AcDbEntity
8
0
100
AcDbSpline
70
0
71
2
72
6
73
3
74
0
42
0.000000001
43
0.0000000001
44
0.0000000001
40
0
40
0
40
0
40
1
40
1
40
1
10
0.31302670510214625
20
-3.5102535065163476
30
0
10
0.68395356209677516
20
-2.7683962162484033
30
0
10
0.86489419014853297
20
-2.3522318180550439
30
0
0
SPLINE
5
402
100
AcDbEntity
8
0
100
AcDbSpline
70
0
71
2
72
6
73
3
74
0
42
0.000000001
43
0.0000000001
44
0.0000000001
40
0
40
0
40
0
40
1
40
1
40
1
10
0.86489419014853297
20
-2.3522318180550439
30
0
10
0.95536927254599391
20
-2.1351028259743554
30
0
10
1.1905930426875955
20
-2.1351028259743554
30
0
0
SPLINE
5
403
100
AcDbEntity
8
0
100
AcDbSpline
70
0
71
2
72
6
73
3
74
0
42
0.000000001
43
0.0000000001
44
0.0000000001
40
0
40
0
40
0
40
1
40
1
40
1
10
1.1905930426875955
20
-2.1351028259743554
30
0
10
1.3353417304317361
20
-2.1351028259743554
30
0
10
1.4439080146114236
20
-2.2436679180611496
30
0
0
SPLINE
5
404
100
AcDbEntity
8
0
100
AcDbSpline
70
0
71
2
72
6
73
3
74
0
42
0.000000001
43
0.0000000001
44
0.0000000001
40
0
40
0
40
0
40
1
40
1
40
1
10
1.4439080146114236
20
-2.2436679180611496
30
0
10
1.5524742987911111
20
-2.3522318180550461
30
0
10
1.5524742987911111
20
-2.4969852741707688
30
0
0
SPLINE
5
405
100
AcDbEntity
8
0
100
AcDbSpline
70
0
71
2
72
6
73
3
74
0
42
0.000000001
43
0.0000000001
44
0.0000000001
40
0
40
0
40
0
40
1
40
1
40
1
10
1.5524742987911111
20
-2.4969852741707688
30
0
10
1.5524742987911111
20
-2.5331724461068039
30
0
10
1.5162823584834939
20
-2.6417375381935959
30
0
0
SPLINE
5
406
100
AcDbEntity
8
0
100
AcDbSpline
70
0
71
2
72
6
73
3
74
0
42
0.000000001
43
0.0000000001
44
0.0000000001
40
0
40
0
40
0
40
1
40
1
40
1
10
1.5162823584834939
20
-2.6417375381935959
30
0
10
1.2810585883418923
20
-3.1845606144417626
30
0
10
0.86489419014853297
20
-4.0168882187355859
30
0
0
SPLINE
5
407
100
AcDbEntity
8
0
100
AcDbSpline
70
0
71
2
72
6
73
3
74
0
42
0.000000001
43
0.0000000001
44
0.0000000001
40
0
40
0
40
0
40
1
40
1
40
1
10
0.86489419014853297
20
-4.0168882187355859
30
0
10
0.4487297919551736
20
-4.8492158230294091
30
0
10
-0.085041722937404529
20
-5.6182146843422753
30
0
0
SPLINE
5
408
100
AcDbEntity
8
0
100
AcDbSpline
70
0
71
2
72
6
73
3
74
0
42
0.000000001
43
0.0000000001
44
0.0000000001
40
0
40
0
40
0
40
1
40
1
40
1
10
-0.085041722937404529
20
-5.6182146843422753
30
0
10
-0.61881800620156469
20
-6.3872135456551415
30
0
10
-1.2430646034916037
20
-6.9390834148873193
30
0
0
SPLINE
5
409
100
AcDbEntity
8
0
100
AcDbSpline
70
0
71
2
72
6
73
3
74
0
42
0.000000001
43
0.0000000001
44
0.0000000001
40
0
40
0
40
0
40
1
40
1
40
1
10
-1.2430646034916037
20
-6.9390834148873193
30
0
10
-1.8673112007816428
20
-7.4909532841194952
30
0
10
-2.5548865410526389
20
-7.4909532841194952
30
0
0
SPLINE
5
410
100
AcDbEntity
8
0
100
AcDbSpline
70
0
71
2
72
6
73
3
74
0
42
0.000000001
43
0.0000000001
44
0.0000000001
40
0
40
0
40
0
40
1
40
1
40
1
10
-3.6043431374271506
20
-0.86851664147270413
30
0
10
-3.7852837654789084
20
-0.86851664147270413
30
0
10
-3.8486125084598655
20
-0.72376378140342923
30
0
0
SPLINE
5
411
100
AcDbEntity
8
0
100
AcDbSpline
70
0
71
2
72
6
73
3
74
0
42
0.000000001
43
0.0000000001
44
0.0000000001
40
0
40
0
40
0
40
1
40
1
40
1
10
-3.8486125084598655
20
-0.72376378140342923
30
0
10
-3.9119460198124045
20
-0.57901151738060208
30
0
10
-3.8938452812870139
20
-0.43425865731132718
30
0
0
SPLINE
5
412
100
AcDbEntity
8
0
100
AcDbSpline
70
0
71
2
72
6
73
3
74
0
42
0.000000001
43
0.0000000001
44
0.0000000001
40
0
40
0
40
0
40
1
40
1
40
1
10
-3.8938452812870139
20
-0.43425865731132718
30
0
10
-3.8938452812870139
20
-0.39807029328239651
30
0
10
-3.8757540795047873
20
-0.35283513626945706
30
0
0
SPLINE
5
413
100
AcDbEntity
8
0
100
AcDbSpline
70
0
71
2
72
6
73
3
74
0
42
0.000000001
43
0.0000000001
44
0.0000000001
40
0
40
0
40
0
40
1
40
1
40
1
10
-3.8757540795047873
20
-0.35283513626945706
30
0
10
-3.8576628777225608
20
-0.30759997925651761
30
0
10
-3.8576628777225608
20
-0.28950579724205228
30
0
0
SPLINE
5
414
100
AcDbEntity
8
0
100
AcDbSpline
70
0
71
2
72
6
73
3
74
0
42
0.000000001
43
0.0000000001
44
0.0000000001
40
0
40
0
40
0
40
1
40
1
40
1
10
-3.8576628777225608
20
-0.28950579724205228
30
0
10
-3.8938452812870139
20
-0.25331743321312161
30
0
10
-3.9119460198124045
20
-0.15380032620323392
30
0
0
SPLINE
5
415
100
AcDbEntity
8
0
100
AcDbSpline
70
0
71
2
72
6
73
3
74
0
42
0.000000001
43
0.0000000001
44
0.0000000001
40
0
40
0
40
0
40
1
40
1
40
1
10
-3.9119460198124045
20
-0.15380032620323392
30
0
10
-3.9300372215946311
20
-0.054282623146898468
30
0
10
-3.9300372215946311
20
-0.018094855164415558
30
0
0
SPLINE
5
416
100
AcDbEntity
8
0
100
AcDbSpline
70
0
71
2
72
6
73
3
74
0
42
0.000000001
43
0.0000000001
44
0.0000000001
40
0
40
0
40
0
40
1
40
1
40
1
10
-3.9300372215946311
20
-0.018094855164415558
30
0
10
-3.9300372215946311
20
0.12665800490485934
30
0
10
-3.8214709374149436
20
0.23522250094520358
30
0
0
SPLINE
5
417
100
AcDbEntity
8
0
100
AcDbSpline
70
0
71
2
72
6
73
3
74
0
42
0.000000001
43
0.0000000001
44
0.0000000001
40
0
40
0
40
0
40
1
40
1
40
1
10
-3.8214709374149436
20
0.23522250094520358
30
0
10
-3.7129046532352561
20
0.34378699698554782
30
0
10
-3.5681559654911155
20
0.34378699698554782
30
0
0
SPLINE
5
418
100
AcDbEntity
8
0
100
AcDbSpline
70
0
71
2
72
6
73
3
74
0
42
0.000000001
43
0.0000000001
44
0.0000000001
40
0
40
0
40
0
40
1
40
1
40
1
10
-3.5681559654911155
20
0.34378699698554782
30
0
10
-3.3510233971317405
20
0.34378699698554671
30
0
10
-3.242461881323635
20
0.13570539393531478
30
0
0
SPLINE
5
419
100
AcDbEntity
8
0
100
AcDbSpline
70
0
71
2
72
6
73
3
74
0
42
0.000000001
43
0.0000000001
44
0.0000000001
40
0
40
0
40
0
40
1
40
1
40
1
10
-3.242461881323635
20
0.13570539393531478
30
0
10
-3.1339003655155295
20
-0.07237680516136491
30
0
10
-3.1339003655155295
20
-0.27141161522758805
30
0
0
SPLINE
5
420
100
AcDbEntity
8
0
100
AcDbSpline
70
0
71
2
72
6
73
3
74
0
42
0.000000001
43
0.0000000001
44
0.0000000001
40
0
40
0
40
0
40
1
40
1
40
1
10
-3.1339003655155295
20
-0.27141161522758805
30
0
10
-3.1339003655155295
20
-0.5247289713372072
30
0
10
-3.2334162804325217
20
-0.69662280640495622
30
0
0
SPLINE
5
421
100
AcDbEntity
8
0
100
AcDbSpline
70
0
71
2
72
6
73
3
74
0
42
0.000000001
43
0.0000000001
44
0.0000000001
40
0
40
0
40
0
40
1
40
1
40
1
10
-3.2334162804325217
20
-0.69662280640495622
30
0
10
-3.3329321953495139
20
-0.86851664147270524
30
0
10
-3.6043431374271506
20
-0.86851664147270413
30
0
0
SPLINE
5
422
100
AcDbEntity
8
0
100
AcDbSpline
70
0
71
2
72
6
73
3
74
0
42
0.000000001
43
0.0000000001
44
0.0000000001
40
0
40
0
40
0
40
1
40
1
40
1
10
1.7913124945918923
20
-0.9408933695305699
30
0
10
2.0989106086055642
20
-0.39807029328240207
30
0
10
2.433650293664158
20
0.2714108649741287
30
0
0
SPLINE
5
423
100
AcDbEntity
8
0
100
AcDbSpline
70
0
71
2
72
6
73
3
74
0
42
0.000000001
43
0.0000000001
44
0.0000000001
40
0
40
0
40
0
40
1
40
1
40
1
10
2.433650293664158
20
0.2714108649741287
30
0
10
2.7683947470943338
20
0.94089202323065946
30
0
10
3.057896890954197
20
1.6646557275305862
30
0
0
SPLINE
5
424
100
AcDbEntity
8
0
100
AcDbSpline
70
0
71
2
72
6
73
3
74
0
42
0.000000001
43
0.0000000001
44
0.0000000001
40
0
40
0
40
0
40
1
40
1
40
1
10
3.057896890954197
20
1.6646557275305862
30
0
10
3.3474038031856423
20
2.388419431830513
30
0
10
3.5373948005000955
20
3.1031357470999827
30
0
0
SPLINE
5
425
100
AcDbEntity
8
0
100
AcDbSpline
70
0
71
2
72
6
73
3
74
0
42
0.000000001
43
0.0000000001
44
0.0000000001
40
0
40
0
40
0
40
1
40
1
40
1
10
3.5373948005000955
20
3.1031357470999827
30
0
10
3.7273857978145486
20
3.8178526584158998
30
0
10
3.7273857978145486
20
4.4511448565970522
30
0
0
SPLINE
5
426
100
AcDbEntity
8
0
100
AcDbSpline
70
0
71
2
72
6
73
3
74
0
42
0.000000001
43
0.0000000001
44
0.0000000001
40
0
40
0
40
0
40
1
40
1
40
1
10
3.7273857978145486
20
4.4511448565970522
30
0
10
3.7273857978145486
20
4.5958983127127748
30
0
10
3.7183354285518533
20
4.7587453547965151
30
0
0
SPLINE
5
427
100
AcDbEntity
8
0
100
AcDbSpline
70
0
71
2
72
6
73
3
74
0
42
0.000000001
43
0.0000000001
44
0.0000000001
40
0
40
0
40
0
40
1
40
1
40
1
10
3.7183354285518533
20
4.7587453547965151
30
0
10
3.709285059289158
20
4.9215912047873598
30
0
10
3.6550019171993142
20
5.0663446609030842
30
0
0
SPLINE
5
428
100
AcDbEntity
8
0
100
AcDbSpline
70
0
71
2
72
6
73
3
74
0
42
0.000000001
43
0.0000000001
44
0.0000000001
40
0
40
0
40
0
40
1
40
1
40
1
10
3.6550019171993142
20
5.0663446609030842
30
0
10
3.6007187751094705
20
5.2110969249259114
30
0
10
3.5012028601924783
20
5.3106140319357991
30
0
0
SPLINE
5
429
100
AcDbEntity
8
0
100
AcDbSpline
70
0
71
2
72
6
73
3
74
0
42
0.000000001
43
0.0000000001
44
0.0000000001
40
0
40
0
40
0
40
1
40
1
40
1
10
3.5012028601924783
20
5.3106140319357991
30
0
10
3.4016869452754861
20
5.4101323310385823
30
0
10
3.2026551154415017
20
5.4101323310385823
30
0
0
SPLINE
5
430
100
AcDbEntity
8
0
100
AcDbSpline
70
0
71
2
72
6
73
3
74
0
42
0.000000001
43
0.0000000001
44
0.0000000001
40
0
40
0
40
0
40
1
40
1
40
1
10
3.2026551154415017
20
5.4101323310385823
30
0
10
2.9674313452999002
20
5.4101323310385823
30
0
10
2.7683947470943338
20
4.9939679328452229
30
0
0
SPLINE
5
431
100
AcDbEntity
8
0
100
AcDbSpline
70
0
71
2
72
6
73
3
74
0
42
0.000000001
43
0.0000000001
44
0.0000000001
40
0
40
0
40
0
40
1
40
1
40
1
10
2.7683947470943338
20
4.9939679328452229
30
0
10
2.5693581488887673
20
4.5778035346518635
30
0
10
2.4065134909908181
20
3.9445113364707107
30
0
0
SPLINE
5
432
100
AcDbEntity
8
0
100
AcDbSpline
70
0
71
2
72
6
73
3
74
0
42
0.000000001
43
0.0000000001
44
0.0000000001
40
0
40
0
40
0
40
1
40
1
40
1
10
2.4065134909908181
20
3.9445113364707107
30
0
10
2.2436688330928689
20
3.3112179461966633
30
0
10
2.1351025489131814
20
2.5422190848837967
30
0
0
SPLINE
5
433
100
AcDbEntity
8
0
100
AcDbSpline
70
0
71
2
72
6
73
3
74
0
42
0.000000001
43
0.0000000001
44
0.0000000001
40
0
40
0
40
0
40
1
40
1
40
1
10
2.1351025489131814
20
2.5422190848837967
30
0
10
2.0265362647334939
20
1.7732202235709305
30
0
10
1.9541619208614236
20
1.0675507012854701
30
0
0
SPLINE
5
434
100
AcDbEntity
8
0
100
AcDbSpline
70
0
71
2
72
6
73
3
74
0
42
0.000000001
43
0.0000000001
44
0.0000000001
40
0
40
0
40
0
40
1
40
1
40
1
10
1.9541619208614236
20
1.0675507012854701
30
0
10
1.8817875769893533
20
0.36188117900000871
30
0
10
1.8365452674190408
20
-0.18998869023216902
30
0
0
SPLINE
5
435
100
AcDbEntity
8
0
100
AcDbSpline
70
0
71
2
72
6
73
3
74
0
42
0.000000001
43
0.0000000001
44
0.0000000001
40
0
40
0
40
0
40
1
40
1
40
1
10
1.8365452674190408
20
-0.18998869023216902
30
0
10
1.7913124945918923
20
-0.741857963417899
30
0
10
1.7913124945918923
20
-0.9408933695305699
30
0
0
SPLINE
5
436
100
AcDbEntity
8
0
100
AcDbSpline
70
0
71
2
72
6
73
3
74
0
42
0.000000001
43
0.0000000001
44
0.0000000001
40
0
40
0
40
0
40
1
40
1
40
1
10
3.2931206610957986
20
-7.4909532841194988
30
0
10
2.7683947470943338
20
-7.4909532841194988
30
0
10
2.3974678900997048
20
-7.1290720280159832
30
0
0
SPLINE
5
437
100
AcDbEntity
8
0
100
AcDbSpline
70
0
71
2
72
6
73
3
74
0
42
0.000000001
43
0.0000000001
44
0.0000000001
40
0
40
0
40
0
40
1
40
1
40
1
10
2.3974678900997048
20
-7.1290720280159832
30
0
10
2.0265362647334939
20
-6.767189579819572
30
0
10
1.7732212928096658
20
-6.2062729176033855
30
0
0
SPLINE
5
438
100
AcDbEntity
8
0
100
AcDbSpline
70
0
71
2
72
6
73
3
74
0
42
0.000000001
43
0.0000000001
44
0.0000000001
40
0
40
0
40
0
40
1
40
1
40
1
10
1.7732212928096658
20
-6.2062729176033855
30
0
10
1.5199015525142556
20
-5.645356255387199
30
0
10
1.3841984656612283
20
-4.9487341221321941
30
0
0
SPLINE
5
439
100
AcDbEntity
8
0
100
AcDbSpline
70
0
71
2
72
6
73
3
74
0
42
0.000000001
43
0.0000000001
44
0.0000000001
40
0
40
0
40
0
40
1
40
1
40
1
10
1.3841984656612283
20
-4.9487341221321941
30
0
10
1.2484906104366189
20
-4.2521107967842919
30
0
10
1.1761162665645486
20
-3.5645354565132958
30
0
0
SPLINE
5
440
100
AcDbEntity
8
0
100
AcDbSpline
70
0
71
2
72
6
73
3
74
0
42
0.000000001
43
0.0000000001
44
0.0000000001
40
0
40
0
40
0
40
1
40
1
40
1
10
1.1761162665645486
20
-3.5645354565132958
30
0
10
1.1037371543208963
20
-2.8769601162422997
30
0
10
1.0856411841670877
20
-2.2889030750740869
30
0
0
SPLINE
5
441
100
AcDbEntity
8
0
100
AcDbSpline
70
0
71
2
72
6
73
3
74
0
42
0.000000001
43
0.0000000001
44
0.0000000001
40
0
40
0
40
0
40
1
40
1
40
1
10
1.0856411841670877
20
-2.2889030750740869
30
0
10
1.0675499823848611
20
-1.7008448418129796
30
0
10
1.0675499823848611
20
-1.3570571716774815
30
0
0
SPLINE
5
442
100
AcDbEntity
8
0
100
AcDbSpline
70
0
71
2
72
6
73
3
74
0
42
0.000000001
43
0.0000000001
44
0.0000000001
40
0
40
0
40
0
40
1
40
1
40
1
10
1.0675499823848611
20
-1.3570571716774815
30
0
10
1.0675499823848611
20
-1.0494578655709141
30
0
10
1.094691553429783
20
-0.37997611126793562
30
0
0
SPLINE
5
443
100
AcDbEntity
8
0
100
AcDbSpline
70
0
71
2
72
6
73
3
74
0
42
0.000000001
43
0.0000000001
44
0.0000000001
40
0
40
0
40
0
40
1
40
1
40
1
10
1.094691553429783
20
-0.37997611126793562
30
0
10
1.1218331244747048
20
0.28950504698859514
30
0
10
1.2032578376094705
20
1.1218332473288661
30
0
0
SPLINE
5
444
100
AcDbEntity
8
0
100
AcDbSpline
70
0
71
2
72
6
73
3
74
0
42
0.000000001
43
0.0000000001
44
0.0000000001
40
0
40
0
40
0
40
1
40
1
40
1
10
1.2032578376094705
20
1.1218332473288661
30
0
10
1.2846825507442361
20
1.9541608516226894
30
0
10
1.4294312384883767
20
2.8407715980063566
30
0
0
SPLINE
5
445
100
AcDbEntity
8
0
100
AcDbSpline
70
0
71
2
72
6
73
3
74
0
42
0.000000001
43
0.0000000001
44
0.0000000001
40
0
40
0
40
0
40
1
40
1
40
1
10
1.4294312384883767
20
2.8407715980063566
30
0
10
1.5741846946040994
20
3.7273823443900236
30
0
10
1.8094084647457009
20
4.4601928416739582
30
0
0
SPLINE
5
446
100
AcDbEntity
8
0
100
AcDbSpline
70
0
71
2
72
6
73
3
74
0
42
0.000000001
43
0.0000000001
44
0.0000000001
40
0
40
0
40
0
40
1
40
1
40
1
10
1.8094084647457009
20
4.4601928416739582
30
0
10
2.0446274665157205
20
5.1930033389578938
30
0
10
2.3884175208370095
20
5.6634496871482014
30
0
0
SPLINE
5
447
100
AcDbEntity
8
0
100
AcDbSpline
70
0
71
2
72
6
73
3
74
0
42
0.000000001
43
0.0000000001
44
0.0000000001
40
0
40
0
40
0
40
1
40
1
40
1
10
2.3884175208370095
20
5.6634496871482014
30
0
10
2.7322075751582986
20
6.133896035338509
30
0
10
3.2026551154415017
20
6.133896035338509
30
0
0
SPLINE
5
448
100
AcDbEntity
8
0
100
AcDbSpline
70
0
71
2
72
6
73
3
74
0
42
0.000000001
43
0.0000000001
44
0.0000000001
40
0
40
0
40
0
40
1
40
1
40
1
10
3.2026551154415017
20
6.133896035338509
30
0
10
3.5645363715450173
20
6.1338960353385072
30
0
10
3.7997601416866189
20
5.9800957862387758
30
0
0
SPLINE
5
449
100
AcDbEntity
8
0
100
AcDbSpline
70
0
71
2
72
6
73
3
74
0
42
0.000000001
43
0.0000000001
44
0.0000000001
40
0
40
0
40
0
40
1
40
1
40
1
10
3.7997601416866189
20
5.9800957862387758
30
0
10
4.0349839118282205
20
5.8262955371390444
30
0
10
4.1797325995723611
20
5.5820261661063295
30
0
0
SPLINE
5
450
100
AcDbEntity
8
0
100
AcDbSpline
70
0
71
2
72
6
73
3
74
0
42
0.000000001
43
0.0000000001
44
0.0000000001
40
0
40
0
40
0
40
1
40
1
40
1
10
4.1797325995723611
20
5.5820261661063295
30
0
10
4.3244908240596658
20
5.3377556029807192
30
0
10
4.3878147986690408
20
5.0392030898581597
30
0
0
SPLINE
5
451
100
AcDbEntity
8
0
100
AcDbSpline
70
0
71
2
72
6
73
3
74
0
42
0.000000001
43
0.0000000001
44
0.0000000001
40
0
40
0
40
0
40
1
40
1
40
1
10
4.3878147986690408
20
5.0392030898581597
30
0
10
4.4511483100215798
20
4.740650576735602
30
0
10
4.4511483100215798
20
4.4330512706290346
30
0
0
SPLINE
5
452
100
AcDbEntity
8
0
100
AcDbSpline
70
0
71
2
72
6
73
3
74
0
42
0.000000001
43
0.0000000001
44
0.0000000001
40
0
40
0
40
0
40
1
40
1
40
1
10
4.4511483100215798
20
4.4330512706290346
30
0
10
4.4511483100215798
20
3.6911939803610898
30
0
10
4.1887829688350564
20
2.7593480769644838
30
0
0
SPLINE
5
453
100
AcDbEntity
8
0
100
AcDbSpline
70
0
71
2
72
6
73
3
74
0
42
0.000000001
43
0.0000000001
44
0.0000000001
40
0
40
0
40
0
40
1
40
1
40
1
10
4.1887829688350564
20
2.7593480769644838
30
0
10
3.926417627648533
20
1.8275027696143253
30
0
10
3.5283444312374002
20
0.88661007323371011
30
0
0
SPLINE
5
454
100
AcDbEntity
8
0
100
AcDbSpline
70
0
71
2
72
6
73
3
74
0
42
0.000000001
43
0.0000000001
44
0.0000000001
40
0
40
0
40
0
40
1
40
1
40
1
10
3.5283444312374002
20
0.88661007323371011
30
0
10
3.1302760031978494
20
-0.054282623146904019
30
0
10
2.6688740638057595
20
-0.91375179848564914
30
0
0
SPLINE
5
455
100
AcDbEntity
8
0
100
AcDbSpline
70
0
71
2
72
6
73
3
74
0
42
0.000000001
43
0.0000000001
44
0.0000000001
40
0
40
0
40
0
40
1
40
1
40
1
10
2.6688740638057595
20
-0.91375179848564914
30
0
10
2.2074768927852517
20
-1.7732209738243943
30
0
10
1.8094084647457009
20
-2.3703254040230637
30
0
0
SPLINE
5
456
100
AcDbEntity
8
0
100
AcDbSpline
70
0
71
2
72
6
73
3
74
0
42
0.000000001
43
0.0000000001
44
0.0000000001
40
0
40
0
40
0
40
1
40
1
40
1
10
1.8094084647457009
20
-2.3703254040230637
30
0
10
1.8275044348995095
20
-2.551267224167717
30
0
10
1.8546460059444314
20
-2.9583836372841721
30
0
0
SPLINE
5
457
100
AcDbEntity
8
0
100
AcDbSpline
70
0
71
2
72
6
73
3
74
0
42
0.000000001
43
0.0000000001
44
0.0000000001
40
0
40
0
40
0
40
1
40
1
40
1
10
1.8546460059444314
20
-2.9583836372841721
30
0
10
1.8817875769893533
20
-3.3655012424935227
30
0
10
1.9451115515987283
20
-3.8540411766518479
30
0
0
SPLINE
5
458
100
AcDbEntity
8
0
100
AcDbSpline
70
0
71
2
72
6
73
3
74
0
42
0.000000001
43
0.0000000001
44
0.0000000001
40
0
40
0
40
0
40
1
40
1
40
1
10
1.9451115515987283
20
-3.8540411766518479
30
0
10
2.0084450629512673
20
-4.3425811108101726
30
0
10
2.1170065787593728
20
-4.8582638081063152
30
0
0
SPLINE
5
459
100
AcDbEntity
8
0
100
AcDbSpline
70
0
71
2
72
6
73
3
74
0
42
0.000000001
43
0.0000000001
44
0.0000000001
40
0
40
0
40
0
40
1
40
1
40
1
10
2.1170065787593728
20
-4.8582638081063152
30
0
10
2.2255680945674783
20
-5.3739453133095623
30
0
10
2.3884175208370095
20
-5.7991565044869304
30
0
0
SPLINE
5
460
100
AcDbEntity
8
0
100
AcDbSpline
70
0
71
2
72
6
73
3
74
0
42
0.000000001
43
0.0000000001
44
0.0000000001
40
0
40
0
40
0
40
1
40
1
40
1
10
2.3884175208370095
20
-5.7991565044869304
30
0
10
2.5512669471065408
20
-6.2243665035714031
30
0
10
2.777440347985447
20
-6.4957786377419353
30
0
0
SPLINE
5
461
100
AcDbEntity
8
0
100
AcDbSpline
70
0
71
2
72
6
73
3
74
0
42
0.000000001
43
0.0000000001
44
0.0000000001
40
0
40
0
40
0
40
1
40
1
40
1
10
2.777440347985447
20
-6.4957786377419353
30
0
10
3.0036185172359353
20
-6.767189579819572
30
0
10
3.2931206610957986
20
-6.767189579819572
30
0
0
SPLINE
5
462
100
AcDbEntity
8
0
100
AcDbSpline
70
0
71
2
72
6
73
3
74
0
42
0.000000001
43
0.0000000001
44
0.0000000001
40
0
40
0
40
0
40
1
40
1
40
1
10
3.2931206610957986
20
-6.767189579819572
30
0
10
3.8178513434688455
20
-6.767189579819572
30
0
10
4.3425820258418923
20
-6.23341448864831
30
0
0
SPLINE
5
463
100
AcDbEntity
8
0
100
AcDbSpline
70
0
71
2
72
6
73
3
74
0
42
0.000000001
43
0.0000000001
44
0.0000000001
40
0
40
0
40
0
40
1
40
1
40
1
10
4.3425820258418923
20
-6.23341448864831
30
0
10
4.8673127082149392
20
-5.6996382053841499
30
0
10
5.328709879235447
20
-4.9758745010842231
30
0
0
SPLINE
5
464
100
AcDbEntity
8
0
100
AcDbSpline
70
0
71
2
72
6
73
3
74
0
42
0.000000001
43
0.0000000001
44
0.0000000001
40
0
40
0
40
0
40
1
40
1
40
1
10
5.328709879235447
20
-4.9758745010842231
30
0
10
5.7901070502559548
20
-4.2521107967842964
30
0
10
6.1610386756221658
20
-3.510253506516352
30
0
0
SPLINE
5
465
100
AcDbEntity
8
0
100
AcDbSpline
70
0
71
2
72
6
73
3
74
0
42
0.000000001
43
0.0000000001
44
0.0000000001
40
0
40
0
40
0
40
1
40
1
40
1
10
6.1610386756221658
20
-3.510253506516352
30
0
10
6.5319607642452127
20
-2.7683962162484077
30
0
10
6.7129013922969705
20
-2.3522318180550483
30
0
0
SPLINE
5
466
100
AcDbEntity
8
0
100
AcDbSpline
70
0
71
2
72
6
73
3
74
0
42
0.000000001
43
0.0000000001
44
0.0000000001
40
0
40
0
40
0
40
1
40
1
40
1
10
6.7129013922969705
20
-2.3522318180550483
30
0
10
6.8033764746944314
20
-2.1351028259743621
30
0
10
7.038600244836033
20
-2.1351028259743621
30
0
0
SPLINE
5
467
100
AcDbEntity
8
0
100
AcDbSpline
70
0
71
2
72
6
73
3
74
0
42
0.000000001
43
0.0000000001
44
0.0000000001
40
0
40
0
40
0
40
1
40
1
40
1
10
7.038600244836033
20
-2.1351028259743621
30
0
10
7.1833489325801736
20
-2.1351028259743621
30
0
10
7.2919152167598611
20
-2.2436679180611541
30
0
0
SPLINE
5
468
100
AcDbEntity
8
0
100
AcDbSpline
70
0
71
2
72
6
73
3
74
0
42
0.000000001
43
0.0000000001
44
0.0000000001
40
0
40
0
40
0
40
1
40
1
40
1
10
7.2919152167598611
20
-2.2436679180611541
30
0
10
7.4004815009395486
20
-2.3522318180550505
30
0
10
7.4004815009395486
20
-2.4969852741707732
30
0
0
SPLINE
5
469
100
AcDbEntity
8
0
100
AcDbSpline
70
0
71
2
72
6
73
3
74
0
42
0.000000001
43
0.0000000001
44
0.0000000001
40
0
40
0
40
0
40
1
40
1
40
1
10
7.4004815009395486
20
-2.4969852741707732
30
0
10
7.4004815009395486
20
-2.5331724461068084
30
0
10
7.3642895606319314
20
-2.6417375381936004
30
0
0
SPLINE
5
470
100
AcDbEntity
8
0
100
AcDbSpline
70
0
71
2
72
6
73
3
74
0
42
0.000000001
43
0.0000000001
44
0.0000000001
40
0
40
0
40
0
40
1
40
1
40
1
10
7.3642895606319314
20
-2.6417375381936004
30
0
10
7.1290657904903298
20
-3.1845606144417693
30
0
10
6.7129013922969705
20
-4.0168882187355903
30
0
0
SPLINE
5
471
100
AcDbEntity
8
0
100
AcDbSpline
70
0
71
2
72
6
73
3
74
0
42
0.000000001
43
0.0000000001
44
0.0000000001
40
0
40
0
40
0
40
1
40
1
40
1
10
6.7129013922969705
20
-4.0168882187355903
30
0
10
6.2967465308467752
20
-4.8492158230294136
30
0
10
5.762965479211033
20
-5.6182146843422798
30
0
0
SPLINE
5
472
100
AcDbEntity
8
0
100
AcDbSpline
70
0
71
2
72
6
73
3
74
0
42
0.000000001
43
0.0000000001
44
0.0000000001
40
0
40
0
40
0
40
1
40
1
40
1
10
5.762965479211033
20
-5.6182146843422798
30
0
10
5.2291939643184548
20
-6.387213545655146
30
0
10
4.6049473670284158
20
-6.9390834148873237
30
0
0
SPLINE
5
473
100
AcDbEntity
8
0
100
AcDbSpline
70
0
71
2
72
6
73
3
74
0
42
0.000000001
43
0.0000000001
44
0.0000000001
40
0
40
0
40
0
40
1
40
1
40
1
10
4.6049473670284158
20
-6.9390834148873237
30
0
10
3.9807007697383767
20
-7.4909532841194988
30
0
10
3.2931206610957986
20
-7.4909532841194988
30
0
0
SPLINE
5
474
100
AcDbEntity
8
0
100
AcDbSpline
70
0
71
2
72
6
73
3
74
0
42
0.000000001
43
0.0000000001
44
0.0000000001
40
0
40
0
40
0
40
1
40
1
40
1
10
7.6393196967403298
20
-0.94089336953057545
30
0
10
7.9469273474971658
20
-0.39807029328240651
30
0
10
8.2816670325557595
20
0.27141086497412426
30
0
0
SPLINE
5
475
100
AcDbEntity
8
0
100
AcDbSpline
70
0
71
2
72
6
73
3
74
0
42
0.000000001
43
0.0000000001
44
0.0000000001
40
0
40
0
40
0
40
1
40
1
40
1
10
8.2816670325557595
20
0.27141086497412426
30
0
10
8.6164067176143533
20
0.94089202323065502
30
0
10
8.9059136298457986
20
1.6646557275305807
30
0
0
SPLINE
5
476
100
AcDbEntity
8
0
100
AcDbSpline
70
0
71
2
72
6
73
3
74
0
42
0.000000001
43
0.0000000001
44
0.0000000001
40
0
40
0
40
0
40
1
40
1
40
1
10
8.9059136298457986
20
1.6646557275305807
30
0
10
9.1954110053340798
20
2.3884194318305072
30
0
10
9.385402002648533
20
3.1031357470999774
30
0
0
SPLINE
5
477
100
AcDbEntity
8
0
100
AcDbSpline
70
0
71
2
72
6
73
3
74
0
42
0.000000001
43
0.0000000001
44
0.0000000001
40
0
40
0
40
0
40
1
40
1
40
1
10
9.385402002648533
20
3.1031357470999774
30
0
10
9.5753929999629861
20
3.8178526584158954
30
0
10
9.5753929999629861
20
4.4511448565970477
30
0
0
SPLINE
5
478
100
AcDbEntity
8
0
100
AcDbSpline
70
0
71
2
72
6
73
3
74
0
42
0.000000001
43
0.0000000001
44
0.0000000001
40
0
40
0
40
0
40
1
40
1
40
1
10
9.5753929999629861
20
4.4511448565970477
30
0
10
9.5753929999629861
20
4.5958983127127704
30
0
10
9.5663426307002908
20
4.7587453547965106
30
0
0
SPLINE
5
479
100
AcDbEntity
8
0
100
AcDbSpline
70
0
71
2
72
6
73
3
74
0
42
0.000000001
43
0.0000000001
44
0.0000000001
40
0
40
0
40
0
40
1
40
1
40
1
10
9.5663426307002908
20
4.7587453547965106
30
0
10
9.5572922614375955
20
4.9215912047873553
30
0
10
9.5030186560909158
20
5.066344660903078
30
0
0
SPLINE
5
480
100
AcDbEntity
8
0
100
AcDbSpline
70
0
71
2
72
6
73
3
74
0
42
0.000000001
43
0.0000000001
44
0.0000000001
40
0
40
0
40
0
40
1
40
1
40
1
10
9.5030186560909158
20
5.066344660903078
30
0
10
9.448735514001072
20
5.2110969249259051
30
0
10
9.3492100623409158
20
5.3106140319357928
30
0
0
SPLINE
5
481
100
AcDbEntity
8
0
100
AcDbSpline
70
0
71
2
72
6
73
3
74
0
42
0.000000001
43
0.0000000001
44
0.0000000001
40
0
40
0
40
0
40
1
40
1
40
1
10
9.3492100623409158
20
5.3106140319357928
30
0
10
9.2496941474239236
20
5.410132331038576
30
0
10
9.0506623175899392
20
5.4101323310385769
30
0
0
SPLINE
5
482
100
AcDbEntity
8
0
100
AcDbSpline
70
0
71
2
72
6
73
3
74
0
42
0.000000001
43
0.0000000001
44
0.0000000001
40
0
40
0
40
0
40
1
40
1
40
1
10
9.0506623175899392
20
5.4101323310385769
30
0
10
8.8154385474483377
20
5.4101323310385769
30
0
10
8.6164067176143533
20
4.9939679328452176
30
0
0
SPLINE
5
483
100
AcDbEntity
8
0
100
AcDbSpline
70
0
71
2
72
6
73
3
74
0
42
0.000000001
43
0.0000000001
44
0.0000000001
40
0
40
0
40
0
40
1
40
1
40
1
10
8.6164067176143533
20
4.9939679328452176
30
0
10
8.4173653510372048
20
4.5778035346518582
30
0
10
8.2545254615108377
20
3.9445113364707063
30
0
0
SPLINE
5
484
100
AcDbEntity
8
0
100
AcDbSpline
70
0
71
2
72
6
73
3
74
0
42
0.000000001
43
0.0000000001
44
0.0000000001
40
0
40
0
40
0
40
1
40
1
40
1
10
8.2545254615108377
20
3.9445113364707063
30
0
10
8.0916760352413064
20
3.3112179461966584
30
0
10
7.9831097510616189
20
2.5422190848837922
30
0
0
SPLINE
5
485
100
AcDbEntity
8
0
100
AcDbSpline
70
0
71
2
72
6
73
3
74
0
42
0.000000001
43
0.0000000001
44
0.0000000001
40
0
40
0
40
0
40
1
40
1
40
1
10
7.9831097510616189
20
2.5422190848837922
30
0
10
7.8745434668819314
20
1.773220223570926
30
0
10
7.8021691230098611
20
1.0675507012854646
30
0
0
SPLINE
5
486
100
AcDbEntity
8
0
100
AcDbSpline
70
0
71
2
72
6
73
3
74
0
42
0.000000001
43
0.0000000001
44
0.0000000001
40
0
40
0
40
0
40
1
40
1
40
1
10
7.8021691230098611
20
1.0675507012854646
30
0
10
7.7297947791377908
20
0.36188117900000316
30
0
10
7.6845620063106423
20
-0.18998869023217457
30
0
0
SPLINE
5
487
100
AcDbEntity
8
0
100
AcDbSpline
70
0
71
2
72
6
73
3
74
0
42
0.000000001
43
0.0000000001
44
0.0000000001
40
0
40
0
40
0
40
1
40
1
40
1
10
7.6845620063106423
20
-0.18998869023217457
30
0
10
7.6393196967403298
20
-0.74185796341790455
30
0
10
7.6393196967403298
20
-0.94089336953057545
30
0
0
SPLINE
5
488
100
AcDbEntity
8
0
100
AcDbSpline
70
0
71
2
72
6
73
3
74
0
42
0.000000001
43
0.0000000001
44
0.0000000001
40
0
40
0
40
0
40
1
40
1
40
1
10
9.1411278632442361
20
-7.4909532841195041
30
0
10
8.6164067176143533
20
-7.4909532841195041
30
0
10
8.2454750922481423
20
-7.1290720280159885
30
0
0
SPLINE
5
489
100
AcDbEntity
8
0
100
AcDbSpline
70
0
71
2
72
6
73
3
74
0
42
0.000000001
43
0.0000000001
44
0.0000000001
40
0
40
0
40
0
40
1
40
1
40
1
10
8.2454750922481423
20
-7.1290720280159885
30
0
10
7.8745434668819314
20
-6.7671895798195774
30
0
10
7.6212284949581033
20
-6.2062729176033908
30
0
0
SPLINE
5
490
100
AcDbEntity
8
0
100
AcDbSpline
70
0
71
2
72
6
73
3
74
0
42
0.000000001
43
0.0000000001
44
0.0000000001
40
0
40
0
40
0
40
1
40
1
40
1
10
7.6212284949581033
20
-6.2062729176033908
30
0
10
7.3679135230342752
20
-5.6453562553872043
30
0
10
7.2322056678096658
20
-4.9487341221321994
30
0
0
SPLINE
5
491
100
AcDbEntity
8
0
100
AcDbSpline
70
0
71
2
72
6
73
3
74
0
42
0.000000001
43
0.0000000001
44
0.0000000001
40
0
40
0
40
0
40
1
40
1
40
1
10
7.2322056678096658
20
-4.9487341221321994
30
0
10
7.0964978125850564
20
-4.252110796784299
30
0
10
7.0241234687129861
20
-3.5645354565133025
30
0
0
SPLINE
5
492
100
AcDbEntity
8
0
100
AcDbSpline
70
0
71
2
72
6
73
3
74
0
42
0.000000001
43
0.0000000001
44
0.0000000001
40
0
40
0
40
0
40
1
40
1
40
1
10
7.0241234687129861
20
-3.5645354565133025
30
0
10
6.9517491248409158
20
-2.8769601162423064
30
0
10
6.9336579230586892
20
-2.2889030750740935
30
0
0
SPLINE
5
493
100
AcDbEntity
8
0
100
AcDbSpline
70
0
71
2
72
6
73
3
74
0
42
0.000000001
43
0.0000000001
44
0.0000000001
40
0
40
0
40
0
40
1
40
1
40
1
10
6.9336579230586892
20
-2.2889030750740935
30
0
10
6.9155571845332986
20
-1.700844841812984
30
0
10
6.9155571845332986
20
-1.357057171677486
30
0
0
SPLINE
5
494
100
AcDbEntity
8
0
100
AcDbSpline
70
0
71
2
72
6
73
3
74
0
42
0.000000001
43
0.0000000001
44
0.0000000001
40
0
40
0
40
0
40
1
40
1
40
1
10
6.9155571845332986
20
-1.357057171677486
30
0
10
6.9155571845332986
20
-1.0494578655709186
30
0
10
6.9426987555782205
20
-0.37997611126794006
30
0
0
SPLINE
5
495
100
AcDbEntity
8
0
100
AcDbSpline
70
0
71
2
72
6
73
3
74
0
42
0.000000001
43
0.0000000001
44
0.0000000001
40
0
40
0
40
0
40
1
40
1
40
1
10
6.9426987555782205
20
-0.37997611126794006
30
0
10
6.9698403266231423
20
0.2895050469885907
30
0
10
7.051265039757908
20
1.1218332473288617
30
0
0
SPLINE
5
496
100
AcDbEntity
8
0
100
AcDbSpline
70
0
71
2
72
6
73
3
74
0
42
0.000000001
43
0.0000000001
44
0.0000000001
40
0
40
0
40
0
40
1
40
1
40
1
10
7.051265039757908
20
1.1218332473288617
30
0
10
7.1326897528926736
20
1.9541608516226849
30
0
10
7.2774384406368142
20
2.8407715980063521
30
0
0
SPLINE
5
497
100
AcDbEntity
8
0
100
AcDbSpline
70
0
71
2
72
6
73
3
74
0
42
0.000000001
43
0.0000000001
44
0.0000000001
40
0
40
0
40
0
40
1
40
1
40
1
10
7.2774384406368142
20
2.8407715980063521
30
0
10
7.4221966651241189
20
3.7273823443900183
30
0
10
7.6574204352657205
20
4.4601928416739538
30
0
0
SPLINE
5
498
100
AcDbEntity
8
0
100
AcDbSpline
70
0
71
2
72
6
73
3
74
0
42
0.000000001
43
0.0000000001
44
0.0000000001
40
0
40
0
40
0
40
1
40
1
40
1
10
7.6574204352657205
20
4.4601928416739538
30
0
10
7.892644205407322
20
5.1930033389578885
30
0
10
8.236424722985447
20
5.6634496871481961
30
0
0
SPLINE
5
499
100
AcDbEntity
8
0
100
AcDbSpline
70
0
71
2
72
6
73
3
74
0
42
0.000000001
43
0.0000000001
44
0.0000000001
40
0
40
0
40
0
40
1
40
1
40
1
10
8.236424722985447
20
5.6634496871481961
30
0
10
8.5802147773067361
20
6.1338960353385037
30
0
10
9.0506623175899392
20
6.1338960353385028
30
0
0
SPLINE
5
500
100
AcDbEntity
8
0
100
AcDbSpline
70
0
71
2
72
6
73
3
74
0
42
0.000000001
43
0.0000000001
44
0.0000000001
40
0
40
0
40
0
40
1
40
1
40
1
10
9.0506623175899392
20
6.1338960353385028
30
0
10
9.4125435736934548
20
6.1338960353385028
30
0
10
9.6477673438350564
20
5.9800957862387714
30
0
0
SPLINE
5
501
100
AcDbEntity
8
0
100
AcDbSpline
70
0
71
2
72
6
73
3
74
0
42
0.000000001
43
0.0000000001
44
0.0000000001
40
0
40
0
40
0
40
1
40
1
40
1
10
9.6477673438350564
20
5.9800957862387714
30
0
10
9.882991113976658
20
5.8262955371390399
30
0
10
10.027739801720799
20
5.5820261661063242
30
0
0
SPLINE
5
502
100
AcDbEntity
8
0
100
AcDbSpline
70
0
71
2
72
6
73
3
74
0
42
0.000000001
43
0.0000000001
44
0.0000000001
40
0
40
0
40
0
40
1
40
1
40
1
10
10.027739801720799
20
5.5820261661063242
30
0
10
10.172498026208103
20
5.3377556029807138
30
0
10
10.235822000817478
20
5.0392030898581552
30
0
0
SPLINE
5
503
100
AcDbEntity
8
0
100
AcDbSpline
70
0
71
2
72
6
73
3
74
0
42
0.000000001
43
0.0000000001
44
0.0000000001
40
0
40
0
40
0
40
1
40
1
40
1
10
10.235822000817478
20
5.0392030898581552
30
0
10
10.299155512170017
20
4.7406505767355975
30
0
10
10.299155512170017
20
4.4330512706290301
30
0
0
SPLINE
5
504
100
AcDbEntity
8
0
100
AcDbSpline
70
0
71
2
72
6
73
3
74
0
42
0.000000001
43
0.0000000001
44
0.0000000001
40
0
40
0
40
0
40
1
40
1
40
1
10
10.299155512170017
20
4.4330512706290301
30
0
10
10.299155512170017
20
3.6911939803610854
30
0
10
10.036790170983494
20
2.7593480769644794
30
0
0
SPLINE
5
505
100
AcDbEntity
8
0
100
AcDbSpline
70
0
71
2
72
6
73
3
74
0
42
0.000000001
43
0.0000000001
44
0.0000000001
40
0
40
0
40
0
40
1
40
1
40
1
10
10.036790170983494
20
2.7593480769644794
30
0
10
9.7744248297969705
20
1.8275027696143209
30
0
10
9.3763516333858377
20
0.88661007323370566
30
0
0
SPLINE
5
506
100
AcDbEntity
8
0
100
AcDbSpline
70
0
71
2
72
6
73
3
74
0
42
0.000000001
43
0.0000000001
44
0.0000000001
40
0
40
0
40
0
40
1
40
1
40
1
10
9.3763516333858377
20
0.88661007323370566
30
0
10
8.9782879737178689
20
-0.05428262314690957
30
0
10
8.5168908026973611
20
-0.91375179848565358
30
0
0
SPLINE
5
507
100
AcDbEntity
8
0
100
AcDbSpline
70
0
71
2
72
6
73
3
74
0
42
0.000000001
43
0.0000000001
44
0.0000000001
40
0
40
0
40
0
40
1
40
1
40
1
10
8.5168908026973611
20
-0.91375179848565358
30
0
10
8.0554840949336892
20
-1.7732209738243987
30
0
10
7.6574204352657205
20
-2.3703254040230681
30
0
0
SPLINE
5
508
100
AcDbEntity
8
0
100
AcDbSpline
70
0
71
2
72
6
73
3
74
0
42
0.000000001
43
0.0000000001
44
0.0000000001
40
0
40
0
40
0
40
1
40
1
40
1
10
7.6574204352657205
20
-2.3703254040230681
30
0
10
7.675511637047947
20
-2.5512672241677214
30
0
10
7.7026532080928689
20
-2.9583836372841765
30
0
0
SPLINE
5
509
100
AcDbEntity
8
0
100
AcDbSpline
70
0
71
2
72
6
73
3
74
0
42
0.000000001
43
0.0000000001
44
0.0000000001
40
0
40
0
40
0
40
1
40
1
40
1
10
7.7026532080928689
20
-2.9583836372841765
30
0
10
7.7297947791377908
20
-3.3655012424935271
30
0
10
7.7931187537471658
20
-3.8540411766518523
30
0
0
SPLINE
5
510
100
AcDbEntity
8
0
100
AcDbSpline
70
0
71
2
72
6
73
3
74
0
42
0.000000001
43
0.0000000001
44
0.0000000001
40
0
40
0
40
0
40
1
40
1
40
1
10
7.7931187537471658
20
-3.8540411766518523
30
0
10
7.8564522650997048
20
-4.3425811108101779
30
0
10
7.9650185492793923
20
-4.8582638081063205
30
0
0
SPLINE
5
511
100
AcDbEntity
8
0
100
AcDbSpline
70
0
71
2
72
6
73
3
74
0
42
0.000000001
43
0.0000000001
44
0.0000000001
40
0
40
0
40
0
40
1
40
1
40
1
10
7.9650185492793923
20
-4.8582638081063205
30
0
10
8.0735848334590798
20
-5.3739453133095676
30
0
10
8.236424722985447
20
-5.7991565044869358
30
0
0
SPLINE
5
512
100
AcDbEntity
8
0
100
AcDbSpline
70
0
71
2
72
6
73
3
74
0
42
0.000000001
43
0.0000000001
44
0.0000000001
40
0
40
0
40
0
40
1
40
1
40
1
10
8.236424722985447
20
-5.7991565044869358
30
0
10
8.3992741492549783
20
-6.2243665035714084
30
0
10
8.6254475501338845
20
-6.4957786377419406
30
0
0
SPLINE
5
513
100
AcDbEntity
8
0
100
AcDbSpline
70
0
71
2
72
6
73
3
74
0
42
0.000000001
43
0.0000000001
44
0.0000000001
40
0
40
0
40
0
40
1
40
1
40
1
10
8.6254475501338845
20
-6.4957786377419406
30
0
10
8.8516304877559548
20
-6.7671895798195774
30
0
10
9.1411278632442361
20
-6.7671895798195774
30
0
0
SPLINE
5
514
100
AcDbEntity
8
0
100
AcDbSpline
70
0
71
2
72
6
73
3
74
0
42
0.000000001
43
0.0000000001
44
0.0000000001
40
0
40
0
40
0
40
1
40
1
40
1
10
9.1411278632442361
20
-6.7671895798195774
30
0
10
9.665858545617283
20
-6.7671895798195791
30
0
10
10.19058922799033
20
-6.2334144886483145
30
0
0
SPLINE
5
515
100
AcDbEntity
8
0
100
AcDbSpline
70
0
71
2
72
6
73
3
74
0
42
0.000000001
43
0.0000000001
44
0.0000000001
40
0
40
0
40
0
40
1
40
1
40
1
10
10.19058922799033
20
-6.2334144886483145
30
0
10
10.715319910363377
20
-5.6996382053841543
30
0
10
11.176717081383885
20
-4.9758745010842276
30
0
0
SPLINE
5
516
100
AcDbEntity
8
0
100
AcDbSpline
70
0
71
2
72
6
73
3
74
0
42
0.000000001
43
0.0000000001
44
0.0000000001
40
0
40
0
40
0
40
1
40
1
40
1
10
11.176717081383885
20
-4.9758745010842276
30
0
10
11.638114252404392
20
-4.2521107967843008
30
0
10
12.009045877770603
20
-3.5102535065163565
30
0
0
SPLINE
5
517
100
AcDbEntity
8
0
100
AcDbSpline
70
0
71
2
72
6
73
3
74
0
42
0.000000001
43
0.0000000001
44
0.0000000001
40
0
40
0
40
0
40
1
40
1
40
1
10
12.009045877770603
20
-3.5102535065163565
30
0
10
12.379977503136814
20
-2.7683962162484144
30
0
10
12.560918131188572
20
-2.352231818055055
30
0
0
SPLINE
5
518
100
AcDbEntity
8
0
100
AcDbSpline
70
0
71
2
72
6
73
3
74
0
42
0.000000001
43
0.0000000001
44
0.0000000001
40
0
40
0
40
0
40
1
40
1
40
1
10
12.560918131188572
20
-2.352231818055055
30
0
10
12.651383676842869
20
-2.1351028259743665
30
0
10
12.88660744698447
20
-2.1351028259743665
30
0
0
SPLINE
5
519
100
AcDbEntity
8
0
100
AcDbSpline
70
0
71
2
72
6
73
3
74
0
42
0.000000001
43
0.0000000001
44
0.0000000001
40
0
40
0
40
0
40
1
40
1
40
1
10
12.88660744698447
20
-2.1351028259743665
30
0
10
13.031365671471775
20
-2.1351028259743665
30
0
10
13.139922418908299
20
-2.2436679180611585
30
0
0
SPLINE
5
520
100
AcDbEntity
8
0
100
AcDbSpline
70
0
71
2
72
6
73
3
74
0
42
0.000000001
43
0.0000000001
44
0.0000000001
40
0
40
0
40
0
40
1
40
1
40
1
10
13.139922418908299
20
-2.2436679180611585
30
0
10
13.248488703087986
20
-2.352231818055055
30
0
10
13.248488703087986
20
-2.4969852741707776
30
0
0
SPLINE
5
521
100
AcDbEntity
8
0
100
AcDbSpline
70
0
71
2
72
6
73
3
74
0
42
0.000000001
43
0.0000000001
44
0.0000000001
40
0
40
0
40
0
40
1
40
1
40
1
10
13.248488703087986
20
-2.4969852741707776
30
0
10
13.248488703087986
20
-2.5331724461068128
30
0
10
13.212306299523533
20
-2.6417375381936048
30
0
0
SPLINE
5
522
100
AcDbEntity
8
0
100
AcDbSpline
70
0
71
2
72
6
73
3
74
0
42
0.000000001
43
0.0000000001
44
0.0000000001
40
0
40
0
40
0
40
1
40
1
40
1
10
13.212306299523533
20
-2.6417375381936048
30
0
10
12.977082529381931
20
-3.1845606144417737
30
0
10
12.560918131188572
20
-4.0168882187355965
30
0
0
SPLINE
5
523
100
AcDbEntity
8
0
100
AcDbSpline
70
0
71
2
72
6
73
3
74
0
42
0.000000001
43
0.0000000001
44
0.0000000001
40
0
40
0
40
0
40
1
40
1
40
1
10
12.560918131188572
20
-4.0168882187355965
30
0
10
12.144753732995213
20
-4.8492158230294198
30
0
10
11.61097268135947
20
-5.6182146843422842
30
0
0
SPLINE
5
524
100
AcDbEntity
8
0
100
AcDbSpline
70
0
71
2
72
6
73
3
74
0
42
0.000000001
43
0.0000000001
44
0.0000000001
40
0
40
0
40
0
40
1
40
1
40
1
10
11.61097268135947
20
-5.6182146843422842
30
0
10
11.077201166466892
20
-6.3872135456551504
30
0
10
10.452954569176853
20
-6.9390834148873282
30
0
0
SPLINE
5
525
100
AcDbEntity
8
0
100
AcDbSpline
70
0
71
2
72
6
73
3
74
0
42
0.000000001
43
0.0000000001
44
0.0000000001
40
0
40
0
40
0
40
1
40
1
40
1
10
10.452954569176853
20
-6.9390834148873282
30
0
10
9.8287079718868142
20
-7.4909532841195059
30
0
10
9.1411278632442361
20
-7.4909532841195041
30
0
0
SPLINE
5
526
100
AcDbEntity
8
0
100
AcDbSpline
70
0
71
2
72
6
73
3
74
0
42
0.000000001
43
0.0000000001
44
0.0000000001
40
0
40
0
40
0
40
1
40
1
40
1
10
14.192998209313572
20
-7.4909532841195077
30
0
10
13.650176325158299
20
-7.4909532841195077
30
0
10
13.342578211144627
20
-7.2104943569649667
30
0
0
SPLINE
5
527
100
AcDbEntity
8
0
100
AcDbSpline
70
0
71
2
72
6
73
3
74
0
42
0.000000001
43
0.0000000001
44
0.0000000001
40
0
40
0
40
0
40
1
40
1
40
1
10
13.342578211144627
20
-7.2104943569649667
30
0
10
13.034980097130955
20
-6.9300366219033211
30
0
10
12.872130670861424
20
-6.5138722237099618
30
0
0
SPLINE
5
528
100
AcDbEntity
8
0
100
AcDbSpline
70
0
71
2
72
6
73
3
74
0
42
0.000000001
43
0.0000000001
44
0.0000000001
40
0
40
0
40
0
40
1
40
1
40
1
10
12.872130670861424
20
-6.5138722237099618
30
0
10
12.709281244591892
20
-6.0977090176094979
30
0
10
12.673098841027439
20
-5.6091678913582772
30
0
0
SPLINE
5
529
100
AcDbEntity
8
0
100
AcDbSpline
70
0
71
2
72
6
73
3
74
0
42
0.000000001
43
0.0000000001
44
0.0000000001
40
0
40
0
40
0
40
1
40
1
40
1
10
12.673098841027439
20
-5.6091678913582772
30
0
10
12.636906900719822
20
-5.120627957199952
30
0
10
12.636906900719822
20
-4.7225583370675057
30
0
0
SPLINE
5
530
100
AcDbEntity
8
0
100
AcDbSpline
70
0
71
2
72
6
73
3
74
0
42
0.000000001
43
0.0000000001
44
0.0000000001
40
0
40
0
40
0
40
1
40
1
40
1
10
12.636906900719822
20
-4.7225583370675057
30
0
10
12.636906900719822
20
-4.234017210816285
30
0
10
12.673098841027439
20
-3.6731005486000989
30
0
0
SPLINE
5
531
100
AcDbEntity
8
0
100
AcDbSpline
70
0
71
2
72
6
73
3
74
0
42
0.000000001
43
0.0000000001
44
0.0000000001
40
0
40
0
40
0
40
1
40
1
40
1
10
12.673098841027439
20
-3.6731005486000989
30
0
10
12.709281244591892
20
-3.1121838863839124
30
0
10
12.763564386681736
20
-2.4788904961098646
30
0
0
SPLINE
5
532
100
AcDbEntity
8
0
100
AcDbSpline
70
0
71
2
72
6
73
3
74
0
42
0.000000001
43
0.0000000001
44
0.0000000001
40
0
40
0
40
0
40
1
40
1
40
1
10
12.763564386681736
20
-2.4788904961098646
30
0
10
12.781665125207127
20
-2.3341382320870374
30
0
10
12.89022187264365
20
-2.2255731400002454
30
0
0
SPLINE
5
533
100
AcDbEntity
8
0
100
AcDbSpline
70
0
71
2
72
6
73
3
74
0
42
0.000000001
43
0.0000000001
44
0.0000000001
40
0
40
0
40
0
40
1
40
1
40
1
10
12.89022187264365
20
-2.2255731400002454
30
0
10
12.998788156823338
20
-2.1170080479134534
30
0
10
13.143546381310642
20
-2.1351028259743665
30
0
0
SPLINE
5
534
100
AcDbEntity
8
0
100
AcDbSpline
70
0
71
2
72
6
73
3
74
0
42
0.000000001
43
0.0000000001
44
0.0000000001
40
0
40
0
40
0
40
1
40
1
40
1
10
13.143546381310642
20
-2.1351028259743665
30
0
10
13.288295069054783
20
-2.1531976040352796
30
0
10
13.39686135323447
20
-2.2708094891060804
30
0
0
SPLINE
5
535
100
AcDbEntity
8
0
100
AcDbSpline
70
0
71
2
72
6
73
3
74
0
42
0.000000001
43
0.0000000001
44
0.0000000001
40
0
40
0
40
0
40
1
40
1
40
1
10
13.39686135323447
20
-2.2708094891060804
30
0
10
13.505427637414158
20
-2.3884201820839857
30
0
10
13.487326898888767
20
-2.5331724461068128
30
0
0
SPLINE
5
536
100
AcDbEntity
8
0
100
AcDbSpline
70
0
71
2
72
6
73
3
74
0
42
0.000000001
43
0.0000000001
44
0.0000000001
40
0
40
0
40
0
40
1
40
1
40
1
10
13.487326898888767
20
-2.5331724461068128
30
0
10
13.433053293542088
20
-3.1664658363808607
30
0
10
13.39686135323447
20
-3.7002409275521253
30
0
0
SPLINE
5
537
100
AcDbEntity
8
0
100
AcDbSpline
70
0
71
2
72
6
73
3
74
0
42
0.000000001
43
0.0000000001
44
0.0000000001
40
0
40
0
40
0
40
1
40
1
40
1
10
13.39686135323447
20
-3.7002409275521253
30
0
10
13.360669412926853
20
-4.234017210816285
30
0
10
13.360669412926853
20
-4.7044635590065926
30
0
0
SPLINE
5
538
100
AcDbEntity
8
0
100
AcDbSpline
70
0
71
2
72
6
73
3
74
0
42
0.000000001
43
0.0000000001
44
0.0000000001
40
0
40
0
40
0
40
1
40
1
40
1
10
13.360669412926853
20
-4.7044635590065926
30
0
10
13.360669412926853
20
-4.9215925510872811
30
0
10
13.369719782189549
20
-5.2744270142067879
30
0
0
SPLINE
5
539
100
AcDbEntity
8
0
100
AcDbSpline
70
0
71
2
72
6
73
3
74
0
42
0.000000001
43
0.0000000001
44
0.0000000001
40
0
40
0
40
0
40
1
40
1
40
1
10
13.369719782189549
20
-5.2744270142067879
30
0
10
13.378770151452244
20
-5.6272614773262948
30
0
10
13.451144495324314
20
-5.962002354477784
30
0
0
SPLINE
5
540
100
AcDbEntity
8
0
100
AcDbSpline
70
0
71
2
72
6
73
3
74
0
42
0.000000001
43
0.0000000001
44
0.0000000001
40
0
40
0
40
0
40
1
40
1
40
1
10
13.451144495324314
20
-5.962002354477784
30
0
10
13.523518839196385
20
-6.2967432316292733
30
0
10
13.695409097985447
20
-6.5319670017708749
30
0
0
SPLINE
5
541
100
AcDbEntity
8
0
100
AcDbSpline
70
0
71
2
72
6
73
3
74
0
42
0.000000001
43
0.0000000001
44
0.0000000001
40
0
40
0
40
0
40
1
40
1
40
1
10
13.695409097985447
20
-6.5319670017708749
30
0
10
13.867308893517674
20
-6.7671895798195809
30
0
10
14.192998209313572
20
-6.7671895798195809
30
0
0
SPLINE
5
542
100
AcDbEntity
8
0
100
AcDbSpline
70
0
71
2
72
6
73
3
74
0
42
0.000000001
43
0.0000000001
44
0.0000000001
40
0
40
0
40
0
40
1
40
1
40
1
10
14.192998209313572
20
-6.7671895798195809
30
0
10
14.717728891686619
20
-6.7671895798195809
30
0
10
15.242459574059666
20
-6.2334144886483189
30
0
0
SPLINE
5
543
100
AcDbEntity
8
0
100
AcDbSpline
70
0
71
2
72
6
73
3
74
0
42
0.000000001
43
0.0000000001
44
0.0000000001
40
0
40
0
40
0
40
1
40
1
40
1
10
15.242459574059666
20
-6.2334144886483189
30
0
10
15.767190256432713
20
-5.6996382053841588
30
0
10
16.22858742745322
20
-4.975874501084232
30
0
0
SPLINE
5
544
100
AcDbEntity
8
0
100
AcDbSpline
70
0
71
2
72
6
73
3
74
0
42
0.000000001
43
0.0000000001
44
0.0000000001
40
0
40
0
40
0
40
1
40
1
40
1
10
16.22858742745322
20
-4.975874501084232
30
0
10
16.689984598473728
20
-4.2521107967843053
30
0
10
17.060916223839939
20
-3.5102535065163609
30
0
0
SPLINE
5
545
100
AcDbEntity
8
0
100
AcDbSpline
70
0
71
2
72
6
73
3
74
0
42
0.000000001
43
0.0000000001
44
0.0000000001
40
0
40
0
40
0
40
1
40
1
40
1
10
17.060916223839939
20
-3.5102535065163609
30
0
10
17.431838312462986
20
-2.7683962162484166
30
0
10
17.612788477257908
20
-2.3522318180550594
30
0
0
SPLINE
5
546
100
AcDbEntity
8
0
100
AcDbSpline
70
0
71
2
72
6
73
3
74
0
42
0.000000001
43
0.0000000001
44
0.0000000001
40
0
40
0
40
0
40
1
40
1
40
1
10
17.612788477257908
20
-2.3522318180550594
30
0
10
17.703254022912205
20
-2.135102825974371
30
0
10
17.938477793053806
20
-2.135102825974371
30
0
0
SPLINE
5
547
100
AcDbEntity
8
0
100
AcDbSpline
70
0
71
2
72
6
73
3
74
0
42
0.000000001
43
0.0000000001
44
0.0000000001
40
0
40
0
40
0
40
1
40
1
40
1
10
17.938477793053806
20
-2.135102825974371
30
0
10
18.083226480797947
20
-2.135102825974371
30
0
10
18.191792764977635
20
-2.2436679180611629
30
0
0
SPLINE
5
548
100
AcDbEntity
8
0
100
AcDbSpline
70
0
71
2
72
6
73
3
74
0
42
0.000000001
43
0.0000000001
44
0.0000000001
40
0
40
0
40
0
40
1
40
1
40
1
10
18.191792764977635
20
-2.2436679180611629
30
0
10
18.300359049157322
20
-2.3522318180550594
30
0
10
18.300359049157322
20
-2.4969852741707821
30
0
0
SPLINE
5
549
100
AcDbEntity
8
0
100
AcDbSpline
70
0
71
2
72
6
73
3
74
0
42
0.000000001
43
0.0000000001
44
0.0000000001
40
0
40
0
40
0
40
1
40
1
40
1
10
18.300359049157322
20
-2.4969852741707821
30
0
10
18.300359049157322
20
-2.5331724461068172
30
0
10
18.264167108849705
20
-2.6417375381936092
30
0
0
SPLINE
5
550
100
AcDbEntity
8
0
100
AcDbSpline
70
0
71
2
72
6
73
3
74
0
42
0.000000001
43
0.0000000001
44
0.0000000001
40
0
40
0
40
0
40
1
40
1
40
1
10
18.264167108849705
20
-2.6417375381936092
30
0
10
18.028943338708103
20
-3.1845606144417782
30
0
10
17.612788477257908
20
-4.0168882187356019
30
0
0
SPLINE
5
551
100
AcDbEntity
8
0
100
AcDbSpline
70
0
71
2
72
6
73
3
74
0
42
0.000000001
43
0.0000000001
44
0.0000000001
40
0
40
0
40
0
40
1
40
1
40
1
10
17.612788477257908
20
-4.0168882187356019
30
0
10
17.196624079064549
20
-4.8492158230294224
30
0
10
16.662843027428806
20
-5.6182146843422887
30
0
0
SPLINE
5
552
100
AcDbEntity
8
0
100
AcDbSpline
70
0
71
2
72
6
73
3
74
0
42
0.000000001
43
0.0000000001
44
0.0000000001
40
0
40
0
40
0
40
1
40
1
40
1
10
16.662843027428806
20
-5.6182146843422887
30
0
10
16.129071512536228
20
-6.3872135456551549
30
0
10
15.504824915246189
20
-6.9390834148873326
30
0
0
SPLINE
5
553
100
AcDbEntity
8
0
100
AcDbSpline
70
0
71
2
72
6
73
3
74
0
42
0.000000001
43
0.0000000001
44
0.0000000001
40
0
40
0
40
0
40
1
40
1
40
1
10
15.504824915246189
20
-6.9390834148873326
30
0
10
14.88057831795615
20
-7.4909532841195103
30
0
10
14.192998209313572
20
-7.4909532841195077
30
0
0
SPLINE
5
554
100
AcDbEntity
8
0
100
AcDbSpline
70
0
71
2
72
6
73
3
74
0
42
0.000000001
43
0.0000000001
44
0.0000000001
40
0
40
0
40
0
40
1
40
1
40
1
10
13.143546381310642
20
-0.86851664147271856
30
0
10
12.962605753258885
20
-0.86851664147271856
30
0
10
12.899272241906345
20
-0.72376378140344366
30
0
0
SPLINE
5
555
100
AcDbEntity
8
0
100
AcDbSpline
70
0
71
2
72
6
73
3
74
0
42
0.000000001
43
0.0000000001
44
0.0000000001
40
0
40
0
40
0
40
1
40
1
40
1
10
12.899272241906345
20
-0.72376378140344366
30
0
10
12.83594826729697
20
-0.57901151738061651
30
0
10
12.854039469079197
20
-0.43425865731134161
30
0
0
SPLINE
5
556
100
AcDbEntity
8
0
100
AcDbSpline
70
0
71
2
72
6
73
3
74
0
42
0.000000001
43
0.0000000001
44
0.0000000001
40
0
40
0
40
0
40
1
40
1
40
1
10
12.854039469079197
20
-0.43425865731134161
30
0
10
12.854039469079197
20
-0.39807029328241095
30
0
10
12.872130670861424
20
-0.35283513626947149
30
0
0
SPLINE
5
557
100
AcDbEntity
8
0
100
AcDbSpline
70
0
71
2
72
6
73
3
74
0
42
0.000000001
43
0.0000000001
44
0.0000000001
40
0
40
0
40
0
40
1
40
1
40
1
10
12.872130670861424
20
-0.35283513626947149
30
0
10
12.89022187264365
20
-0.30759997925653204
30
0
10
12.89022187264365
20
-0.28950579724206671
30
0
0
SPLINE
5
558
100
AcDbEntity
8
0
100
AcDbSpline
70
0
71
2
72
6
73
3
74
0
42
0.000000001
43
0.0000000001
44
0.0000000001
40
0
40
0
40
0
40
1
40
1
40
1
10
12.89022187264365
20
-0.28950579724206671
30
0
10
12.854039469079197
20
-0.25331743321313605
30
0
10
12.83594826729697
20
-0.15380032620324835
30
0
0
SPLINE
5
559
100
AcDbEntity
8
0
100
AcDbSpline
70
0
71
2
72
6
73
3
74
0
42
0.000000001
43
0.0000000001
44
0.0000000001
40
0
40
0
40
0
40
1
40
1
40
1
10
12.83594826729697
20
-0.15380032620324835
30
0
10
12.81784752877158
20
-0.054282623146912901
30
0
10
12.81784752877158
20
-0.01809485516442999
30
0
0
SPLINE
5
560
100
AcDbEntity
8
0
100
AcDbSpline
70
0
71
2
72
6
73
3
74
0
42
0.000000001
43
0.0000000001
44
0.0000000001
40
0
40
0
40
0
40
1
40
1
40
1
10
12.81784752877158
20
-0.01809485516442999
30
0
10
12.81784752877158
20
0.12665800490484491
30
0
10
12.926413812951267
20
0.23522250094518915
30
0
0
SPLINE
5
561
100
AcDbEntity
8
0
100
AcDbSpline
70
0
71
2
72
6
73
3
74
0
42
0.000000001
43
0.0000000001
44
0.0000000001
40
0
40
0
40
0
40
1
40
1
40
1
10
12.926413812951267
20
0.23522250094518915
30
0
10
13.034980097130955
20
0.34378699698553339
30
0
10
13.179728784875095
20
0.34378699698553339
30
0
0
SPLINE
5
562
100
AcDbEntity
8
0
100
AcDbSpline
70
0
71
2
72
6
73
3
74
0
42
0.000000001
43
0.0000000001
44
0.0000000001
40
0
40
0
40
0
40
1
40
1
40
1
10
13.179728784875095
20
0.34378699698553339
30
0
10
13.39686135323447
20
0.34378699698553339
30
0
10
13.505427637414158
20
0.13570539393530145
30
0
0
SPLINE
5
563
100
AcDbEntity
8
0
100
AcDbSpline
70
0
71
2
72
6
73
3
74
0
42
0.000000001
43
0.0000000001
44
0.0000000001
40
0
40
0
40
0
40
1
40
1
40
1
10
13.505427637414158
20
0.13570539393530145
30
0
10
13.613993921593845
20
-0.072376805161378233
30
0
10
13.613993921593845
20
-0.27141161522760138
30
0
0
SPLINE
5
564
100
AcDbEntity
8
0
100
AcDbSpline
70
0
71
2
72
6
73
3
74
0
42
0.000000001
43
0.0000000001
44
0.0000000001
40
0
40
0
40
0
40
1
40
1
40
1
10
13.613993921593845
20
-0.27141161522760138
30
0
10
13.613993921593845
20
-0.52472897133722052
30
0
10
13.514468469933689
20
-0.69662280640496954
30
0
0
SPLINE
5
565
100
AcDbEntity
8
0
100
AcDbSpline
70
0
71
2
72
6
73
3
74
0
42
0.000000001
43
0.0000000001
44
0.0000000001
40
0
40
0
40
0
40
1
40
1
40
1
10
13.514468469933689
20
-0.69662280640496954
30
0
10
13.414952555016697
20
-0.86851664147271856
30
0
10
13.143546381310642
20
-0.86851664147271856
30
0
0
SPLINE
5
566
100
AcDbEntity
8
0
100
AcDbSpline
70
0
71
2
72
6
73
3
74
0
42
0.000000001
43
0.0000000001
44
0.0000000001
40
0
40
0
40
0
40
1
40
1
40
1
10
22.954165735558689
20
-7.4909532841195166
30
0
10
22.393243112878025
20
-7.4909532841195148
30
0
10
22.12183693917197
20
-7.1109772499550861
30
0
0
SPLINE
5
567
100
AcDbEntity
8
0
100
AcDbSpline
70
0
71
2
72
6
73
3
74
0
42
0.000000001
43
0.0000000001
44
0.0000000001
40
0
40
0
40
0
40
1
40
1
40
1
10
22.12183693917197
20
-7.1109772499550861
30
0
10
21.850421228722752
20
-6.7310012157906574
30
0
10
21.759955683068455
20
-6.2062729176034015
30
0
0
SPLINE
5
568
100
AcDbEntity
8
0
100
AcDbSpline
70
0
71
2
72
6
73
3
74
0
42
0.000000001
43
0.0000000001
44
0.0000000001
40
0
40
0
40
0
40
1
40
1
40
1
10
21.759955683068455
20
-6.2062729176034015
30
0
10
21.669480600670994
20
-5.6815446194161456
30
0
10
21.696622171715916
20
-5.1206279571999591
30
0
0
SPLINE
5
569
100
AcDbEntity
8
0
100
AcDbSpline
70
0
71
2
72
6
73
3
74
0
42
0.000000001
43
0.0000000001
44
0.0000000001
40
0
40
0
40
0
40
1
40
1
40
1
10
21.696622171715916
20
-5.1206279571999591
30
0
10
21.723763742760838
20
-4.5597112949837726
30
0
10
21.741854944543064
20
-4.1978288467873615
30
0
0
SPLINE
5
570
100
AcDbEntity
8
0
100
AcDbSpline
70
0
71
2
72
6
73
3
74
0
42
0.000000001
43
0.0000000001
44
0.0000000001
40
0
40
0
40
0
40
1
40
1
40
1
10
21.741854944543064
20
-4.1978288467873615
30
0
10
21.741854944543064
20
-4.0168882187356036
30
0
10
21.778046884850681
20
-3.5826302345742267
30
0
0
SPLINE
5
571
100
AcDbEntity
8
0
100
AcDbSpline
70
0
71
2
72
6
73
3
74
0
42
0.000000001
43
0.0000000001
44
0.0000000001
40
0
40
0
40
0
40
1
40
1
40
1
10
21.778046884850681
20
-3.5826302345742267
30
0
10
21.814238825158299
20
-3.1483722504128497
30
0
10
21.787097254113377
20
-2.705067473267464
30
0
0
SPLINE
5
572
100
AcDbEntity
8
0
100
AcDbSpline
70
0
71
2
72
6
73
3
74
0
42
0.000000001
43
0.0000000001
44
0.0000000001
40
0
40
0
40
0
40
1
40
1
40
1
10
21.787097254113377
20
-2.705067473267464
30
0
10
21.759955683068455
20
-2.2617615040291827
30
0
10
21.642339029626072
20
-1.9179738338936847
30
0
0
SPLINE
5
573
100
AcDbEntity
8
0
100
AcDbSpline
70
0
71
2
72
6
73
3
74
0
42
0.000000001
43
0.0000000001
44
0.0000000001
40
0
40
0
40
0
40
1
40
1
40
1
10
21.642339029626072
20
-1.9179738338936847
30
0
10
21.524731912926853
20
-1.5741861637581867
30
0
10
21.217133798913181
20
-1.5741861637581867
30
0
0
SPLINE
5
574
100
AcDbEntity
8
0
100
AcDbSpline
70
0
71
2
72
6
73
3
74
0
42
0.000000001
43
0.0000000001
44
0.0000000001
40
0
40
0
40
0
40
1
40
1
40
1
10
21.217133798913181
20
-1.5741861637581867
30
0
10
21.000001230553806
20
-1.5741861637581867
30
0
10
20.719544687585056
20
-1.9179738338936836
30
0
0
SPLINE
5
575
100
AcDbEntity
8
0
100
AcDbSpline
70
0
71
2
72
6
73
3
74
0
42
0.000000001
43
0.0000000001
44
0.0000000001
40
0
40
0
40
0
40
1
40
1
40
1
10
20.719544687585056
20
-1.9179738338936836
30
0
10
20.439088144616306
20
-2.2617615040291827
30
0
10
20.149581232384861
20
-2.7955377872933407
30
0
0
SPLINE
5
576
100
AcDbEntity
8
0
100
AcDbSpline
70
0
71
2
72
6
73
3
74
0
42
0.000000001
43
0.0000000001
44
0.0000000001
40
0
40
0
40
0
40
1
40
1
40
1
10
20.149581232384861
20
-2.7955377872933407
30
0
10
19.860074320153416
20
-3.3293128784646053
30
0
10
19.588658609704197
20
-3.9806998547066708
30
0
0
SPLINE
5
577
100
AcDbEntity
8
0
100
AcDbSpline
70
0
71
2
72
6
73
3
74
0
42
0.000000001
43
0.0000000001
44
0.0000000001
40
0
40
0
40
0
40
1
40
1
40
1
10
19.588658609704197
20
-3.9806998547066708
30
0
10
19.317252435998142
20
-4.6320868309487366
30
0
10
19.082028665856541
20
-5.2563334282387757
30
0
0
SPLINE
5
578
100
AcDbEntity
8
0
100
AcDbSpline
70
0
71
2
72
6
73
3
74
0
42
0.000000001
43
0.0000000001
44
0.0000000001
40
0
40
0
40
0
40
1
40
1
40
1
10
19.082028665856541
20
-5.2563334282387757
30
0
10
18.846804895714939
20
-5.8805788334359193
30
0
10
18.693005838708103
20
-6.3962615307320618
30
0
0
SPLINE
5
579
100
AcDbEntity
8
0
100
AcDbSpline
70
0
71
2
72
6
73
3
74
0
42
0.000000001
43
0.0000000001
44
0.0000000001
40
0
40
0
40
0
40
1
40
1
40
1
10
18.693005838708103
20
-6.3962615307320618
30
0
10
18.539206781701267
20
-6.9119418438424134
30
0
10
18.484923639611424
20
-7.1652591999520325
30
0
0
SPLINE
5
580
100
AcDbEntity
8
0
100
AcDbSpline
70
0
71
2
72
6
73
3
74
0
42
0.000000001
43
0.0000000001
44
0.0000000001
40
0
40
0
40
0
40
1
40
1
40
1
10
18.484923639611424
20
-7.1652591999520325
30
0
10
18.448731699303806
20
-7.3100126560677552
30
0
10
18.35826615364951
20
-7.4004829700936341
30
0
0
SPLINE
5
581
100
AcDbEntity
8
0
100
AcDbSpline
70
0
71
2
72
6
73
3
74
0
42
0.000000001
43
0.0000000001
44
0.0000000001
40
0
40
0
40
0
40
1
40
1
40
1
10
18.35826615364951
20
-7.4004829700936341
30
0
10
18.267791071252049
20
-7.490953284119513
30
0
10
18.123042383507908
20
-7.490953284119513
30
0
0
SPLINE
5
582
100
AcDbEntity
8
0
100
AcDbSpline
70
0
71
2
72
6
73
3
74
0
42
0.000000001
43
0.0000000001
44
0.0000000001
40
0
40
0
40
0
40
1
40
1
40
1
10
18.123042383507908
20
-7.490953284119513
30
0
10
17.978284159020603
20
-7.490953284119513
30
0
10
17.86972741158408
20
-7.382388192032721
30
0
0
SPLINE
5
583
100
AcDbEntity
8
0
100
AcDbSpline
70
0
71
2
72
6
73
3
74
0
42
0.000000001
43
0.0000000001
44
0.0000000001
40
0
40
0
40
0
40
1
40
1
40
1
10
17.86972741158408
20
-7.382388192032721
30
0
10
17.761161127404392
20
-7.2738242920388245
30
0
10
17.761161127404392
20
-7.1290720280159974
30
0
0
SPLINE
5
584
100
AcDbEntity
8
0
100
AcDbSpline
70
0
71
2
72
6
73
3
74
0
42
0.000000001
43
0.0000000001
44
0.0000000001
40
0
40
0
40
0
40
1
40
1
40
1
10
17.761161127404392
20
-7.1290720280159974
30
0
10
17.761161127404392
20
-5.9529555614937806
30
0
10
17.779252329186619
20
-4.81302865109339
30
0
0
SPLINE
5
585
100
AcDbEntity
8
0
100
AcDbSpline
70
0
71
2
72
6
73
3
74
0
42
0.000000001
43
0.0000000001
44
0.0000000001
40
0
40
0
40
0
40
1
40
1
40
1
10
17.779252329186619
20
-4.81302865109339
30
0
10
17.797343530968845
20
-3.6731005486001034
30
0
10
17.797343530968845
20
-2.4969852741707821
30
0
0
SPLINE
5
586
100
AcDbEntity
8
0
100
AcDbSpline
70
0
71
2
72
6
73
3
74
0
42
0.000000001
43
0.0000000001
44
0.0000000001
40
0
40
0
40
0
40
1
40
1
40
1
10
17.797343530968845
20
-2.4969852741707821
30
0
10
17.797343530968845
20
-2.3522318180550594
30
0
10
17.905909815148533
20
-2.2436679180611629
30
0
0
SPLINE
5
587
100
AcDbEntity
8
0
100
AcDbSpline
70
0
71
2
72
6
73
3
74
0
42
0.000000001
43
0.0000000001
44
0.0000000001
40
0
40
0
40
0
40
1
40
1
40
1
10
17.905909815148533
20
-2.2436679180611629
30
0
10
18.01447609932822
20
-2.135102825974371
30
0
10
18.159224787072361
20
-2.135102825974371
30
0
0
SPLINE
5
588
100
AcDbEntity
8
0
100
AcDbSpline
70
0
71
2
72
6
73
3
74
0
42
0.000000001
43
0.0000000001
44
0.0000000001
40
0
40
0
40
0
40
1
40
1
40
1
10
18.159224787072361
20
-2.135102825974371
30
0
10
18.521106043175877
20
-2.135102825974371
30
0
10
18.521106043175877
20
-2.4969852741707821
30
0
0
SPLINE
5
589
100
AcDbEntity
8
0
100
AcDbSpline
70
0
71
2
72
6
73
3
74
0
42
0.000000001
43
0.0000000001
44
0.0000000001
40
0
40
0
40
0
40
1
40
1
40
1
10
18.521106043175877
20
-2.4969852741707821
30
0
10
18.521106043175877
20
-3.0759955223549862
30
0
10
18.512065210656345
20
-3.6640537556160946
30
0
0
SPLINE
5
590
100
AcDbEntity
8
0
100
AcDbSpline
70
0
71
2
72
6
73
3
74
0
42
0.000000001
43
0.0000000001
44
0.0000000001
40
0
40
0
40
0
40
1
40
1
40
1
10
18.512065210656345
20
-3.6640537556160946
30
0
10
18.50301484139365
20
-4.2521107967843079
30
0
10
18.50301484139365
20
-4.8311222370614075
30
0
0
SPLINE
5
591
100
AcDbEntity
8
0
100
AcDbSpline
70
0
71
2
72
6
73
3
74
0
42
0.000000001
43
0.0000000001
44
0.0000000001
40
0
40
0
40
0
40
1
40
1
40
1
10
18.50301484139365
20
-4.8311222370614075
30
0
10
18.647773065880955
20
-4.3968642529000306
30
0
10
18.901088037804783
20
-3.7183357056130428
30
0
0
SPLINE
5
592
100
AcDbEntity
8
0
100
AcDbSpline
70
0
71
2
72
6
73
3
74
0
42
0.000000001
43
0.0000000001
44
0.0000000001
40
0
40
0
40
0
40
1
40
1
40
1
10
18.901088037804783
20
-3.7183357056130428
30
0
10
19.154403009728611
20
-3.0398071583260555
30
0
10
19.4981930640499
20
-2.4065149601449032
30
0
0
SPLINE
5
593
100
AcDbEntity
8
0
100
AcDbSpline
70
0
71
2
72
6
73
3
74
0
42
0.000000001
43
0.0000000001
44
0.0000000001
40
0
40
0
40
0
40
1
40
1
40
1
10
19.4981930640499
20
-2.4065149601449032
30
0
10
19.841983118371189
20
-1.7732209738244087
30
0
10
20.276238718346775
20
-1.3118220146645576
30
0
0
SPLINE
5
594
100
AcDbEntity
8
0
100
AcDbSpline
70
0
71
2
72
6
73
3
74
0
42
0.000000001
43
0.0000000001
44
0.0000000001
40
0
40
0
40
0
40
1
40
1
40
1
10
20.276238718346775
20
-1.3118220146645576
30
0
10
20.710494318322361
20
-0.85042245945825878
30
0
10
21.217133798913181
20
-0.85042245945825989
30
0
0
SPLINE
5
595
100
AcDbEntity
8
0
100
AcDbSpline
70
0
71
2
72
6
73
3
74
0
42
0.000000001
43
0.0000000001
44
0.0000000001
40
0
40
0
40
0
40
1
40
1
40
1
10
21.217133798913181
20
-0.85042245945825989
30
0
10
21.814238825158299
20
-0.85042245945825989
30
0
10
22.094695368127049
20
-1.2394452866066974
30
0
0
SPLINE
5
596
100
AcDbEntity
8
0
100
AcDbSpline
70
0
71
2
72
6
73
3
74
0
42
0.000000001
43
0.0000000001
44
0.0000000001
40
0
40
0
40
0
40
1
40
1
40
1
10
22.094695368127049
20
-1.2394452866066974
30
0
10
22.375151911095799
20
-1.6284687098015838
30
0
10
22.465617456750095
20
-2.1622443970192951
30
0
0
SPLINE
5
597
100
AcDbEntity
8
0
100
AcDbSpline
70
0
71
2
72
6
73
3
74
0
42
0.000000001
43
0.0000000001
44
0.0000000001
40
0
40
0
40
0
40
1
40
1
40
1
10
22.465617456750095
20
-2.1622443970192951
30
0
10
22.556092539147556
20
-2.6960194881905597
30
0
10
22.519900598839939
20
-3.2750309284676593
30
0
0
SPLINE
5
598
100
AcDbEntity
8
0
100
AcDbSpline
70
0
71
2
72
6
73
3
74
0
42
0.000000001
43
0.0000000001
44
0.0000000001
40
0
40
0
40
0
40
1
40
1
40
1
10
22.519900598839939
20
-3.2750309284676593
30
0
10
22.483718195275486
20
-3.8540411766518634
30
0
10
22.465617456750095
20
-4.2340172108162921
30
0
0
SPLINE
5
599
100
AcDbEntity
8
0
100
AcDbSpline
70
0
71
2
72
6
73
3
74
0
42
0.000000001
43
0.0000000001
44
0.0000000001
40
0
40
0
40
0
40
1
40
1
40
1
10
22.465617456750095
20
-4.2340172108162921
30
0
10
22.465617456750095
20
-4.3968642529000324
30
0
10
22.438485422448338
20
-4.8130286510933917
30
0
0
SPLINE
5
600
100
AcDbEntity
8
0
100
AcDbSpline
70
0
71
2
72
6
73
3
74
0
42
0.000000001
43
0.0000000001
44
0.0000000001
40
0
40
0
40
0
40
1
40
1
40
1
10
22.438485422448338
20
-4.8130286510933917
30
0
10
22.411343851403416
20
-5.2291918571938556
30
0
10
22.438485422448338
20
-5.6634498413552326
30
0
0
SPLINE
5
601
100
AcDbEntity
8
0
100
AcDbSpline
70
0
71
2
72
6
73
3
74
0
42
0.000000001
43
0.0000000001
44
0.0000000001
40
0
40
0
40
0
40
1
40
1
40
1
10
22.438485422448338
20
-5.6634498413552326
30
0
10
22.465617456750095
20
-6.097709017609505
30
0
10
22.574183740929783
20
-6.4324487026680988
30
0
0
SPLINE
5
602
100
AcDbEntity
8
0
100
AcDbSpline
70
0
71
2
72
6
73
3
74
0
42
0.000000001
43
0.0000000001
44
0.0000000001
40
0
40
0
40
0
40
1
40
1
40
1
10
22.574183740929783
20
-6.4324487026680988
30
0
10
22.68275002510947
20
-6.767189579819588
30
0
10
22.954165735558689
20
-6.7671895798195898
30
0
0
SPLINE
5
603
100
AcDbEntity
8
0
100
AcDbSpline
70
0
71
2
72
6
73
3
74
0
42
0.000000001
43
0.0000000001
44
0.0000000001
40
0
40
0
40
0
40
1
40
1
40
1
10
22.954165735558689
20
-6.7671895798195898
30
0
10
23.478886881188572
20
-6.7671895798195898
30
0
10
24.003617563561619
20
-6.2334144886483251
30
0
0
SPLINE
5
604
100
AcDbEntity
8
0
100
AcDbSpline
70
0
71
2
72
6
73
3
74
0
42
0.000000001
43
0.0000000001
44
0.0000000001
40
0
40
0
40
0
40
1
40
1
40
1
10
24.003617563561619
20
-6.2334144886483251
30
0
10
24.528348245934666
20
-5.699638205384165
30
0
10
24.989745416955174
20
-4.9758745010842382
30
0
0
SPLINE
5
605
100
AcDbEntity
8
0
100
AcDbSpline
70
0
71
2
72
6
73
3
74
0
42
0.000000001
43
0.0000000001
44
0.0000000001
40
0
40
0
40
0
40
1
40
1
40
1
10
24.989745416955174
20
-4.9758745010842382
30
0
10
25.451142587975681
20
-4.2521107967843115
30
0
10
25.822074213341892
20
-3.5102535065163698
30
0
0
SPLINE
5
606
100
AcDbEntity
8
0
100
AcDbSpline
70
0
71
2
72
6
73
3
74
0
42
0.000000001
43
0.0000000001
44
0.0000000001
40
0
40
0
40
0
40
1
40
1
40
1
10
25.822074213341892
20
-3.5102535065163698
30
0
10
26.193005838708103
20
-2.7683962162484255
30
0
10
26.373946466759861
20
-2.3522318180550661
30
0
0
SPLINE
5
607
100
AcDbEntity
8
0
100
AcDbSpline
70
0
71
2
72
6
73
3
74
0
42
0.000000001
43
0.0000000001
44
0.0000000001
40
0
40
0
40
0
40
1
40
1
40
1
10
26.373946466759861
20
-2.3522318180550661
30
0
10
26.464412012414158
20
-2.1351028259743776
30
0
10
26.69963578255576
20
-2.1351028259743776
30
0
0
SPLINE
5
608
100
AcDbEntity
8
0
100
AcDbSpline
70
0
71
2
72
6
73
3
74
0
42
0.000000001
43
0.0000000001
44
0.0000000001
40
0
40
0
40
0
40
1
40
1
40
1
10
26.69963578255576
20
-2.1351028259743776
30
0
10
26.844394007043064
20
-2.1351028259743776
30
0
10
26.952960291222752
20
-2.2436679180611696
30
0
0
SPLINE
5
609
100
AcDbEntity
8
0
100
AcDbSpline
70
0
71
2
72
6
73
3
74
0
42
0.000000001
43
0.0000000001
44
0.0000000001
40
0
40
0
40
0
40
1
40
1
40
1
10
26.952960291222752
20
-2.2436679180611696
30
0
10
27.061517038659275
20
-2.3522318180550661
30
0
10
27.061517038659275
20
-2.4969852741707887
30
0
0
SPLINE
5
610
100
AcDbEntity
8
0
100
AcDbSpline
70
0
71
2
72
6
73
3
74
0
42
0.000000001
43
0.0000000001
44
0.0000000001
40
0
40
0
40
0
40
1
40
1
40
1
10
27.061517038659275
20
-2.4969852741707887
30
0
10
27.061517038659275
20
-2.5331724461068239
30
0
10
27.025334635094822
20
-2.6417375381936159
30
0
0
SPLINE
5
611
100
AcDbEntity
8
0
100
AcDbSpline
70
0
71
2
72
6
73
3
74
0
42
0.000000001
43
0.0000000001
44
0.0000000001
40
0
40
0
40
0
40
1
40
1
40
1
10
27.025334635094822
20
-2.6417375381936159
30
0
10
26.79011086495322
20
-3.1845606144417848
30
0
10
26.373946466759861
20
-4.0168882187356081
30
0
0
SPLINE
5
612
100
AcDbEntity
8
0
100
AcDbSpline
70
0
71
2
72
6
73
3
74
0
42
0.000000001
43
0.0000000001
44
0.0000000001
40
0
40
0
40
0
40
1
40
1
40
1
10
26.373946466759861
20
-4.0168882187356081
30
0
10
25.957782068566502
20
-4.8492158230294313
30
0
10
25.42400101693076
20
-5.6182146843422949
30
0
0
SPLINE
5
613
100
AcDbEntity
8
0
100
AcDbSpline
70
0
71
2
72
6
73
3
74
0
42
0.000000001
43
0.0000000001
44
0.0000000001
40
0
40
0
40
0
40
1
40
1
40
1
10
25.42400101693076
20
-5.6182146843422949
30
0
10
24.890229502038181
20
-6.3872135456551611
30
0
10
24.265982904748142
20
-6.9390834148873388
30
0
0
SPLINE
5
614
100
AcDbEntity
8
0
100
AcDbSpline
70
0
71
2
72
6
73
3
74
0
42
0.000000001
43
0.0000000001
44
0.0000000001
40
0
40
0
40
0
40
1
40
1
40
1
10
24.265982904748142
20
-6.9390834148873388
30
0
10
23.641736307458103
20
-7.4909532841195166
30
0
10
22.954165735558689
20
-7.4909532841195166
30
0
0
SPLINE
5
615
100
AcDbEntity
8
0
100
AcDbSpline
70
0
71
2
72
6
73
3
74
0
42
0.000000001
43
0.0000000001
44
0.0000000001
40
0
40
0
40
0
40
1
40
1
40
1
10
28.205058374718845
20
-12.068756895874891
30
0
10
27.571761408166111
20
-12.068756895874891
30
0
10
27.264163294152439
20
-11.643546896790419
30
0
0
SPLINE
5
616
100
AcDbEntity
8
0
100
AcDbSpline
70
0
71
2
72
6
73
3
74
0
42
0.000000001
43
0.0000000001
44
0.0000000001
40
0
40
0
40
0
40
1
40
1
40
1
10
27.264163294152439
20
-11.643546896790419
30
0
10
26.956565180138767
20
-11.21833570561305
30
0
10
26.956565180138767
20
-10.639325457428846
30
0
0
SPLINE
5
617
100
AcDbEntity
8
0
100
AcDbSpline
70
0
71
2
72
6
73
3
74
0
42
0.000000001
43
0.0000000001
44
0.0000000001
40
0
40
0
40
0
40
1
40
1
40
1
10
26.956565180138767
20
-10.639325457428846
30
0
10
26.956565180138767
20
-9.915560561036024
30
0
10
27.345588007287205
20
-9.3455971058358287
30
0
0
SPLINE
5
618
100
AcDbEntity
8
0
100
AcDbSpline
70
0
71
2
72
6
73
3
74
0
42
0.000000001
43
0.0000000001
44
0.0000000001
40
0
40
0
40
0
40
1
40
1
40
1
10
27.345588007287205
20
-9.3455971058358287
30
0
10
27.734610834435642
20
-8.7756336506356334
30
0
10
28.304574289635838
20
-8.3232820805062406
30
0
0
SPLINE
5
619
100
AcDbEntity
8
0
100
AcDbSpline
70
0
71
2
72
6
73
3
74
0
42
0.000000001
43
0.0000000001
44
0.0000000001
40
0
40
0
40
0
40
1
40
1
40
1
10
28.304574289635838
20
-8.3232820805062406
30
0
10
28.874537744836033
20
-7.8709293182839506
30
0
10
29.54401711495322
20
-7.5452352341164701
30
0
0
SPLINE
5
620
100
AcDbEntity
8
0
100
AcDbSpline
70
0
71
2
72
6
73
3
74
0
42
0.000000001
43
0.0000000001
44
0.0000000001
40
0
40
0
40
0
40
1
40
1
40
1
10
29.54401711495322
20
-7.5452352341164701
30
0
10
30.213506021813572
20
-7.2195423420418852
30
0
10
30.774419107751072
20
-7.0024133499611967
30
0
0
SPLINE
5
621
100
AcDbEntity
8
0
100
AcDbSpline
70
0
71
2
72
6
73
3
74
0
42
0.000000001
43
0.0000000001
44
0.0000000001
40
0
40
0
40
0
40
1
40
1
40
1
10
30.774419107751072
20
-7.0024133499611967
30
0
10
30.864894190148533
20
-6.2786496456612699
30
0
10
30.910126962975681
20
-5.5548859413613432
30
0
0
SPLINE
5
622
100
AcDbEntity
8
0
100
AcDbSpline
70
0
71
2
72
6
73
3
74
0
42
0.000000001
43
0.0000000001
44
0.0000000001
40
0
40
0
40
0
40
1
40
1
40
1
10
30.910126962975681
20
-5.5548859413613432
30
0
10
30.95535973580283
20
-4.8311222370614182
30
0
10
30.95535973580283
20
-4.1978288467873703
30
0
0
SPLINE
5
623
100
AcDbEntity
8
0
100
AcDbSpline
70
0
71
2
72
6
73
3
74
0
42
0.000000001
43
0.0000000001
44
0.0000000001
40
0
40
0
40
0
40
1
40
1
40
1
10
30.95535973580283
20
-4.1978288467873703
30
0
10
30.774419107751072
20
-4.6501816090096586
30
0
10
30.457770624474705
20
-5.2201450642098539
30
0
0
SPLINE
5
624
100
AcDbEntity
8
0
100
AcDbSpline
70
0
71
2
72
6
73
3
74
0
42
0.000000001
43
0.0000000001
44
0.0000000001
40
0
40
0
40
0
40
1
40
1
40
1
10
30.457770624474705
20
-5.2201450642098539
30
0
10
30.141122141198338
20
-5.7901085194100492
30
0
10
29.734008112267674
20
-6.2967432316292875
30
0
0
SPLINE
5
625
100
AcDbEntity
8
0
100
AcDbSpline
70
0
71
2
72
6
73
3
74
0
42
0.000000001
43
0.0000000001
44
0.0000000001
40
0
40
0
40
0
40
1
40
1
40
1
10
29.734008112267674
20
-6.2967432316292875
30
0
10
29.32689408333701
20
-6.8033779438485258
30
0
10
28.829304972008885
20
-7.1471656139840238
30
0
0
SPLINE
5
626
100
AcDbEntity
8
0
100
AcDbSpline
70
0
71
2
72
6
73
3
74
0
42
0.000000001
43
0.0000000001
44
0.0000000001
40
0
40
0
40
0
40
1
40
1
40
1
10
28.829304972008885
20
-7.1471656139840238
30
0
10
28.33171586068076
20
-7.4909532841195219
30
0
10
27.77080277474326
20
-7.4909532841195192
30
0
0
SPLINE
5
627
100
AcDbEntity
8
0
100
AcDbSpline
70
0
71
2
72
6
73
3
74
0
42
0.000000001
43
0.0000000001
44
0.0000000001
40
0
40
0
40
0
40
1
40
1
40
1
10
27.77080277474326
20
-7.4909532841195192
30
0
10
27.28226403267783
20
-7.4909532841195192
30
0
10
26.974656381920994
20
-7.174307185028943
30
0
0
SPLINE
5
628
100
AcDbEntity
8
0
100
AcDbSpline
70
0
71
2
72
6
73
3
74
0
42
0.000000001
43
0.0000000001
44
0.0000000001
40
0
40
0
40
0
40
1
40
1
40
1
10
26.974656381920994
20
-7.174307185028943
30
0
10
26.667058267907322
20
-6.8576598938454714
30
0
10
26.504218378380955
20
-6.4053083237160768
30
0
0
SPLINE
5
629
100
AcDbEntity
8
0
100
AcDbSpline
70
0
71
2
72
6
73
3
74
0
42
0.000000001
43
0.0000000001
44
0.0000000001
40
0
40
0
40
0
40
1
40
1
40
1
10
26.504218378380955
20
-6.4053083237160768
30
0
10
26.341368952111424
20
-5.9529555614937868
30
0
10
26.278035440758885
20
-5.4463208492745485
30
0
0
SPLINE
5
630
100
AcDbEntity
8
0
100
AcDbSpline
70
0
71
2
72
6
73
3
74
0
42
0.000000001
43
0.0000000001
44
0.0000000001
40
0
40
0
40
0
40
1
40
1
40
1
10
26.278035440758885
20
-5.4463208492745485
30
0
10
26.21471146614951
20
-4.9396873291482057
30
0
10
26.21471146614951
20
-4.5778048809517946
30
0
0
SPLINE
5
631
100
AcDbEntity
8
0
100
AcDbSpline
70
0
71
2
72
6
73
3
74
0
42
0.000000001
43
0.0000000001
44
0.0000000001
40
0
40
0
40
0
40
1
40
1
40
1
10
26.21471146614951
20
-4.5778048809517946
30
0
10
26.21471146614951
20
-4.107358532761487
30
0
10
26.305177011803806
20
-3.4740651424874391
30
0
0
SPLINE
5
632
100
AcDbEntity
8
0
100
AcDbSpline
70
0
71
2
72
6
73
3
74
0
42
0.000000001
43
0.0000000001
44
0.0000000001
40
0
40
0
40
0
40
1
40
1
40
1
10
26.305177011803806
20
-3.4740651424874391
30
0
10
26.395652094201267
20
-2.8407729443062868
30
0
10
26.621825495080174
20
-2.2617615040291872
30
0
0
SPLINE
5
633
100
AcDbEntity
8
0
100
AcDbSpline
70
0
71
2
72
6
73
3
74
0
42
0.000000001
43
0.0000000001
44
0.0000000001
40
0
40
0
40
0
40
1
40
1
40
1
10
26.621825495080174
20
-2.2617615040291872
30
0
10
26.84799889595908
20
-1.6827512558449831
30
0
10
27.237021723107517
20
-1.2756336506356325
30
0
0
SPLINE
5
634
100
AcDbEntity
8
0
100
AcDbSpline
70
0
71
2
72
6
73
3
74
0
42
0.000000001
43
0.0000000001
44
0.0000000001
40
0
40
0
40
0
40
1
40
1
40
1
10
27.237021723107517
20
-1.2756336506356325
30
0
10
27.626044550255955
20
-0.86851723751917853
30
0
10
28.241250315026463
20
-0.86851723751917853
30
0
0
SPLINE
5
635
100
AcDbEntity
8
0
100
AcDbSpline
70
0
71
2
72
6
73
3
74
0
42
0.000000001
43
0.0000000001
44
0.0000000001
40
0
40
0
40
0
40
1
40
1
40
1
10
28.241250315026463
20
-0.86851723751917853
30
0
10
28.892638483361424
20
-0.86851723751917853
30
0
10
29.562117853478611
20
-1.3118220146645654
30
0
0
SPLINE
5
636
100
AcDbEntity
8
0
100
AcDbSpline
70
0
71
2
72
6
73
3
74
0
42
0.000000001
43
0.0000000001
44
0.0000000001
40
0
40
0
40
0
40
1
40
1
40
1
10
29.562117853478611
20
-1.3118220146645654
30
0
10
30.231597223595799
20
-1.7551279839028466
30
0
10
30.756327905968845
20
-2.5331724461068261
30
0
0
LINE
5
637
100
AcDbEntity
8
0
100
AcDbLine
10
30.756327905968845
20
-2.5331724461068261
30
0
11
30.919167795495213
21
-1.8817854698647607
31
0
0
SPLINE
5
638
100
AcDbEntity
8
0
100
AcDbSpline
70
0
71
2
72
6
73
3
74
0
42
0.000000001
43
0.0000000001
44
0.0000000001
40
0
40
0
40
0
40
1
40
1
40
1
10
30.919167795495213
20
-1.8817854698647618
30
0
10
30.95535973580283
20
-1.7370332058419347
30
0
10
31.054875650719822
20
-1.6556096848000645
30
0
0
SPLINE
5
639
100
AcDbEntity
8
0
100
AcDbSpline
70
0
71
2
72
6
73
3
74
0
42
0.000000001
43
0.0000000001
44
0.0000000001
40
0
40
0
40
0
40
1
40
1
40
1
10
31.054875650719822
20
-1.6556096848000645
30
0
10
31.154391565636814
20
-1.5741861637581944
30
0
10
31.299149790124119
20
-1.5922809418191075
30
0
0
SPLINE
5
640
100
AcDbEntity
8
0
100
AcDbSpline
70
0
71
2
72
6
73
3
74
0
42
0.000000001
43
0.0000000001
44
0.0000000001
40
0
40
0
40
0
40
1
40
1
40
1
10
31.299149790124119
20
-1.5922809418191075
30
0
10
31.606747904137791
20
-1.6284693058480382
30
0
10
31.642939844445408
20
-1.9179738338936936
30
0
0
SPLINE
5
641
100
AcDbEntity
8
0
100
AcDbSpline
70
0
71
2
72
6
73
3
74
0
42
0.000000001
43
0.0000000001
44
0.0000000001
40
0
40
0
40
0
40
1
40
1
40
1
10
31.642939844445408
20
-1.9179738338936936
30
0
10
31.642939844445408
20
-1.9541621979226242
30
0
10
31.661031046227635
20
-2.4155617531289231
30
0
0
SPLINE
5
642
100
AcDbEntity
8
0
100
AcDbSpline
70
0
71
2
72
6
73
3
74
0
42
0.000000001
43
0.0000000001
44
0.0000000001
40
0
40
0
40
0
40
1
40
1
40
1
10
31.661031046227635
20
-2.4155617531289231
30
0
10
31.679122248009861
20
-2.8769601162423264
30
0
10
31.679122248009861
20
-3.6369121845711838
30
0
0
SPLINE
5
643
100
AcDbEntity
8
0
100
AcDbSpline
70
0
71
2
72
6
73
3
74
0
42
0.000000001
43
0.0000000001
44
0.0000000001
40
0
40
0
40
0
40
1
40
1
40
1
10
31.679122248009861
20
-3.6369121845711838
30
0
10
31.679122248009861
20
-4.4149578388680588
30
0
10
31.651980676964939
20
-5.1749099071969162
30
0
0
SPLINE
5
644
100
AcDbEntity
8
0
100
AcDbSpline
70
0
71
2
72
6
73
3
74
0
42
0.000000001
43
0.0000000001
44
0.0000000001
40
0
40
0
40
0
40
1
40
1
40
1
10
31.651980676964939
20
-5.1749099071969162
30
0
10
31.624839105920017
20
-5.9348619755257737
30
0
10
31.552464762047947
20
-6.6948128517617356
30
0
0
SPLINE
5
645
100
AcDbEntity
8
0
100
AcDbSpline
70
0
71
2
72
6
73
3
74
0
42
0.000000001
43
0.0000000001
44
0.0000000001
40
0
40
0
40
0
40
1
40
1
40
1
10
31.552464762047947
20
-6.6948128517617356
30
0
10
32.312419214562595
20
-6.3691199596871506
30
0
10
32.909524240807713
20
-5.9258151825417649
30
0
0
SPLINE
5
646
100
AcDbEntity
8
0
100
AcDbSpline
70
0
71
2
72
6
73
3
74
0
42
0.000000001
43
0.0000000001
44
0.0000000001
40
0
40
0
40
0
40
1
40
1
40
1
10
32.909524240807713
20
-5.9258151825417649
30
0
10
33.50662926705283
20
-5.4825092133034836
30
0
10
33.986117639855564
20
-4.9306393440713077
30
0
0
SPLINE
5
647
100
AcDbEntity
8
0
100
AcDbSpline
70
0
71
2
72
6
73
3
74
0
42
0.000000001
43
0.0000000001
44
0.0000000001
40
0
40
0
40
0
40
1
40
1
40
1
10
33.986117639855564
20
-4.9306393440713077
30
0
10
34.465615549401463
20
-4.3787694748391299
30
0
10
34.863679209069431
20
-3.7273824985970649
30
0
0
SPLINE
5
648
100
AcDbEntity
8
0
100
AcDbSpline
70
0
71
2
72
6
73
3
74
0
42
0.000000001
43
0.0000000001
44
0.0000000001
40
0
40
0
40
0
40
1
40
1
40
1
10
34.863679209069431
20
-3.7273824985970649
30
0
10
35.261752405480564
20
-3.0759955223549995
30
0
10
35.605542459801853
20
-2.3522318180550728
30
0
0
SPLINE
5
649
100
AcDbEntity
8
0
100
AcDbSpline
70
0
71
2
72
6
73
3
74
0
42
0.000000001
43
0.0000000001
44
0.0000000001
40
0
40
0
40
0
40
1
40
1
40
1
10
35.605542459801853
20
-2.3522318180550728
30
0
10
35.69600800545615
20
-2.1531976040352974
30
0
10
35.931231775597752
20
-2.1531976040352974
30
0
0
SPLINE
5
650
100
AcDbEntity
8
0
100
AcDbSpline
70
0
71
2
72
6
73
3
74
0
42
0.000000001
43
0.0000000001
44
0.0000000001
40
0
40
0
40
0
40
1
40
1
40
1
10
35.931231775597752
20
-2.1531976040352974
30
0
10
36.075990000085056
20
-2.1531976040352974
30
0
10
36.184556284264744
20
-2.2708082970132026
30
0
0
SPLINE
5
651
100
AcDbEntity
8
0
100
AcDbSpline
70
0
71
2
72
6
73
3
74
0
42
0.000000001
43
0.0000000001
44
0.0000000001
40
0
40
0
40
0
40
1
40
1
40
1
10
36.184556284264744
20
-2.2708082970132026
30
0
10
36.293113031701267
20
-2.3884201820840034
30
0
10
36.293113031701267
20
-2.5331724461068306
30
0
0
SPLINE
5
652
100
AcDbEntity
8
0
100
AcDbSpline
70
0
71
2
72
6
73
3
74
0
42
0.000000001
43
0.0000000001
44
0.0000000001
40
0
40
0
40
0
40
1
40
1
40
1
10
36.293113031701267
20
-2.5331724461068306
30
0
10
36.293113031701267
20
-2.5693608101357612
30
0
10
36.256930628136814
20
-2.6779259022225532
30
0
0
SPLINE
5
653
100
AcDbEntity
8
0
100
AcDbSpline
70
0
71
2
72
6
73
3
74
0
42
0.000000001
43
0.0000000001
44
0.0000000001
40
0
40
0
40
0
40
1
40
1
40
1
10
36.256930628136814
20
-2.6779259022225532
30
0
10
35.786483087853611
20
-3.6188185986031685
30
0
10
35.334126749352635
20
-4.3425823029030948
30
0
0
SPLINE
5
654
100
AcDbEntity
8
0
100
AcDbSpline
70
0
71
2
72
6
73
3
74
0
42
0.000000001
43
0.0000000001
44
0.0000000001
40
0
40
0
40
0
40
1
40
1
40
1
10
35.334126749352635
20
-4.3425823029030948
30
0
10
34.881779947594822
20
-5.066344815110126
30
0
10
34.338958063439549
20
-5.6363094624032168
30
0
0
SPLINE
5
655
100
AcDbEntity
8
0
100
AcDbSpline
70
0
71
2
72
6
73
3
74
0
42
0.000000001
43
0.0000000001
44
0.0000000001
40
0
40
0
40
0
40
1
40
1
40
1
10
34.338958063439549
20
-5.6363094624032168
30
0
10
33.796136179284275
20
-6.2062729176034122
30
0
10
33.099505701379002
20
-6.6586256798257004
30
0
0
SPLINE
5
656
100
AcDbEntity
8
0
100
AcDbSpline
70
0
71
2
72
6
73
3
74
0
42
0.000000001
43
0.0000000001
44
0.0000000001
40
0
40
0
40
0
40
1
40
1
40
1
10
33.099505701379002
20
-6.6586256798257004
30
0
10
32.402884760216892
20
-7.1109772499550949
30
0
10
31.44389847786826
20
-7.5271416481484543
30
0
0
SPLINE
5
657
100
AcDbEntity
8
0
100
AcDbSpline
70
0
71
2
72
6
73
3
74
0
42
0.000000001
43
0.0000000001
44
0.0000000001
40
0
40
0
40
0
40
1
40
1
40
1
10
31.44389847786826
20
-7.5271416481484543
30
0
10
31.154391565636814
20
-9.5174909409035813
30
0
10
30.4668209937374
20
-10.530760365342056
30
0
0
SPLINE
5
658
100
AcDbEntity
8
0
100
AcDbSpline
70
0
71
2
72
6
73
3
74
0
42
0.000000001
43
0.0000000001
44
0.0000000001
40
0
40
0
40
0
40
1
40
1
40
1
10
30.4668209937374
20
-10.530760365342056
30
0
10
30.123030939416111
20
-11.037395077561294
30
0
10
29.797341623620213
20
-11.335947590683853
30
0
0
SPLINE
5
659
100
AcDbEntity
8
0
100
AcDbSpline
70
0
71
2
72
6
73
3
74
0
42
0.000000001
43
0.0000000001
44
0.0000000001
40
0
40
0
40
0
40
1
40
1
40
1
10
29.797341623620213
20
-11.335947590683853
30
0
10
29.47164277108115
20
-11.634498911713516
30
0
10
29.173095026330174
20
-11.797345953797256
30
0
0
SPLINE
5
660
100
AcDbEntity
8
0
100
AcDbSpline
70
0
71
2
72
6
73
3
74
0
42
0.000000001
43
0.0000000001
44
0.0000000001
40
0
40
0
40
0
40
1
40
1
40
1
10
29.173095026330174
20
-11.797345953797256
30
0
10
28.874537744836033
20
-11.960192995880996
30
0
10
28.621222772912205
20
-12.014476137970838
30
0
0
SPLINE
5
661
100
AcDbEntity
8
0
100
AcDbSpline
70
0
71
2
72
6
73
3
74
0
42
0.000000001
43
0.0000000001
44
0.0000000001
40
0
40
0
40
0
40
1
40
1
40
1
10
28.621222772912205
20
-12.014476137970838
30
0
10
28.367907800988377
20
-12.068756895874891
30
0
10
28.205058374718845
20
-12.068756895874891
30
0
0
SPLINE
5
662
100
AcDbEntity
8
0
100
AcDbSpline
70
0
71
2
72
6
73
3
74
0
42
0.000000001
43
0.0000000001
44
0.0000000001
40
0
40
0
40
0
40
1
40
1
40
1
10
26.938473978356541
20
-4.5778048809517946
30
0
10
26.938473978356541
20
-4.7406519230355348
30
0
10
26.965615549401463
20
-5.1115811642159548
30
0
0
SPLINE
5
663
100
AcDbEntity
8
0
100
AcDbSpline
70
0
71
2
72
6
73
3
74
0
42
0.000000001
43
0.0000000001
44
0.0000000001
40
0
40
0
40
0
40
1
40
1
40
1
10
26.965615549401463
20
-5.1115811642159548
30
0
10
26.992757120446385
20
-5.4825092133034792
30
0
10
27.083222666100681
20
-5.8443916614998903
30
0
0
SPLINE
5
664
100
AcDbEntity
8
0
100
AcDbSpline
70
0
71
2
72
6
73
3
74
0
42
0.000000001
43
0.0000000001
44
0.0000000001
40
0
40
0
40
0
40
1
40
1
40
1
10
27.083222666100681
20
-5.8443916614998903
30
0
10
27.173697748498142
20
-6.2062729176034059
30
0
10
27.336547174767674
20
-6.486731844757947
30
0
0
SPLINE
5
665
100
AcDbEntity
8
0
100
AcDbSpline
70
0
71
2
72
6
73
3
74
0
42
0.000000001
43
0.0000000001
44
0.0000000001
40
0
40
0
40
0
40
1
40
1
40
1
10
27.336547174767674
20
-6.486731844757947
30
0
10
27.499387064294041
20
-6.7671895798195925
30
0
10
27.77080277474326
20
-6.7671895798195925
30
0
0
SPLINE
5
666
100
AcDbEntity
8
0
100
AcDbSpline
70
0
71
2
72
6
73
3
74
0
42
0.000000001
43
0.0000000001
44
0.0000000001
40
0
40
0
40
0
40
1
40
1
40
1
10
27.77080277474326
20
-6.7671895798195925
30
0
10
28.042208948449314
20
-6.7671895798195925
30
0
10
28.395049372033299
20
-6.5410137947548979
30
0
0
SPLINE
5
667
100
AcDbEntity
8
0
100
AcDbSpline
70
0
71
2
72
6
73
3
74
0
42
0.000000001
43
0.0000000001
44
0.0000000001
40
0
40
0
40
0
40
1
40
1
40
1
10
28.395049372033299
20
-6.5410137947548979
30
0
10
28.747880258874119
20
-6.3148380096902006
30
0
10
29.11881188424033
20
-5.8805788334359281
30
0
0
SPLINE
5
668
100
AcDbEntity
8
0
100
AcDbSpline
70
0
71
2
72
6
73
3
74
0
42
0.000000001
43
0.0000000001
44
0.0000000001
40
0
40
0
40
0
40
1
40
1
40
1
10
29.11881188424033
20
-5.8805788334359281
30
0
10
29.489743509606541
20
-5.4463208492745512
30
0
10
29.851624765710056
20
-4.8039806660164945
30
0
0
SPLINE
5
669
100
AcDbEntity
8
0
100
AcDbSpline
70
0
71
2
72
6
73
3
74
0
42
0.000000001
43
0.0000000001
44
0.0000000001
40
0
40
0
40
0
40
1
40
1
40
1
10
29.851624765710056
20
-4.8039806660164945
30
0
10
30.213506021813572
20
-4.1616404827584379
30
0
10
30.503012934045017
20
-3.3293128784646142
30
0
0
SPLINE
5
670
100
AcDbEntity
8
0
100
AcDbSpline
70
0
71
2
72
6
73
3
74
0
42
0.000000001
43
0.0000000001
44
0.0000000001
40
0
40
0
40
0
40
1
40
1
40
1
10
30.503012934045017
20
-3.3293128784646142
30
0
10
30.39444664986533
20
-3.2931245144356835
30
0
10
30.303971567467869
20
-3.1845606144417871
30
0
0
SPLINE
5
671
100
AcDbEntity
8
0
100
AcDbSpline
70
0
71
2
72
6
73
3
74
0
42
0.000000001
43
0.0000000001
44
0.0000000001
40
0
40
0
40
0
40
1
40
1
40
1
10
30.303971567467869
20
-3.1845606144417871
30
0
10
30.159222879723728
20
-2.9312432583321679
30
0
10
29.942090311364353
20
-2.6507843311776269
30
0
0
SPLINE
5
672
100
AcDbEntity
8
0
100
AcDbSpline
70
0
71
2
72
6
73
3
74
0
42
0.000000001
43
0.0000000001
44
0.0000000001
40
0
40
0
40
0
40
1
40
1
40
1
10
29.942090311364353
20
-2.6507843311776269
30
0
10
29.724957743004978
20
-2.3703265961159814
30
0
10
29.453551569298924
20
-2.1351028259743798
30
0
0
SPLINE
5
673
100
AcDbEntity
8
0
100
AcDbSpline
70
0
71
2
72
6
73
3
74
0
42
0.000000001
43
0.0000000001
44
0.0000000001
40
0
40
0
40
0
40
1
40
1
40
1
10
29.453551569298924
20
-2.1351028259743798
30
0
10
29.182135858849705
20
-1.8998802479256738
30
0
10
28.874537744836033
20
-1.7460799988259412
30
0
0
SPLINE
5
674
100
AcDbEntity
8
0
100
AcDbSpline
70
0
71
2
72
6
73
3
74
0
42
0.000000001
43
0.0000000001
44
0.0000000001
40
0
40
0
40
0
40
1
40
1
40
1
10
28.874537744836033
20
-1.7460799988259412
30
0
10
28.566939630822361
20
-1.5922809418191053
30
0
10
28.241250315026463
20
-1.5922809418191053
30
0
0
SPLINE
5
675
100
AcDbEntity
8
0
100
AcDbSpline
70
0
71
2
72
6
73
3
74
0
42
0.000000001
43
0.0000000001
44
0.0000000001
40
0
40
0
40
0
40
1
40
1
40
1
10
28.241250315026463
20
-1.5922809418191053
30
0
10
27.84317711861533
20
-1.5922809418191053
30
0
10
27.589862146691502
20
-1.9632089909066297
30
0
0
SPLINE
5
676
100
AcDbEntity
8
0
100
AcDbSpline
70
0
71
2
72
6
73
3
74
0
42
0.000000001
43
0.0000000001
44
0.0000000001
40
0
40
0
40
0
40
1
40
1
40
1
10
27.589862146691502
20
-1.9632089909066297
30
0
10
27.336547174767674
20
-2.3341382320870485
30
0
10
27.191788950280369
20
-2.8226781662453737
30
0
0
SPLINE
5
677
100
AcDbEntity
8
0
100
AcDbSpline
70
0
71
2
72
6
73
3
74
0
42
0.000000001
43
0.0000000001
44
0.0000000001
40
0
40
0
40
0
40
1
40
1
40
1
10
27.191788950280369
20
-2.8226781662453737
30
0
10
27.047040262536228
20
-3.3112192924965944
30
0
10
26.992757120446385
20
-3.8088060196389284
30
0
0
SPLINE
5
678
100
AcDbEntity
8
0
100
AcDbSpline
70
0
71
2
72
6
73
3
74
0
42
0.000000001
43
0.0000000001
44
0.0000000001
40
0
40
0
40
0
40
1
40
1
40
1
10
26.992757120446385
20
-3.8088060196389284
30
0
10
26.938473978356541
20
-4.3063939388741579
30
0
10
26.938473978356541
20
-4.5778048809517946
30
0
0
SPLINE
5
679
100
AcDbEntity
8
0
100
AcDbSpline
70
0
71
2
72
6
73
3
74
0
42
0.000000001
43
0.0000000001
44
0.0000000001
40
0
40
0
40
0
40
1
40
1
40
1
10
27.662236490563572
20
-10.657419043396864
30
0
10
27.662236490563572
20
-10.910736399506483
30
0
10
27.788893976525486
20
-11.127865391587171
30
0
0
SPLINE
5
680
100
AcDbEntity
8
0
100
AcDbSpline
70
0
71
2
72
6
73
3
74
0
42
0.000000001
43
0.0000000001
44
0.0000000001
40
0
40
0
40
0
40
1
40
1
40
1
10
27.788893976525486
20
-11.127865391587171
30
0
10
27.9155514624874
20
-11.34499438366786
30
0
10
28.205058374718845
20
-11.34499438366786
30
0
0
SPLINE
5
681
100
AcDbEntity
8
0
100
AcDbSpline
70
0
71
2
72
6
73
3
74
0
42
0.000000001
43
0.0000000001
44
0.0000000001
40
0
40
0
40
0
40
1
40
1
40
1
10
28.205058374718845
20
-11.34499438366786
30
0
10
28.603131571129978
20
-11.344994383667862
30
0
10
29.037387171105564
20
-11.028348284577286
30
0
0
SPLINE
5
682
100
AcDbEntity
8
0
100
AcDbSpline
70
0
71
2
72
6
73
3
74
0
42
0.000000001
43
0.0000000001
44
0.0000000001
40
0
40
0
40
0
40
1
40
1
40
1
10
29.037387171105564
20
-11.028348284577286
30
0
10
29.47164277108115
20
-10.711700993393814
30
0
10
29.869715967492283
20
-10.13269074520961
30
0
0
SPLINE
5
683
100
AcDbEntity
8
0
100
AcDbSpline
70
0
71
2
72
6
73
3
74
0
42
0.000000001
43
0.0000000001
44
0.0000000001
40
0
40
0
40
0
40
1
40
1
40
1
10
29.869715967492283
20
-10.13269074520961
30
0
10
30.141122141198338
20
-9.7165263470162504
30
0
10
30.331113138512791
20
-9.1194213207711332
30
0
0
SPLINE
5
684
100
AcDbEntity
8
0
100
AcDbSpline
70
0
71
2
72
6
73
3
74
0
42
0.000000001
43
0.0000000001
44
0.0000000001
40
0
40
0
40
0
40
1
40
1
40
1
10
30.331113138512791
20
-9.1194213207711332
30
0
10
30.521104135827244
20
-8.522316294526016
30
0
10
30.647761621789158
20
-7.8347409542550199
30
0
0
SPLINE
5
685
100
AcDbEntity
8
0
100
AcDbSpline
70
0
71
2
72
6
73
3
74
0
42
0.000000001
43
0.0000000001
44
0.0000000001
40
0
40
0
40
0
40
1
40
1
40
1
10
30.647761621789158
20
-7.8347409542550199
30
0
10
30.231597223595799
20
-7.9975879963387602
30
0
10
29.706866541222752
20
-8.2599521454323881
30
0
0
SPLINE
5
686
100
AcDbEntity
8
0
100
AcDbSpline
70
0
71
2
72
6
73
3
74
0
42
0.000000001
43
0.0000000001
44
0.0000000001
40
0
40
0
40
0
40
1
40
1
40
1
10
29.706866541222752
20
-8.2599521454323881
30
0
10
29.182135858849705
20
-8.522316294526016
30
0
10
28.729789057091892
20
-8.8751507576455229
30
0
0
SPLINE
5
687
100
AcDbEntity
8
0
100
AcDbSpline
70
0
71
2
72
6
73
3
74
0
42
0.000000001
43
0.0000000001
44
0.0000000001
40
0
40
0
40
0
40
1
40
1
40
1
10
28.729789057091892
20
-8.8751507576455229
30
0
10
28.277432718590916
20
-9.2279852207650297
30
0
10
27.969834604577244
20
-9.6712911900033092
30
0
0
SPLINE
5
688
100
AcDbEntity
8
0
100
AcDbSpline
70
0
71
2
72
6
73
3
74
0
42
0.000000001
43
0.0000000001
44
0.0000000001
40
0
40
0
40
0
40
1
40
1
40
1
10
27.969834604577244
20
-9.6712911900033092
30
0
10
27.662236490563572
20
-10.114595967148695
30
0
10
27.662236490563572
20
-10.657419043396864
30
0
0
ENDSEC
0
SECTION
2
OBJECTS
0
DICTIONARY
5
C
100
AcDbDictionary
3
ACAD_GROUP
350
D
3
ACAD_MLINESTYLE
350
17
0
DICTIONARY
5
D
100
AcDbDictionary
0
DICTIONARY
5
1A
330
C
100
AcDbDictionary
0
DICTIONARY
5
17
100
AcDbDictionary
0
ENDSEC
0
EOF
