0
SECTION
2
HEADER
9
$INSUNITS
70
4
9
$ACADVER
1
AC1014
9
$HANDSEED
5
FFFF
0
ENDSEC
0
SECTION
2
TABLES
0
TABLE
2
VPORT
5
8
100
AcDbSymbolTable
0
ENDTAB
0
TABLE
2
LTYPE
5
5
100
AcDbSymbolTable
0
LTYPE
5
14
100
AcDbSymbolTableRecord
100
AcDbLinetypeTableRecord
2
BYBLOCK
70
0
0
LTYPE
5
15
100
AcDbSymbolTableRecord
100
AcDbLinetypeTableRecord
2
BYLAYER
70
0
0
ENDTAB
0
TABLE
2
LAYER
5
2
100
AcDbSymbolTable
70
2
0
LAYER
5
50
100
AcDbSymbolTableRecord
100
AcDbLayerTableRecord
2
0
70
0
6
CONTINUOUS
0
ENDTAB
0
TABLE
2
STYLE
5
3
100
AcDbSymbolTable
70
1
0
STYLE
5
11
100
AcDbSymbolTableRecord
100
AcDbTextStyleTableRecord
2
STANDARD
70
0
0
ENDTAB
0
TABLE
2
VIEW
5
6
100
AcDbSymbolTable
70
0
0
ENDTAB
0
TABLE
2
UCS
5
7
100
AcDbSymbolTable
70
0
0
ENDTAB
0
TABLE
2
APPID
5
9
100
AcDbSymbolTable
70
2
0
APPID
5
12
100
AcDbSymbolTableRecord
100
AcDbRegAppTableRecord
2
ACAD
70
0
0
ENDTAB
0
TABLE
2
DIMSTYLE
5
A
100
AcDbSymbolTable
70
1
0
ENDTAB
0
TABLE
2
BLOCK_RECORD
5
1
100
AcDbSymbolTable
70
1
0
BLOCK_RECORD
5
1F
100
AcDbSymbolTableRecord
100
AcDbBlockTableRecord
2
*MODEL_SPACE
0
BLOCK_RECORD
5
1B
100
AcDbSymbolTableRecord
100
AcDbBlockTableRecord
2
*PAPER_SPACE
0
ENDTAB
0
ENDSEC
0
SECTION
2
BLOCKS
0
BLOCK
5
20
100
AcDbEntity
100
AcDbBlockBegin
2
*MODEL_SPACE
0
ENDBLK
5
21
100
AcDbEntity
100
AcDbBlockEnd
0
BLOCK
5
1C
100
AcDbEntity
100
AcDbBlockBegin
2
*PAPER_SPACE
0
ENDBLK
5
1D
100
AcDbEntity
100
AcDbBlockEnd
0
ENDSEC
0
SECTION
2
ENTITIES
0
LWPOLYLINE
5
100
100
AcDbEntity
8
0
100
AcDbPolyline
90
10
70
1
43
0.0
10
147.17026674545318
20
20.811303357550997
10
147.17026674545318
20
26.711303357550999
10
147.6990303688479
20
26.711303357550999
10
147.6990303688479
20
27.711303357550999
10
147.36669328996356
20
27.711303357550999
42
3.1464265445104673
10
141.0738402009427
20
27.711303357551003
10
140.79903036884789
20
27.711303357550999
10
140.79903036884789
20
26.711303357550999
10
141.27026674545317
20
26.711303357550999
10
141.27026674545317
20
20.811303357550997
0
LWPOLYLINE
5
101
100
AcDbEntity
8
0
100
AcDbPolyline
90
10
70
1
43
0.0
10
164.04903036884792
20
27.711303357550999
10
163.71669328996353
20
27.711303357550999
42
3.1464265445104744
10
157.42384020094269
20
27.711303357551003
10
157.14903036884789
20
27.711303357550999
10
157.14903036884789
20
26.711303357550999
10
157.62026674545316
20
26.711303357550999
10
157.62026674545316
20
20.811303357550997
10
163.52026674545323
20
20.811303357550997
10
163.52026674545323
20
26.711303357550999
10
164.04903036884792
20
26.711303357550999
0
LWPOLYLINE
5
102
100
AcDbEntity
8
0
100
AcDbPolyline
90
10
70
1
43
0.0
10
180.39903036884792
20
27.711303357550999
10
180.06669328996355
20
27.711303357550999
42
3.1464265445104673
10
173.77384020094269
20
27.711303357551003
10
173.49903036884791
20
27.711303357550999
10
173.49903036884791
20
26.711303357550999
10
173.97026674545316
20
26.711303357550999
10
173.97026674545316
20
20.811303357550997
10
179.87026674545319
20
20.811303357550997
10
179.87026674545319
20
26.711303357550999
10
180.39903036884792
20
26.711303357550999
0
LWPOLYLINE
5
103
100
AcDbEntity
8
0
100
AcDbPolyline
90
10
70
1
43
0.0
10
196.74903036884791
20
27.711303357550999
10
196.41669328996358
20
27.711303357550999
42
3.1464265445104673
10
190.12384020094271
20
27.711303357551003
10
189.84903036884791
20
27.711303357550999
10
189.84903036884791
20
26.711303357550999
10
190.32026674545318
20
26.711303357550999
10
190.32026674545318
20
20.811303357550997
10
196.22026674545322
20
20.811303357550997
10
196.22026674545322
20
26.711303357550999
10
196.74903036884791
20
26.711303357550999
0
LWPOLYLINE
5
104
100
AcDbEntity
8
0
100
AcDbPolyline
90
11
70
1
43
0.0
10
147.45437460650828
20
43.992531484367767
10
147.45437460650828
20
49.892531484367765
10
147.96822076035448
20
49.892531484367765
10
147.96822076035448
20
50.892531484367758
10
149.85781587720882
20
50.892531484367758
10
144.40781587720883
20
60.801915577137166
10
138.95781587720882
20
50.892531484367758
10
141.06822076035451
20
50.892531484367758
10
141.06822076035451
20
49.892531484367765
10
141.55437460650828
20
49.892531484367765
10
141.55437460650828
20
43.992531484367767
0
LWPOLYLINE
5
105
100
AcDbEntity
8
0
100
AcDbPolyline
90
11
70
1
43
0.0
10
164.31822076035448
20
49.892531484367765
10
164.31822076035448
20
50.892531484367758
10
166.20781587720882
20
50.892531484367758
10
160.75781587720883
20
60.801915577137166
10
155.30781587720884
20
50.892531484367758
10
157.4182207603545
20
50.892531484367758
10
157.4182207603545
20
49.892531484367765
10
157.90437460650827
20
49.892531484367765
10
157.90437460650827
20
43.992531484367767
10
163.80437460650828
20
43.992531484367767
10
163.80437460650828
20
49.892531484367765
0
LWPOLYLINE
5
106
100
AcDbEntity
8
0
100
AcDbPolyline
90
11
70
1
43
0.0
10
180.66822076035447
20
49.892531484367765
10
180.66822076035447
20
50.892531484367758
10
182.55781587720884
20
50.892531484367758
10
177.10781587720879
20
60.801915577137166
10
171.65781587720883
20
50.892531484367758
10
173.7682207603545
20
50.892531484367758
10
173.7682207603545
20
49.892531484367765
10
174.25437460650826
20
49.892531484367765
10
174.25437460650826
20
43.992531484367767
10
180.1543746065083
20
43.992531484367767
10
180.1543746065083
20
49.892531484367765
0
LWPOLYLINE
5
107
100
AcDbEntity
8
0
100
AcDbPolyline
90
11
70
1
43
0.0
10
197.0182207603545
20
49.892531484367765
10
197.0182207603545
20
50.892531484367758
10
198.90781587720883
20
50.892531484367758
10
193.45781587720882
20
60.801915577137166
10
188.00781587720883
20
50.892531484367758
10
190.11822076035452
20
50.892531484367758
10
190.11822076035452
20
49.892531484367765
10
190.60437460650829
20
49.892531484367765
10
190.60437460650829
20
43.992531484367767
10
196.50437460650832
20
43.992531484367767
10
196.50437460650832
20
49.892531484367765
0
LWPOLYLINE
5
108
100
AcDbEntity
8
0
100
AcDbPolyline
90
12
70
1
43
0.0
10
147.87779758142844
20
73.251226676043089
10
147.87779758142844
20
79.151226676043123
10
148.39164373527461
20
79.151226676043123
10
148.39164373527461
20
80.151226676043052
10
150.39164373527458
20
80.151226676043052
10
150.39164373527458
20
90.051226676043086
10
139.49164373527458
20
90.051226676043086
10
139.49164373527458
20
80.151226676043052
10
141.49164373527461
20
80.151226676043052
10
141.49164373527461
20
79.151226676043066
10
141.97779758142843
20
79.151226676043095
10
141.97779758142843
20
73.251226676043089
0
LWPOLYLINE
5
109
100
AcDbEntity
8
0
100
AcDbPolyline
90
12
70
1
43
0.0
10
158.32779758142843
20
73.251226676043089
10
164.22779758142843
20
73.251226676043089
10
164.22779758142843
20
79.151226676043123
10
164.74164373527461
20
79.151226676043123
10
164.74164373527461
20
80.151226676043052
10
166.74164373527461
20
80.151226676043052
10
166.74164373527461
20
90.051226676043086
10
155.8416437352746
20
90.051226676043086
10
155.8416437352746
20
80.151226676043052
10
157.8416437352746
20
80.151226676043052
10
157.8416437352746
20
79.151226676043066
10
158.32779758142843
20
79.151226676043095
0
LWPOLYLINE
5
110
100
AcDbEntity
8
0
100
AcDbPolyline
90
12
70
1
43
0.0
10
174.67779758142842
20
73.251226676043089
10
180.57779758142846
20
73.251226676043089
10
180.57779758142846
20
79.151226676043123
10
181.0916437352746
20
79.151226676043123
10
181.0916437352746
20
80.151226676043052
10
183.0916437352746
20
80.151226676043052
10
183.0916437352746
20
90.051226676043086
10
172.1916437352746
20
90.051226676043086
10
172.1916437352746
20
80.151226676043052
10
174.19164373527462
20
80.151226676043052
10
174.19164373527462
20
79.151226676043066
10
174.67779758142842
20
79.151226676043095
0
LWPOLYLINE
5
111
100
AcDbEntity
8
0
100
AcDbPolyline
90
12
70
1
43
0.0
10
191.02779758142844
20
73.251226676043089
10
196.92779758142845
20
73.251226676043089
10
196.92779758142845
20
79.151226676043123
10
197.44164373527462
20
79.151226676043123
10
197.44164373527462
20
80.151226676043052
10
199.4416437352746
20
80.151226676043052
10
199.4416437352746
20
90.051226676043086
10
188.54164373527459
20
90.051226676043086
10
188.54164373527459
20
80.151226676043052
10
190.54164373527459
20
80.151226676043052
10
190.54164373527459
20
79.151226676043066
10
191.02779758142844
20
79.151226676043095
0
LWPOLYLINE
5
112
100
AcDbEntity
8
0
100
AcDbPolyline
90
12
70
1
43
0.0
10
147.75725379676052
20
99.790514125035784
10
147.75725379676052
20
105.69051412503642
10
148.25725379676052
20
105.69051412503647
10
148.25725379676052
20
106.69051412503569
10
146.44225379676053
20
106.69051412503575
10
150.25725379676055
20
116.59051412503646
10
139.35725379676055
20
116.59051412503649
10
143.17225379676054
20
106.69051412503572
10
141.35725379676052
20
106.69051412503572
10
141.35725379676052
20
105.69051412503572
10
141.85725379676052
20
105.69051412503578
10
141.85725379676052
20
99.790514125035784
0
LWPOLYLINE
5
113
100
AcDbEntity
8
0
100
AcDbPolyline
90
12
70
1
43
0.0
10
164.10725379676052
20
105.69051412503642
10
164.60725379676052
20
105.69051412503647
10
164.60725379676052
20
106.69051412503569
10
162.79225379676052
20
106.69051412503575
10
166.60725379676055
20
116.59051412503646
10
155.70725379676054
20
116.59051412503649
10
159.52225379676054
20
106.69051412503572
10
157.70725379676054
20
106.69051412503572
10
157.70725379676054
20
105.69051412503572
10
158.20725379676051
20
105.69051412503578
10
158.20725379676051
20
99.790514125035784
10
164.10725379676052
20
99.790514125035784
0
LWPOLYLINE
5
114
100
AcDbEntity
8
0
100
AcDbPolyline
90
12
70
1
43
0.0
10
180.45725379676054
20
105.69051412503642
10
180.95725379676054
20
105.69051412503647
10
180.95725379676054
20
106.69051412503569
10
179.14225379676054
20
106.69051412503575
10
182.95725379676057
20
116.59051412503646
10
172.05725379676056
20
116.59051412503649
10
175.87225379676056
20
106.69051412503572
10
174.05725379676056
20
106.69051412503572
10
174.05725379676056
20
105.69051412503572
10
174.55725379676053
20
105.69051412503578
10
174.55725379676053
20
99.790514125035784
10
180.45725379676054
20
99.790514125035784
0
LWPOLYLINE
5
115
100
AcDbEntity
8
0
100
AcDbPolyline
90
12
70
1
43
0.0
10
196.80725379676056
20
105.69051412503642
10
197.30725379676051
20
105.69051412503647
10
197.30725379676051
20
106.69051412503569
10
195.49225379676056
20
106.69051412503575
10
199.30725379676059
20
116.59051412503646
10
188.40725379676059
20
116.59051412503649
10
192.22225379676053
20
106.69051412503572
10
190.40725379676059
20
106.69051412503572
10
190.40725379676059
20
105.69051412503572
10
190.90725379676053
20
105.69051412503578
10
190.90725379676053
20
99.790514125035784
10
196.80725379676056
20
99.790514125035784
0
ENDSEC
0
SECTION
2
OBJECTS
0
DICTIONARY
5
C
100
AcDbDictionary
3
ACAD_GROUP
350
D
3
ACAD_MLINESTYLE
350
17
0
DICTIONARY
5
D
100
AcDbDictionary
0
DICTIONARY
5
1A
330
C
100
AcDbDictionary
0
DICTIONARY
5
17
100
AcDbDictionary
0
ENDSEC
0
EOF
