0
SECTION
2
HEADER
9
$INSUNITS
70
4
9
$ACADVER
1
AC1014
9
$HANDSEED
5
FFFF
0
ENDSEC
0
SECTION
2
TABLES
0
TABLE
2
VPORT
5
8
100
AcDbSymbolTable
0
ENDTAB
0
TABLE
2
LTYPE
5
5
100
AcDbSymbolTable
0
LTYPE
5
14
100
AcDbSymbolTableRecord
100
AcDbLinetypeTableRecord
2
BYBLOCK
70
0
0
LTYPE
5
15
100
AcDbSymbolTableRecord
100
AcDbLinetypeTableRecord
2
BYLAYER
70
0
0
ENDTAB
0
TABLE
2
LAYER
5
2
100
AcDbSymbolTable
70
2
0
LAYER
5
50
100
AcDbSymbolTableRecord
100
AcDbLayerTableRecord
2
0
70
0
6
CONTINUOUS
0
ENDTAB
0
TABLE
2
STYLE
5
3
100
AcDbSymbolTable
70
1
0
STYLE
5
11
100
AcDbSymbolTableRecord
100
AcDbTextStyleTableRecord
2
STANDARD
70
0
0
ENDTAB
0
TABLE
2
VIEW
5
6
100
AcDbSymbolTable
70
0
0
ENDTAB
0
TABLE
2
UCS
5
7
100
AcDbSymbolTable
70
0
0
ENDTAB
0
TABLE
2
APPID
5
9
100
AcDbSymbolTable
70
2
0
APPID
5
12
100
AcDbSymbolTableRecord
100
AcDbRegAppTableRecord
2
ACAD
70
0
0
ENDTAB
0
TABLE
2
DIMSTYLE
5
A
100
AcDbSymbolTable
70
1
0
ENDTAB
0
TABLE
2
BLOCK_RECORD
5
1
100
AcDbSymbolTable
70
1
0
BLOCK_RECORD
5
1F
100
AcDbSymbolTableRecord
100
AcDbBlockTableRecord
2
*MODEL_SPACE
0
BLOCK_RECORD
5
1B
100
AcDbSymbolTableRecord
100
AcDbBlockTableRecord
2
*PAPER_SPACE
0
ENDTAB
0
ENDSEC
0
SECTION
2
BLOCKS
0
BLOCK
5
20
100
AcDbEntity
100
AcDbBlockBegin
2
*MODEL_SPACE
0
ENDBLK
5
21
100
AcDbEntity
100
AcDbBlockEnd
0
BLOCK
5
1C
100
AcDbEntity
100
AcDbBlockBegin
2
*PAPER_SPACE
0
ENDBLK
5
1D
100
AcDbEntity
100
AcDbBlockEnd
0
ENDSEC
0
SECTION
2
ENTITIES
0
LWPOLYLINE
5
100
100
AcDbEntity
8
0
100
AcDbPolyline
90
4
70
1
43
0.0
10
-56.131818181818183
20
-47.281818181818181
10
-56.131818181818183
20
-53.181818181818187
10
-50.231818181818184
20
-53.181818181818187
10
-50.231818181818184
20
-47.281818181818181
0
LWPOLYLINE
5
101
100
AcDbEntity
8
0
100
AcDbPolyline
90
4
70
1
43
0.0
10
-67.950000000000003
20
65
10
-67.950000000000003
20
59.100000000000001
10
-62.049999999999997
20
59.100000000000001
10
-62.049999999999997
20
65
0
LWPOLYLINE
5
102
100
AcDbEntity
8
0
100
AcDbPolyline
90
4
70
1
43
0.0
10
56.131818181818183
20
47.281818181818181
10
56.131818181818183
20
53.181818181818187
10
50.231818181818184
20
53.181818181818187
10
50.231818181818184
20
47.281818181818181
0
LWPOLYLINE
5
103
100
AcDbEntity
8
0
100
AcDbPolyline
90
4
70
1
43
0.0
10
56.131818181818183
20
-47.281818181818181
10
50.231818181818184
20
-47.281818181818181
10
50.231818181818184
20
-53.181818181818187
10
56.131818181818183
20
-53.181818181818187
0
LWPOLYLINE
5
104
100
AcDbEntity
8
0
100
AcDbPolyline
90
4
70
1
43
0.0
10
67.950000000000003
20
-47.281818181818181
10
62.049999999999997
20
-47.281818181818181
10
62.049999999999997
20
-53.181818181818187
10
67.950000000000003
20
-53.181818181818187
0
LWPOLYLINE
5
105
100
AcDbEntity
8
0
100
AcDbPolyline
90
4
70
1
43
0.0
10
50.231818181818184
20
59.100000000000001
10
56.131818181818183
20
59.100000000000001
10
56.131818181818183
20
65
10
50.231818181818184
20
65
0
LWPOLYLINE
5
106
100
AcDbEntity
8
0
100
AcDbPolyline
90
4
70
1
43
0.0
10
-56.131818181818183
20
47.281818181818181
10
-50.231818181818184
20
47.281818181818181
10
-50.231818181818184
20
53.181818181818187
10
-56.131818181818183
20
53.181818181818187
0
LWPOLYLINE
5
107
100
AcDbEntity
8
0
100
AcDbPolyline
90
4
70
1
43
0.0
10
-56.131818181818183
20
-65
10
-50.231818181818184
20
-65
10
-50.231818181818184
20
-59.100000000000001
10
-56.131818181818183
20
-59.100000000000001
0
LWPOLYLINE
5
108
100
AcDbEntity
8
0
100
AcDbPolyline
90
4
70
1
43
0.0
10
-67.950000000000003
20
-47.281818181818181
10
-67.950000000000003
20
-53.181818181818187
10
-62.049999999999997
20
-53.181818181818187
10
-62.049999999999997
20
-47.281818181818181
0
LWPOLYLINE
5
109
100
AcDbEntity
8
0
100
AcDbPolyline
90
4
70
1
43
0.0
10
-67.950000000000003
20
53.181818181818187
10
-67.950000000000003
20
47.281818181818181
10
-62.049999999999997
20
47.281818181818181
10
-62.049999999999997
20
53.181818181818187
0
LWPOLYLINE
5
110
100
AcDbEntity
8
0
100
AcDbPolyline
90
4
70
1
43
0.0
10
62.049999999999997
20
47.281818181818181
10
67.950000000000003
20
47.281818181818181
10
67.950000000000003
20
53.181818181818187
10
62.049999999999997
20
53.181818181818187
0
LWPOLYLINE
5
111
100
AcDbEntity
8
0
100
AcDbPolyline
90
4
70
1
43
0.0
10
67.950000000000003
20
-65
10
67.950000000000003
20
-59.100000000000001
10
62.049999999999997
20
-59.100000000000001
10
62.049999999999997
20
-65
0
LWPOLYLINE
5
112
100
AcDbEntity
8
0
100
AcDbPolyline
90
4
70
1
43
0.0
10
56.131818181818183
20
-59.100000000000001
10
50.231818181818184
20
-59.100000000000001
10
50.231818181818184
20
-65
10
56.131818181818183
20
-65
0
LWPOLYLINE
5
113
100
AcDbEntity
8
0
100
AcDbPolyline
90
4
70
1
43
0.0
10
62.049999999999997
20
59.100000000000001
10
67.950000000000003
20
59.100000000000001
10
67.950000000000003
20
65
10
62.049999999999997
20
65
0
LWPOLYLINE
5
114
100
AcDbEntity
8
0
100
AcDbPolyline
90
4
70
1
43
0.0
10
-50.231818181818184
20
65
10
-56.131818181818183
20
65
10
-56.131818181818183
20
59.100000000000001
10
-50.231818181818184
20
59.100000000000001
0
LWPOLYLINE
5
115
100
AcDbEntity
8
0
100
AcDbPolyline
90
4
70
1
43
0.0
10
-62.049999999999997
20
-59.100000000000001
10
-67.950000000000003
20
-59.100000000000001
10
-67.950000000000003
20
-65
10
-62.049999999999997
20
-65
0
LWPOLYLINE
5
116
100
AcDbEntity
8
0
100
AcDbPolyline
90
4
70
1
43
0.0
10
-8.8681818181818191
20
-62.040909090909089
10
-8.8681818181818191
20
-56.140909090909091
10
-14.768181818181819
20
-56.140909090909091
10
-14.768181818181819
20
-62.040909090909089
0
LWPOLYLINE
5
117
100
AcDbEntity
8
0
100
AcDbPolyline
90
4
70
1
43
0.0
10
-8.8681818181818191
20
-50.222727272727276
10
-8.8681818181818191
20
-44.322727272727278
10
-14.768181818181819
20
-44.322727272727278
10
-14.768181818181819
20
-50.222727272727276
0
LWPOLYLINE
5
118
100
AcDbEntity
8
0
100
AcDbPolyline
90
4
70
1
43
0.0
10
-8.8681818181818191
20
-38.404545454545456
10
-8.8681818181818191
20
-32.504545454545458
10
-14.768181818181819
20
-32.504545454545458
10
-14.768181818181819
20
-38.404545454545456
0
LWPOLYLINE
5
119
100
AcDbEntity
8
0
100
AcDbPolyline
90
4
70
1
43
0.0
10
-8.8681818181818191
20
-26.586363636363636
10
-8.8681818181818191
20
-20.686363636363637
10
-14.768181818181819
20
-20.686363636363637
10
-14.768181818181819
20
-26.586363636363636
0
LWPOLYLINE
5
120
100
AcDbEntity
8
0
100
AcDbPolyline
90
4
70
1
43
0.0
10
-8.8681818181818191
20
20.686363636363637
10
-8.8681818181818191
20
26.586363636363636
10
-14.768181818181819
20
26.586363636363636
10
-14.768181818181819
20
20.686363636363637
0
LWPOLYLINE
5
121
100
AcDbEntity
8
0
100
AcDbPolyline
90
4
70
1
43
0.0
10
-8.8681818181818191
20
32.504545454545458
10
-8.8681818181818191
20
38.404545454545456
10
-14.768181818181819
20
38.404545454545456
10
-14.768181818181819
20
32.504545454545458
0
LWPOLYLINE
5
122
100
AcDbEntity
8
0
100
AcDbPolyline
90
4
70
1
43
0.0
10
-8.8681818181818191
20
44.322727272727278
10
-8.8681818181818191
20
50.222727272727276
10
-14.768181818181819
20
50.222727272727276
10
-14.768181818181819
20
44.322727272727278
0
LWPOLYLINE
5
123
100
AcDbEntity
8
0
100
AcDbPolyline
90
4
70
1
43
0.0
10
-8.8681818181818191
20
56.140909090909091
10
-8.8681818181818191
20
62.040909090909089
10
-14.768181818181819
20
62.040909090909089
10
-14.768181818181819
20
56.140909090909091
0
LWPOLYLINE
5
124
100
AcDbEntity
8
0
100
AcDbPolyline
90
4
70
1
43
0.0
10
2.9500000000000002
20
-62.040909090909089
10
2.9500000000000002
20
-56.140909090909091
10
-2.9500000000000002
20
-56.140909090909091
10
-2.9500000000000002
20
-62.040909090909089
0
LWPOLYLINE
5
125
100
AcDbEntity
8
0
100
AcDbPolyline
90
4
70
1
43
0.0
10
2.9500000000000002
20
-50.222727272727276
10
2.9500000000000002
20
-44.322727272727278
10
-2.9500000000000002
20
-44.322727272727278
10
-2.9500000000000002
20
-50.222727272727276
0
LWPOLYLINE
5
126
100
AcDbEntity
8
0
100
AcDbPolyline
90
4
70
1
43
0.0
10
2.9500000000000002
20
-38.404545454545456
10
2.9500000000000002
20
-32.504545454545458
10
-2.9500000000000002
20
-32.504545454545458
10
-2.9500000000000002
20
-38.404545454545456
0
LWPOLYLINE
5
127
100
AcDbEntity
8
0
100
AcDbPolyline
90
4
70
1
43
0.0
10
2.9500000000000002
20
-26.586363636363636
10
2.9500000000000002
20
-20.686363636363637
10
-2.9500000000000002
20
-20.686363636363637
10
-2.9500000000000002
20
-26.586363636363636
0
LWPOLYLINE
5
128
100
AcDbEntity
8
0
100
AcDbPolyline
90
4
70
1
43
0.0
10
2.9500000000000002
20
20.686363636363637
10
2.9500000000000002
20
26.586363636363636
10
-2.9500000000000002
20
26.586363636363636
10
-2.9500000000000002
20
20.686363636363637
0
LWPOLYLINE
5
129
100
AcDbEntity
8
0
100
AcDbPolyline
90
4
70
1
43
0.0
10
2.9500000000000002
20
32.504545454545458
10
2.9500000000000002
20
38.404545454545456
10
-2.9500000000000002
20
38.404545454545456
10
-2.9500000000000002
20
32.504545454545458
0
LWPOLYLINE
5
130
100
AcDbEntity
8
0
100
AcDbPolyline
90
4
70
1
43
0.0
10
2.9500000000000002
20
44.322727272727278
10
2.9500000000000002
20
50.222727272727276
10
-2.9500000000000002
20
50.222727272727276
10
-2.9500000000000002
20
44.322727272727278
0
LWPOLYLINE
5
131
100
AcDbEntity
8
0
100
AcDbPolyline
90
4
70
1
43
0.0
10
2.9500000000000002
20
56.140909090909091
10
2.9500000000000002
20
62.040909090909089
10
-2.9500000000000002
20
62.040909090909089
10
-2.9500000000000002
20
56.140909090909091
0
LWPOLYLINE
5
132
100
AcDbEntity
8
0
100
AcDbPolyline
90
4
70
1
43
0.0
10
14.768181818181819
20
-62.040909090909089
10
14.768181818181819
20
-56.140909090909091
10
8.8681818181818191
20
-56.140909090909091
10
8.8681818181818191
20
-62.040909090909089
0
LWPOLYLINE
5
133
100
AcDbEntity
8
0
100
AcDbPolyline
90
4
70
1
43
0.0
10
14.768181818181819
20
-50.222727272727276
10
14.768181818181819
20
-44.322727272727278
10
8.8681818181818191
20
-44.322727272727278
10
8.8681818181818191
20
-50.222727272727276
0
LWPOLYLINE
5
134
100
AcDbEntity
8
0
100
AcDbPolyline
90
4
70
1
43
0.0
10
14.768181818181819
20
-38.404545454545456
10
14.768181818181819
20
-32.504545454545458
10
8.8681818181818191
20
-32.504545454545458
10
8.8681818181818191
20
-38.404545454545456
0
LWPOLYLINE
5
135
100
AcDbEntity
8
0
100
AcDbPolyline
90
4
70
1
43
0.0
10
14.768181818181819
20
-26.586363636363636
10
14.768181818181819
20
-20.686363636363637
10
8.8681818181818191
20
-20.686363636363637
10
8.8681818181818191
20
-26.586363636363636
0
LWPOLYLINE
5
136
100
AcDbEntity
8
0
100
AcDbPolyline
90
4
70
1
43
0.0
10
14.768181818181819
20
20.686363636363637
10
14.768181818181819
20
26.586363636363636
10
8.8681818181818191
20
26.586363636363636
10
8.8681818181818191
20
20.686363636363637
0
LWPOLYLINE
5
137
100
AcDbEntity
8
0
100
AcDbPolyline
90
4
70
1
43
0.0
10
14.768181818181819
20
32.504545454545458
10
14.768181818181819
20
38.404545454545456
10
8.8681818181818191
20
38.404545454545456
10
8.8681818181818191
20
32.504545454545458
0
LWPOLYLINE
5
138
100
AcDbEntity
8
0
100
AcDbPolyline
90
4
70
1
43
0.0
10
14.768181818181819
20
44.322727272727278
10
14.768181818181819
20
50.222727272727276
10
8.8681818181818191
20
50.222727272727276
10
8.8681818181818191
20
44.322727272727278
0
LWPOLYLINE
5
139
100
AcDbEntity
8
0
100
AcDbPolyline
90
4
70
1
43
0.0
10
14.768181818181819
20
56.140909090909091
10
14.768181818181819
20
62.040909090909089
10
8.8681818181818191
20
62.040909090909089
10
8.8681818181818191
20
56.140909090909091
0
LWPOLYLINE
5
140
100
AcDbEntity
8
0
100
AcDbPolyline
90
4
70
1
43
0.0
10
-56.140909090909091
20
-14.768181818181819
10
-56.140909090909091
20
-8.8681818181818191
10
-62.040909090909089
20
-8.8681818181818191
10
-62.040909090909089
20
-14.768181818181819
0
LWPOLYLINE
5
141
100
AcDbEntity
8
0
100
AcDbPolyline
90
4
70
1
43
0.0
10
-56.140909090909091
20
-2.9500000000000002
10
-56.140909090909091
20
2.9500000000000002
10
-62.040909090909089
20
2.9500000000000002
10
-62.040909090909089
20
-2.9500000000000002
0
LWPOLYLINE
5
142
100
AcDbEntity
8
0
100
AcDbPolyline
90
4
70
1
43
0.0
10
-56.140909090909091
20
8.8681818181818191
10
-56.140909090909091
20
14.768181818181819
10
-62.040909090909089
20
14.768181818181819
10
-62.040909090909089
20
8.8681818181818191
0
LWPOLYLINE
5
143
100
AcDbEntity
8
0
100
AcDbPolyline
90
4
70
1
43
0.0
10
-44.322727272727278
20
-14.768181818181819
10
-44.322727272727278
20
-8.8681818181818191
10
-50.222727272727276
20
-8.8681818181818191
10
-50.222727272727276
20
-14.768181818181819
0
LWPOLYLINE
5
144
100
AcDbEntity
8
0
100
AcDbPolyline
90
4
70
1
43
0.0
10
-44.322727272727278
20
-2.9500000000000002
10
-44.322727272727278
20
2.9500000000000002
10
-50.222727272727276
20
2.9500000000000002
10
-50.222727272727276
20
-2.9500000000000002
0
LWPOLYLINE
5
145
100
AcDbEntity
8
0
100
AcDbPolyline
90
4
70
1
43
0.0
10
-44.322727272727278
20
8.8681818181818191
10
-44.322727272727278
20
14.768181818181819
10
-50.222727272727276
20
14.768181818181819
10
-50.222727272727276
20
8.8681818181818191
0
LWPOLYLINE
5
146
100
AcDbEntity
8
0
100
AcDbPolyline
90
4
70
1
43
0.0
10
-32.504545454545458
20
-14.768181818181819
10
-32.504545454545458
20
-8.8681818181818191
10
-38.404545454545456
20
-8.8681818181818191
10
-38.404545454545456
20
-14.768181818181819
0
LWPOLYLINE
5
147
100
AcDbEntity
8
0
100
AcDbPolyline
90
4
70
1
43
0.0
10
-32.504545454545458
20
-2.9500000000000002
10
-32.504545454545458
20
2.9500000000000002
10
-38.404545454545456
20
2.9500000000000002
10
-38.404545454545456
20
-2.9500000000000002
0
LWPOLYLINE
5
148
100
AcDbEntity
8
0
100
AcDbPolyline
90
4
70
1
43
0.0
10
-32.504545454545458
20
8.8681818181818191
10
-32.504545454545458
20
14.768181818181819
10
-38.404545454545456
20
14.768181818181819
10
-38.404545454545456
20
8.8681818181818191
0
LWPOLYLINE
5
149
100
AcDbEntity
8
0
100
AcDbPolyline
90
4
70
1
43
0.0
10
-20.686363636363637
20
-14.768181818181819
10
-20.686363636363637
20
-8.8681818181818191
10
-26.586363636363636
20
-8.8681818181818191
10
-26.586363636363636
20
-14.768181818181819
0
LWPOLYLINE
5
150
100
AcDbEntity
8
0
100
AcDbPolyline
90
4
70
1
43
0.0
10
-20.686363636363637
20
-2.9500000000000002
10
-20.686363636363637
20
2.9500000000000002
10
-26.586363636363636
20
2.9500000000000002
10
-26.586363636363636
20
-2.9500000000000002
0
LWPOLYLINE
5
151
100
AcDbEntity
8
0
100
AcDbPolyline
90
4
70
1
43
0.0
10
-20.686363636363637
20
8.8681818181818191
10
-20.686363636363637
20
14.768181818181819
10
-26.586363636363636
20
14.768181818181819
10
-26.586363636363636
20
8.8681818181818191
0
LWPOLYLINE
5
152
100
AcDbEntity
8
0
100
AcDbPolyline
90
4
70
1
43
0.0
10
-8.8681818181818191
20
-14.768181818181819
10
-8.8681818181818191
20
-8.8681818181818191
10
-14.768181818181819
20
-8.8681818181818191
10
-14.768181818181819
20
-14.768181818181819
0
LWPOLYLINE
5
153
100
AcDbEntity
8
0
100
AcDbPolyline
90
4
70
1
43
0.0
10
-8.8681818181818191
20
-2.9500000000000002
10
-8.8681818181818191
20
2.9500000000000002
10
-14.768181818181819
20
2.9500000000000002
10
-14.768181818181819
20
-2.9500000000000002
0
LWPOLYLINE
5
154
100
AcDbEntity
8
0
100
AcDbPolyline
90
4
70
1
43
0.0
10
-8.8681818181818191
20
8.8681818181818191
10
-8.8681818181818191
20
14.768181818181819
10
-14.768181818181819
20
14.768181818181819
10
-14.768181818181819
20
8.8681818181818191
0
LWPOLYLINE
5
155
100
AcDbEntity
8
0
100
AcDbPolyline
90
4
70
1
43
0.0
10
2.9500000000000002
20
-14.768181818181819
10
2.9500000000000002
20
-8.8681818181818191
10
-2.9500000000000002
20
-8.8681818181818191
10
-2.9500000000000002
20
-14.768181818181819
0
LWPOLYLINE
5
156
100
AcDbEntity
8
0
100
AcDbPolyline
90
4
70
1
43
0.0
10
2.9500000000000002
20
8.8681818181818191
10
2.9500000000000002
20
14.768181818181819
10
-2.9500000000000002
20
14.768181818181819
10
-2.9500000000000002
20
8.8681818181818191
0
LWPOLYLINE
5
157
100
AcDbEntity
8
0
100
AcDbPolyline
90
4
70
1
43
0.0
10
14.768181818181819
20
-14.768181818181819
10
14.768181818181819
20
-8.8681818181818191
10
8.8681818181818191
20
-8.8681818181818191
10
8.8681818181818191
20
-14.768181818181819
0
LWPOLYLINE
5
158
100
AcDbEntity
8
0
100
AcDbPolyline
90
4
70
1
43
0.0
10
14.768181818181819
20
-2.9500000000000002
10
14.768181818181819
20
2.9500000000000002
10
8.8681818181818191
20
2.9500000000000002
10
8.8681818181818191
20
-2.9500000000000002
0
LWPOLYLINE
5
159
100
AcDbEntity
8
0
100
AcDbPolyline
90
4
70
1
43
0.0
10
14.768181818181819
20
8.8681818181818191
10
14.768181818181819
20
14.768181818181819
10
8.8681818181818191
20
14.768181818181819
10
8.8681818181818191
20
8.8681818181818191
0
LWPOLYLINE
5
160
100
AcDbEntity
8
0
100
AcDbPolyline
90
4
70
1
43
0.0
10
26.586363636363636
20
-14.768181818181819
10
26.586363636363636
20
-8.8681818181818191
10
20.686363636363637
20
-8.8681818181818191
10
20.686363636363637
20
-14.768181818181819
0
LWPOLYLINE
5
161
100
AcDbEntity
8
0
100
AcDbPolyline
90
4
70
1
43
0.0
10
26.586363636363636
20
-2.9500000000000002
10
26.586363636363636
20
2.9500000000000002
10
20.686363636363637
20
2.9500000000000002
10
20.686363636363637
20
-2.9500000000000002
0
LWPOLYLINE
5
162
100
AcDbEntity
8
0
100
AcDbPolyline
90
4
70
1
43
0.0
10
26.586363636363636
20
8.8681818181818191
10
26.586363636363636
20
14.768181818181819
10
20.686363636363637
20
14.768181818181819
10
20.686363636363637
20
8.8681818181818191
0
LWPOLYLINE
5
163
100
AcDbEntity
8
0
100
AcDbPolyline
90
4
70
1
43
0.0
10
38.404545454545456
20
-14.768181818181819
10
38.404545454545456
20
-8.8681818181818191
10
32.504545454545458
20
-8.8681818181818191
10
32.504545454545458
20
-14.768181818181819
0
LWPOLYLINE
5
164
100
AcDbEntity
8
0
100
AcDbPolyline
90
4
70
1
43
0.0
10
38.404545454545456
20
-2.9500000000000002
10
38.404545454545456
20
2.9500000000000002
10
32.504545454545458
20
2.9500000000000002
10
32.504545454545458
20
-2.9500000000000002
0
LWPOLYLINE
5
165
100
AcDbEntity
8
0
100
AcDbPolyline
90
4
70
1
43
0.0
10
38.404545454545456
20
8.8681818181818191
10
38.404545454545456
20
14.768181818181819
10
32.504545454545458
20
14.768181818181819
10
32.504545454545458
20
8.8681818181818191
0
LWPOLYLINE
5
166
100
AcDbEntity
8
0
100
AcDbPolyline
90
4
70
1
43
0.0
10
50.222727272727276
20
-14.768181818181819
10
50.222727272727276
20
-8.8681818181818191
10
44.322727272727278
20
-8.8681818181818191
10
44.322727272727278
20
-14.768181818181819
0
LWPOLYLINE
5
167
100
AcDbEntity
8
0
100
AcDbPolyline
90
4
70
1
43
0.0
10
50.222727272727276
20
-2.9500000000000002
10
50.222727272727276
20
2.9500000000000002
10
44.322727272727278
20
2.9500000000000002
10
44.322727272727278
20
-2.9500000000000002
0
LWPOLYLINE
5
168
100
AcDbEntity
8
0
100
AcDbPolyline
90
4
70
1
43
0.0
10
50.222727272727276
20
8.8681818181818191
10
50.222727272727276
20
14.768181818181819
10
44.322727272727278
20
14.768181818181819
10
44.322727272727278
20
8.8681818181818191
0
LWPOLYLINE
5
169
100
AcDbEntity
8
0
100
AcDbPolyline
90
4
70
1
43
0.0
10
62.040909090909089
20
-14.768181818181819
10
62.040909090909089
20
-8.8681818181818191
10
56.140909090909091
20
-8.8681818181818191
10
56.140909090909091
20
-14.768181818181819
0
LWPOLYLINE
5
170
100
AcDbEntity
8
0
100
AcDbPolyline
90
4
70
1
43
0.0
10
62.040909090909089
20
-2.9500000000000002
10
62.040909090909089
20
2.9500000000000002
10
56.140909090909091
20
2.9500000000000002
10
56.140909090909091
20
-2.9500000000000002
0
LWPOLYLINE
5
171
100
AcDbEntity
8
0
100
AcDbPolyline
90
4
70
1
43
0.0
10
62.040909090909089
20
8.8681818181818191
10
62.040909090909089
20
14.768181818181819
10
56.140909090909091
20
14.768181818181819
10
56.140909090909091
20
8.8681818181818191
0
LWPOLYLINE
5
172
100
AcDbEntity
8
0
100
AcDbPolyline
90
20
70
1
43
0.0
10
80.900000000000091
20
50.283499999999997
10
80.900000000000006
20
-50
10
74.716499999999996
20
-50
10
74.716499999999996
20
-74.716499999999996
10
50.000000000000036
20
-74.716499999999996
10
50
20
-80.900000000000006
10
-50.283499999999961
20
-80.900000000000063
10
-50.283499999999961
20
-74.716499999999996
10
-75
20
-74.716499999999996
10
-75
20
-50
10
-81.183499999999995
20
-50.000000000000178
10
-81.183499999999995
20
50.283499999999997
10
-75
20
50.283499999999997
10
-75
20
75
10
-50.283499999999997
20
75
10
-50.283499999999997
20
88.183500000000024
10
50
20
88.183500000000024
10
50
20
75
10
74.716499999999996
20
75
10
74.716499999999996
20
50.283499999999997
0
ENDSEC
0
SECTION
2
OBJECTS
0
DICTIONARY
5
C
100
AcDbDictionary
3
ACAD_GROUP
350
D
3
ACAD_MLINESTYLE
350
17
0
DICTIONARY
5
D
100
AcDbDictionary
0
DICTIONARY
5
1A
330
C
100
AcDbDictionary
0
DICTIONARY
5
17
100
AcDbDictionary
0
ENDSEC
0
EOF
