0
SECTION
2
HEADER
9
$INSUNITS
70
4
9
$ACADVER
1
AC1014
9
$HANDSEED
5
FFFF
0
ENDSEC
0
SECTION
2
TABLES
0
TABLE
2
VPORT
5
8
100
AcDbSymbolTable
0
ENDTAB
0
TABLE
2
LTYPE
5
5
100
AcDbSymbolTable
0
LTYPE
5
14
100
AcDbSymbolTableRecord
100
AcDbLinetypeTableRecord
2
BYBLOCK
70
0
0
LTYPE
5
15
100
AcDbSymbolTableRecord
100
AcDbLinetypeTableRecord
2
BYLAYER
70
0
0
ENDTAB
0
TABLE
2
LAYER
5
2
100
AcDbSymbolTable
70
2
0
LAYER
5
50
100
AcDbSymbolTableRecord
100
AcDbLayerTableRecord
2
0
70
0
6
CONTINUOUS
0
ENDTAB
0
TABLE
2
STYLE
5
3
100
AcDbSymbolTable
70
1
0
STYLE
5
11
100
AcDbSymbolTableRecord
100
AcDbTextStyleTableRecord
2
STANDARD
70
0
0
ENDTAB
0
TABLE
2
VIEW
5
6
100
AcDbSymbolTable
70
0
0
ENDTAB
0
TABLE
2
UCS
5
7
100
AcDbSymbolTable
70
0
0
ENDTAB
0
TABLE
2
APPID
5
9
100
AcDbSymbolTable
70
2
0
APPID
5
12
100
AcDbSymbolTableRecord
100
AcDbRegAppTableRecord
2
ACAD
70
0
0
ENDTAB
0
TABLE
2
DIMSTYLE
5
A
100
AcDbSymbolTable
70
1
0
ENDTAB
0
TABLE
2
BLOCK_RECORD
5
1
100
AcDbSymbolTable
70
1
0
BLOCK_RECORD
5
1F
100
AcDbSymbolTableRecord
100
AcDbBlockTableRecord
2
*MODEL_SPACE
0
BLOCK_RECORD
5
1B
100
AcDbSymbolTableRecord
100
AcDbBlockTableRecord
2
*PAPER_SPACE
0
ENDTAB
0
ENDSEC
0
SECTION
2
BLOCKS
0
BLOCK
5
20
100
AcDbEntity
100
AcDbBlockBegin
2
*MODEL_SPACE
0
ENDBLK
5
21
100
AcDbEntity
100
AcDbBlockEnd
0
BLOCK
5
1C
100
AcDbEntity
100
AcDbBlockBegin
2
*PAPER_SPACE
0
ENDBLK
5
1D
100
AcDbEntity
100
AcDbBlockEnd
0
ENDSEC
0
SECTION
2
ENTITIES
0
CIRCLE
5
100
100
AcDbEntity
8
0
100
AcDbCircle
10
0
20
60
30
0
40
14.999999999999996
210
0
220
0
230
1
0
SPLINE
5
101
100
AcDbEntity
8
0
100
AcDbSpline
70
4
71
5
72
36
73
30
74
0
42
0.000000001
43
0.0000000001
44
0.0000000001
40
0
40
0
40
0
40
0
40
0
40
0
40
0.040000000000000001
40
0.080000000000000002
40
0.12
40
0.16
40
0.20000000000000001
40
0.24000000000000002
40
0.28000000000000003
40
0.32000000000000001
40
0.35999999999999999
40
0.39999999999999997
40
0.43999999999999995
40
0.47999999999999993
40
0.51999999999999991
40
0.55999999999999994
40
0.59999999999999998
40
0.64000000000000001
40
0.68000000000000005
40
0.72000000000000008
40
0.76000000000000012
40
0.80000000000000016
40
0.84000000000000019
40
0.88000000000000023
40
0.92000000000000026
40
0.9600000000000003
40
1
40
1
40
1
40
1
40
1
40
1
41
1
41
1
41
1
41
1
41
1
41
1
41
1
41
1
41
1
41
1
41
1
41
1
41
1
41
1
41
1
41
1
41
1
41
1
41
1
41
1
41
1
41
1
41
1
41
1
41
1
41
1
41
1
41
1
41
1
41
1
10
-27.849617019859622
20
48.846577572460305
30
0
10
-27.534823600234596
20
48.060551916758236
30
0
10
-26.930917048904174
20
46.502338510162957
30
0
10
-26.102106221148361
20
44.206480773962518
30
0
10
-25.138581236423345
20
41.247375350694909
30
0
10
-24.099361244472384
20
37.806475399086636
30
0
10
-23.135996001769456
20
34.709349984992208
30
0
10
-22.165207844994136
20
31.973018786532496
30
0
10
-21.125431043289598
20
29.532487924125867
30
0
10
-20.014601627003692
20
27.094496058774226
30
0
10
-18.846393825085034
20
24.497141493223133
30
0
10
-17.635945835622049
20
21.712032933309192
30
0
10
-16.399175508378754
20
18.779966275135806
30
0
10
-15.146693407874331
20
15.780659355092844
30
0
10
-13.878671930857223
20
12.782464031961956
30
0
10
-12.584007593996398
20
9.8216612487876507
30
0
10
-11.248109958221891
20
6.9150963703218116
30
0
10
-9.8585944778276051
20
4.0651795275694669
30
0
10
-8.4116555827291943
20
1.267625973208141
30
0
10
-6.9187026593340448
20
-1.4818198253627626
30
0
10
-5.4117352055419854
20
-4.1810793704604947
30
0
10
-3.9349445037595459
20
-6.8242312283219873
30
0
10
-2.5375292403006582
20
-9.4031768001229921
30
0
10
-1.2663144537773061
20
-11.909572972502691
30
0
10
-0.15795309910771302
20
-14.336784897455811
30
0
10
0.76745926724328162
20
-16.681539516057097
30
0
10
1.3542599849756951
20
-18.490455674117147
30
0
10
1.7071478964613376
20
-19.809552175749083
30
0
10
1.9037433598066047
20
-20.672285684467546
30
0
10
1.9923754708408521
20
-21.099486439209873
30
0
0
LINE
5
102
100
AcDbEntity
8
0
100
AcDbLine
10
29.852593447728097
20
57.029702970297024
30
0
11
19.90172896515206
21
-42.980198019801989
31
0
0
SPLINE
5
103
100
AcDbEntity
8
0
100
AcDbSpline
70
4
71
5
72
31
73
25
74
0
42
0.000000001
43
0.0000000001
44
0.0000000001
40
0
40
0
40
0
40
0
40
0
40
0
40
0.050000000000000003
40
0.10000000000000001
40
0.15000000000000002
40
0.20000000000000001
40
0.25
40
0.29999999999999999
40
0.34999999999999998
40
0.39999999999999997
40
0.44999999999999996
40
0.49999999999999994
40
0.54999999999999993
40
0.59999999999999998
40
0.65000000000000002
40
0.70000000000000007
40
0.75000000000000011
40
0.80000000000000016
40
0.8500000000000002
40
0.90000000000000024
40
0.95000000000000029
40
1
40
1
40
1
40
1
40
1
40
1
41
1
41
1
41
1
41
1
41
1
41
1
41
1
41
1
41
1
41
1
41
1
41
1
41
1
41
1
41
1
41
1
41
1
41
1
41
1
41
1
41
1
41
1
41
1
41
1
41
1
10
-16.777427274365746
20
-30.113405764272812
30
0
10
-16.591160372804939
20
-29.947836464353319
30
0
10
-16.215211005981232
20
-29.633160209341646
30
0
10
-15.641040816337803
20
-29.210532615270314
30
0
10
-14.854899809674549
20
-28.746207890566119
30
0
10
-13.839362463852659
20
-28.333158283567755
30
0
10
-12.796082610196107
20
-28.089512021006925
30
0
10
-11.736193971143404
20
-28.016045262595402
30
0
10
-10.678720669594799
20
-28.111013450144799
30
0
10
-9.6539587130268583
20
-28.368342144902758
30
0
10
-8.6987175190968795
20
-28.777998180135981
30
0
10
-7.8491987777180032
20
-29.32691454829126
30
0
10
-7.1344357932140579
20
-29.999501513499286
30
0
10
-6.5697207621380116
20
-30.778159072454617
30
0
10
-6.1485843380735838
20
-31.643520626403667
30
0
10
-5.848536017892668
20
-32.575744110807264
30
0
10
-5.6383644874147132
20
-33.55587808280265
30
0
10
-5.4844704067405647
20
-34.567107371952638
30
0
10
-5.3576601915494724
20
-35.596081917168114
30
0
10
-5.2390304747647409
20
-36.634045918807423
30
0
10
-5.1173576428547349
20
-37.67576024728379
30
0
10
-5.0132286780050368
20
-38.510053286771033
30
0
10
-4.9305317884043012
20
-39.135900726000969
30
0
10
-4.8733650124591428
20
-39.553189044565841
30
0
10
-4.8442727067257021
20
-39.761847366891928
30
0
0
ARC
5
104
100
AcDbEntity
8
0
100
AcDbCircle
10
0
20
60
30
0
40
30.000000000000014
210
0
220
0
230
1
100
AcDbArc
50
-5.6821590363307539
51
201.82548258834771
0
ARC
5
105
100
AcDbEntity
8
0
100
AcDbCircle
10
0
20
-41
30
0
40
20
210
0
220
0
230
1
100
AcDbArc
50
147.02112962421106
51
354.3178409636692
0
LINE
5
106
100
AcDbEntity
8
0
100
AcDbLine
10
1.9923754708408521
20
-21.099486439209873
30
0
11
4.9416708170472425
21
-40.238495216073041
31
0
0
ARC
5
107
100
AcDbEntity
8
0
100
AcDbCircle
10
0
20
-41
30
0
40
4.9999999999999991
210
0
220
0
230
1
100
AcDbArc
50
-194.33734313935983
51
8.7602939929433212
0
LWPOLYLINE
5
108
100
AcDbEntity
8
0
100
AcDbPolyline
90
4
70
1
43
0.0
10
8.418429787076164
20
26.645095983264362
10
2.8184297870761643
20
26.645095983264362
10
2.8184297870761643
20
21.04509598326436
10
8.418429787076164
20
21.04509598326436
0
LWPOLYLINE
5
109
100
AcDbEntity
8
0
100
AcDbPolyline
90
4
70
1
43
0.0
10
-36.118443414301673
20
42.433727108072752
10
-42.118443414301666
20
42.433727108072752
10
-42.118443414301666
20
30.433727108072752
10
-36.118443414301673
20
30.433727108072752
0
LWPOLYLINE
5
110
100
AcDbEntity
8
0
100
AcDbPolyline
90
4
70
1
43
0.0
10
-68.418429787076121
20
3.3549040167356692
10
-62.81842978707612
20
3.3549040167356647
10
-62.81842978707612
20
8.9549040167356608
10
-68.418429787076121
20
8.9549040167356644
0
LINE
5
111
100
AcDbEntity
8
0
100
AcDbLine
10
-61.992375470840813
20
51.099486439209876
30
0
11
-64.941670817047196
21
70.238495216073048
31
0
0
ARC
5
112
100
AcDbEntity
8
0
100
AcDbCircle
10
-59.999999999999964
20
71
30
0
40
19.999999999999986
210
-0
220
0
230
1
100
AcDbArc
50
-32.978870375788993
51
174.31784096366923
0
SPLINE
5
113
100
AcDbEntity
8
0
100
AcDbSpline
70
4
71
5
72
36
73
30
74
0
42
0.000000001
43
0.0000000001
44
0.0000000001
40
0
40
0
40
0
40
0
40
0
40
0
40
0.040000000000000001
40
0.080000000000000002
40
0.12
40
0.16
40
0.20000000000000001
40
0.24000000000000002
40
0.28000000000000003
40
0.32000000000000001
40
0.35999999999999999
40
0.39999999999999997
40
0.43999999999999995
40
0.47999999999999993
40
0.51999999999999991
40
0.55999999999999994
40
0.59999999999999998
40
0.64000000000000001
40
0.68000000000000005
40
0.72000000000000008
40
0.76000000000000012
40
0.80000000000000016
40
0.84000000000000019
40
0.88000000000000023
40
0.92000000000000026
40
0.9600000000000003
40
1
40
1
40
1
40
1
40
1
40
1
41
1
41
1
41
1
41
1
41
1
41
1
41
1
41
1
41
1
41
1
41
1
41
1
41
1
41
1
41
1
41
1
41
1
41
1
41
1
41
1
41
1
41
1
41
1
41
1
41
1
41
1
41
1
41
1
41
1
41
1
10
-32.150382980140364
20
-18.846577572460276
30
0
10
-32.46517639976539
20
-18.060551916758207
30
0
10
-33.069082951095382
20
-16.502338510163103
30
0
10
-33.897893778849138
20
-14.206480773963614
30
0
10
-34.861418763572601
20
-11.247375350696684
30
0
10
-35.900638755523921
20
-7.8064753990882689
30
0
10
-36.864003998228995
20
-4.7093499849928779
30
0
10
-37.834792155005999
20
-1.9730187865323967
30
0
10
-38.874568956710483
20
0.46751207587420124
30
0
10
-39.985398372995768
20
2.9055039412255734
30
0
10
-41.153606174914174
20
5.5028585067765885
30
0
10
-42.364054164377322
20
8.2879670666906122
30
0
10
-43.600824491621111
20
11.220033724864226
30
0
10
-44.853306592125818
20
14.219340644907223
30
0
10
-46.121328069142635
20
17.217535968037836
30
0
10
-47.415992406003149
20
20.178338751211836
30
0
10
-48.751890041777514
20
23.084903629677523
30
0
10
-50.141405522171929
20
25.934820472430022
30
0
10
-51.588344417270761
20
28.732374026791888
30
0
10
-53.081297340666616
20
31.481819825363605
30
0
10
-54.588264794459278
20
34.181079370462086
30
0
10
-56.065055496241989
20
36.824231228323917
30
0
10
-57.462470759700437
20
39.403176800124385
30
0
10
-58.733685546222667
20
41.909572972502652
30
0
10
-59.842046900890409
20
44.336784897453725
30
0
10
-60.767459267240149
20
46.681539516053462
30
0
10
-61.354259984972728
20
48.490455674113619
30
0
10
-61.707147896459432
20
49.809552175746845
30
0
10
-61.903743359805858
20
50.672285684466715
30
0
10
-61.992375470840813
20
51.099486439209876
30
0
0
ARC
5
114
100
AcDbEntity
8
0
100
AcDbCircle
10
-59.999999999999964
20
71
30
0
40
5.0000000000000044
210
-0
220
0
230
1
100
AcDbArc
50
-14.337343139359769
51
188.76029399294322
0
CIRCLE
5
115
100
AcDbEntity
8
0
100
AcDbCircle
10
-59.999999999999964
20
-29.999999999999957
30
0
40
14.999999999999996
210
0
220
0
230
1
0
ARC
5
116
100
AcDbEntity
8
0
100
AcDbCircle
10
-59.999999999999964
20
-29.999999999999957
30
0
40
30.000000000000004
210
0
220
0
230
1
100
AcDbArc
50
-185.6821590363308
51
21.825482588347718
0
LINE
5
117
100
AcDbEntity
8
0
100
AcDbLine
10
-89.852593447728054
20
-27.029702970296974
30
0
11
-79.901728965152017
21
72.980198019801989
31
0
0
SPLINE
5
118
100
AcDbEntity
8
0
100
AcDbSpline
70
4
71
5
72
31
73
25
74
0
42
0.000000001
43
0.0000000001
44
0.0000000001
40
0
40
0
40
0
40
0
40
0
40
0
40
0.050000000000000003
40
0.10000000000000001
40
0.15000000000000002
40
0.20000000000000001
40
0.25
40
0.29999999999999999
40
0.34999999999999998
40
0.39999999999999997
40
0.44999999999999996
40
0.49999999999999994
40
0.54999999999999993
40
0.59999999999999998
40
0.65000000000000002
40
0.70000000000000007
40
0.75000000000000011
40
0.80000000000000016
40
0.8500000000000002
40
0.90000000000000024
40
0.95000000000000029
40
1
40
1
40
1
40
1
40
1
40
1
41
1
41
1
41
1
41
1
41
1
41
1
41
1
41
1
41
1
41
1
41
1
41
1
41
1
41
1
41
1
41
1
41
1
41
1
41
1
41
1
41
1
41
1
41
1
41
1
41
1
10
-43.22257272563423
20
60.113405764272812
30
0
10
-43.408839627210099
20
59.947836464345599
30
0
10
-43.78478899405988
20
59.63316020932055
30
0
10
-44.35895918372988
20
59.210532615235493
30
0
10
-45.145100190404499
20
58.74620789052458
30
0
10
-46.160637536210714
20
58.333158283532583
30
0
10
-47.203917389836583
20
58.089512020986717
30
0
10
-48.263806028858973
20
58.016045262592478
30
0
10
-49.32127933038953
20
58.111013450156108
30
0
10
-50.34604128695441
20
58.368342144921968
30
0
10
-51.30128248089143
20
58.777998180155492
30
0
10
-52.150801222279803
20
59.326914548304195
30
0
10
-52.86556420678815
20
59.999501513500981
30
0
10
-53.43027923785958
20
60.778159072443849
30
0
10
-53.851415661914089
20
61.64352062638352
30
0
10
-54.151463982086874
20
62.575744110784441
30
0
10
-54.361635512566792
20
63.555878082786521
30
0
10
-54.515529593258179
20
64.567107371952801
30
0
10
-54.642339808480116
20
65.596081917190929
30
0
10
-54.760969525297924
20
66.63404591885174
30
0
10
-54.88264235722653
20
67.675760247338644
30
0
10
-54.986771322066105
20
68.510053286817964
30
0
10
-55.069468211639474
20
69.135900726029561
30
0
10
-55.126634987556969
20
69.553189044576342
30
0
10
-55.155727293274253
20
69.761847366891928
30
0
0
LWPOLYLINE
5
119
100
AcDbEntity
8
0
100
AcDbPolyline
90
4
70
1
43
0.0
10
-28.206433812463381
20
20.190530302904698
10
-34.206433812463374
20
20.190530302904698
10
-34.206433812463374
20
8.1905303029046941
10
-28.206433812463381
20
8.1905303029046941
0
LWPOLYLINE
5
120
100
AcDbEntity
8
0
100
AcDbPolyline
90
4
70
1
43
0.0
10
-73.418429787076121
20
38.954904016735668
10
-73.418429787076121
20
33.354904016735667
10
-67.818429787076127
20
33.354904016735667
10
-67.818429787076127
20
38.954904016735661
0
LWPOLYLINE
5
121
100
AcDbEntity
8
0
100
AcDbPolyline
90
4
70
1
43
0.0
10
7.8184297870761643
20
-8.9549040167356395
10
13.418429787076162
20
-8.9549040167356395
10
13.418429787076162
20
-3.3549040167356381
10
7.8184297870761643
20
-3.3549040167356381
0
ENDSEC
0
SECTION
2
OBJECTS
0
DICTIONARY
5
C
100
AcDbDictionary
3
ACAD_GROUP
350
D
3
ACAD_MLINESTYLE
350
17
0
DICTIONARY
5
D
100
AcDbDictionary
0
DICTIONARY
5
1A
330
C
100
AcDbDictionary
0
DICTIONARY
5
17
100
AcDbDictionary
0
ENDSEC
0
EOF
