0
SECTION
2
HEADER
9
$INSUNITS
70
4
9
$ACADVER
1
AC1014
9
$HANDSEED
5
FFFF
0
ENDSEC
0
SECTION
2
TABLES
0
TABLE
2
VPORT
5
8
100
AcDbSymbolTable
0
ENDTAB
0
TABLE
2
LTYPE
5
5
100
AcDbSymbolTable
0
LTYPE
5
14
100
AcDbSymbolTableRecord
100
AcDbLinetypeTableRecord
2
BYBLOCK
70
0
0
LTYPE
5
15
100
AcDbSymbolTableRecord
100
AcDbLinetypeTableRecord
2
BYLAYER
70
0
0
ENDTAB
0
TABLE
2
LAYER
5
2
100
AcDbSymbolTable
70
2
0
LAYER
5
50
100
AcDbSymbolTableRecord
100
AcDbLayerTableRecord
2
0
70
0
6
CONTINUOUS
0
ENDTAB
0
TABLE
2
STYLE
5
3
100
AcDbSymbolTable
70
1
0
STYLE
5
11
100
AcDbSymbolTableRecord
100
AcDbTextStyleTableRecord
2
STANDARD
70
0
0
ENDTAB
0
TABLE
2
VIEW
5
6
100
AcDbSymbolTable
70
0
0
ENDTAB
0
TABLE
2
UCS
5
7
100
AcDbSymbolTable
70
0
0
ENDTAB
0
TABLE
2
APPID
5
9
100
AcDbSymbolTable
70
2
0
APPID
5
12
100
AcDbSymbolTableRecord
100
AcDbRegAppTableRecord
2
ACAD
70
0
0
ENDTAB
0
TABLE
2
DIMSTYLE
5
A
100
AcDbSymbolTable
70
1
0
ENDTAB
0
TABLE
2
BLOCK_RECORD
5
1
100
AcDbSymbolTable
70
1
0
BLOCK_RECORD
5
1F
100
AcDbSymbolTableRecord
100
AcDbBlockTableRecord
2
*MODEL_SPACE
0
BLOCK_RECORD
5
1B
100
AcDbSymbolTableRecord
100
AcDbBlockTableRecord
2
*PAPER_SPACE
0
ENDTAB
0
ENDSEC
0
SECTION
2
BLOCKS
0
BLOCK
5
20
100
AcDbEntity
100
AcDbBlockBegin
2
*MODEL_SPACE
0
ENDBLK
5
21
100
AcDbEntity
100
AcDbBlockEnd
0
BLOCK
5
1C
100
AcDbEntity
100
AcDbBlockBegin
2
*PAPER_SPACE
0
ENDBLK
5
1D
100
AcDbEntity
100
AcDbBlockEnd
0
ENDSEC
0
SECTION
2
ENTITIES
0
LINE
5
100
100
AcDbEntity
8
0
100
AcDbLine
10
0
20
0
30
0
11
125.00000000000003
21
450
31
0
0
LINE
5
101
100
AcDbEntity
8
0
100
AcDbLine
10
500
20
3.0616169978683831e-14
30
0
11
375
21
450
31
0
0
LINE
5
102
100
AcDbEntity
8
0
100
AcDbLine
10
149.11539358963725
20
350
30
0
11
350.88460641036278
21
350
31
0
0
LINE
5
103
100
AcDbEntity
8
0
100
AcDbLine
10
400
20
173.18458307730592
30
0
11
350.88460641036278
21
350
31
0
0
LINE
5
104
100
AcDbEntity
8
0
100
AcDbLine
10
0
20
0
30
0
11
100
21
6.1232339957367661e-15
31
0
0
LINE
5
105
100
AcDbEntity
8
0
100
AcDbLine
10
500
20
3.0616169978683831e-14
30
0
11
400
21
2.0359155134543097e-14
31
0
0
LINE
5
106
100
AcDbEntity
8
0
100
AcDbLine
10
99.999999999999986
20
173.18458307730589
30
0
11
149.11539358963725
21
350
31
0
0
LINE
5
107
100
AcDbEntity
8
0
100
AcDbLine
10
1015.114129316622
20
173.18458307730592
30
0
11
965.99873572698471
21
350
31
0
0
LINE
5
108
100
AcDbEntity
8
0
100
AcDbLine
10
1115.114129316622
20
3.0616169978683831e-14
30
0
11
1015.114129316622
21
2.0359155134543097e-14
31
0
0
LINE
5
109
100
AcDbEntity
8
0
100
AcDbLine
10
715.11412931662176
20
173.18458307730589
30
0
11
764.22952290625915
21
350
31
0
0
LINE
5
110
100
AcDbEntity
8
0
100
AcDbLine
10
615.11412931662187
20
0
30
0
11
715.11412931662198
21
6.1232339957367661e-15
31
0
0
LINE
5
111
100
AcDbEntity
8
0
100
AcDbLine
10
615.11412931662187
20
0
30
0
11
740.11412931662198
21
450
31
0
0
LINE
5
112
100
AcDbEntity
8
0
100
AcDbLine
10
1115.114129316622
20
3.0616169978683831e-14
30
0
11
990.11412931662198
21
450
31
0
0
LINE
5
113
100
AcDbEntity
8
0
100
AcDbLine
10
257.5
20
457.5
30
0
11
257.5
21
399.75
31
0
0
LINE
5
114
100
AcDbEntity
8
0
100
AcDbLine
10
242.5
20
457.5
30
0
11
242.10000000000002
21
399.75
31
0
0
LINE
5
115
100
AcDbEntity
8
0
100
AcDbLine
10
815.11412931662198
20
457.5
30
0
11
915.11412931662198
21
457.5
31
0
0
LINE
5
116
100
AcDbEntity
8
0
100
AcDbLine
10
300
20
457.5
30
0
11
300
21
450
31
0
0
LINE
5
117
100
AcDbEntity
8
0
100
AcDbLine
10
200
20
457.5
30
0
11
200
21
450
31
0
0
LINE
5
118
100
AcDbEntity
8
0
100
AcDbLine
10
815.11412931662198
20
457.5
30
0
11
815.11412931662198
21
450
31
0
0
LINE
5
119
100
AcDbEntity
8
0
100
AcDbLine
10
242.10000000000002
20
399.75
30
0
11
257.5
21
399.75
31
0
0
LINE
5
120
100
AcDbEntity
8
0
100
AcDbLine
10
200
20
457.5
30
0
11
242.5
21
457.5
31
0
0
LINE
5
121
100
AcDbEntity
8
0
100
AcDbLine
10
257.5
20
457.5
30
0
11
300
21
457.5
31
0
0
LINE
5
122
100
AcDbEntity
8
0
100
AcDbLine
10
125.00000000000003
20
450
30
0
11
194
21
450
31
0
0
LINE
5
123
100
AcDbEntity
8
0
100
AcDbLine
10
306
20
450
30
0
11
375
21
450
31
0
0
LINE
5
124
100
AcDbEntity
8
0
100
AcDbLine
10
857.41412931662194
20
407.75
30
0
11
857.41412931662194
21
350
31
0
0
LINE
5
125
100
AcDbEntity
8
0
100
AcDbLine
10
872.81412931662192
20
407.75
30
0
11
872.81412931662192
21
350
31
0
0
LINE
5
126
100
AcDbEntity
8
0
100
AcDbLine
10
857.41412931662194
20
407.75
30
0
11
872.81412931662192
21
407.75
31
0
0
LINE
5
127
100
AcDbEntity
8
0
100
AcDbLine
10
764.22952290625915
20
350
30
0
11
857.41412931662194
21
350
31
0
0
LINE
5
128
100
AcDbEntity
8
0
100
AcDbLine
10
872.81412931662192
20
350
30
0
11
965.99873572698471
21
350
31
0
0
ARC
5
129
100
AcDbEntity
8
0
100
AcDbCircle
10
303
20
450
30
0
40
3.0000000000000071
210
0
220
0
230
1
100
AcDbArc
50
-180
51
0
0
ARC
5
130
100
AcDbEntity
8
0
100
AcDbCircle
10
197
20
450
30
0
40
3.0000000000000071
210
0
220
0
230
1
100
AcDbArc
50
-180
51
0
0
LINE
5
131
100
AcDbEntity
8
0
100
AcDbLine
10
915.11412931662198
20
457.5
30
0
11
915.11412931662198
21
450
31
0
0
LINE
5
132
100
AcDbEntity
8
0
100
AcDbLine
10
740.11412931662198
20
450
30
0
11
809.11412931662198
21
450
31
0
0
LINE
5
133
100
AcDbEntity
8
0
100
AcDbLine
10
921.11412931662187
20
450
30
0
11
990.11412931662198
21
450
31
0
0
ARC
5
134
100
AcDbEntity
8
0
100
AcDbCircle
10
812.11412931662198
20
450
30
0
40
2.9999999999999716
210
0
220
0
230
1
100
AcDbArc
50
-180
51
0
0
ARC
5
135
100
AcDbEntity
8
0
100
AcDbCircle
10
918.11412931662187
20
450
30
0
40
2.9999999999999716
210
0
220
0
230
1
100
AcDbArc
50
-180
51
0
0
LINE
5
136
100
AcDbEntity
8
0
100
AcDbLine
10
259.24991456132739
20
-246.69999999999999
30
0
11
259.24991456132733
21
-292.39999999999998
31
0
0
LINE
5
137
100
AcDbEntity
8
0
100
AcDbLine
10
244.04991456132731
20
-246.70000000000002
30
0
11
244.04991456132731
21
-292.39999999999998
31
0
0
LINE
5
138
100
AcDbEntity
8
0
100
AcDbLine
10
251.64991456132736
20
-307.59999999999997
30
0
11
304.94991456132732
21
-307.59999999999997
31
0
0
LINE
5
139
100
AcDbEntity
8
0
100
AcDbLine
10
259.24991456132733
20
-292.39999999999998
30
0
11
304.94991456132732
21
-292.39999999999998
31
0
0
LINE
5
140
100
AcDbEntity
8
0
100
AcDbLine
10
198.34991456132735
20
-292.39999999999998
30
0
11
244.04991456132731
21
-292.39999999999998
31
0
0
LINE
5
141
100
AcDbEntity
8
0
100
AcDbLine
10
198.34991456132735
20
-307.60000000000002
30
0
11
244.04991456132731
21
-307.60000000000002
31
0
0
LINE
5
142
100
AcDbEntity
8
0
100
AcDbLine
10
244.04991456132731
20
-307.60000000000002
30
0
11
244.04991456132731
21
-353.29999999999995
31
0
0
LINE
5
143
100
AcDbEntity
8
0
100
AcDbLine
10
259.24991456132733
20
-307.59999999999997
30
0
11
259.24991456132733
21
-353.29999999999995
31
0
0
LINE
5
144
100
AcDbEntity
8
0
100
AcDbLine
10
198.34991456132735
20
-292.39999999999998
30
0
11
198.34991456132735
21
-307.60000000000002
31
0
0
LINE
5
145
100
AcDbEntity
8
0
100
AcDbLine
10
304.94991456132732
20
-292.39999999999998
30
0
11
304.94991456132732
21
-307.59999999999997
31
0
0
LINE
5
146
100
AcDbEntity
8
0
100
AcDbLine
10
259.24991456132733
20
-353.29999999999995
30
0
11
244.04991456132731
21
-353.29999999999995
31
0
0
LINE
5
147
100
AcDbEntity
8
0
100
AcDbLine
10
244.04991456132731
20
-246.70000000000002
30
0
11
259.24991456132739
21
-246.69999999999999
31
0
0
LINE
5
148
100
AcDbEntity
8
0
100
AcDbLine
10
71.800000000000011
20
99.999999999999972
30
0
11
100
21
100
31
0
0
LINE
5
149
100
AcDbEntity
8
0
100
AcDbLine
10
428.19999999999999
20
100
30
0
11
400
21
100.00000000000001
31
0
0
LINE
5
150
100
AcDbEntity
8
0
100
AcDbLine
10
686.91412931662194
20
100
30
0
11
715.11412931662198
21
100
31
0
0
LINE
5
151
100
AcDbEntity
8
0
100
AcDbLine
10
1043.3141293166218
20
100
30
0
11
1015.114129316622
21
100.00000000000001
31
0
0
LINE
5
152
100
AcDbEntity
8
0
100
AcDbLine
10
71.800000000000011
20
84.800000000000011
30
0
11
100
21
84.800000000000011
31
0
0
LINE
5
153
100
AcDbEntity
8
0
100
AcDbLine
10
428.19999999999999
20
84.800000000000026
30
0
11
400
21
84.800000000000026
31
0
0
LINE
5
154
100
AcDbEntity
8
0
100
AcDbLine
10
686.91412931662194
20
84.800000000000011
30
0
11
715.11412931662198
21
84.800000000000011
31
0
0
LINE
5
155
100
AcDbEntity
8
0
100
AcDbLine
10
1043.3141293166218
20
84.799999999999969
30
0
11
1015.114129316622
21
84.800000000000026
31
0
0
LINE
5
156
100
AcDbEntity
8
0
100
AcDbLine
10
1043.3141293166218
20
100
30
0
11
1043.3141293166218
21
84.799999999999969
31
0
0
LINE
5
157
100
AcDbEntity
8
0
100
AcDbLine
10
686.91412931662194
20
100
30
0
11
686.91412931662194
21
84.800000000000011
31
0
0
LINE
5
158
100
AcDbEntity
8
0
100
AcDbLine
10
428.19999999999999
20
100
30
0
11
428.19999999999999
21
84.800000000000026
31
0
0
LINE
5
159
100
AcDbEntity
8
0
100
AcDbLine
10
400
20
2.0359155134543097e-14
30
0
11
400
21
84.800000000000026
31
0
0
LINE
5
160
100
AcDbEntity
8
0
100
AcDbLine
10
400
20
100.00000000000001
30
0
11
400
21
173.18458307730592
31
0
0
LINE
5
161
100
AcDbEntity
8
0
100
AcDbLine
10
100
20
6.1232339957367661e-15
30
0
11
100
21
84.800000000000011
31
0
0
LINE
5
162
100
AcDbEntity
8
0
100
AcDbLine
10
100
20
100
30
0
11
99.999999999999986
21
173.18458307730589
31
0
0
LINE
5
163
100
AcDbEntity
8
0
100
AcDbLine
10
71.800000000000011
20
99.999999999999972
30
0
11
71.800000000000011
21
84.800000000000011
31
0
0
LINE
5
164
100
AcDbEntity
8
0
100
AcDbLine
10
715.11412931662198
20
6.1232339957367661e-15
30
0
11
715.11412931662198
21
84.800000000000011
31
0
0
LINE
5
165
100
AcDbEntity
8
0
100
AcDbLine
10
715.11412931662198
20
100
30
0
11
715.11412931662176
21
173.18458307730589
31
0
0
LINE
5
166
100
AcDbEntity
8
0
100
AcDbLine
10
1015.114129316622
20
2.0359155134543097e-14
30
0
11
1015.114129316622
21
84.800000000000026
31
0
0
LINE
5
167
100
AcDbEntity
8
0
100
AcDbLine
10
1015.114129316622
20
100.00000000000001
30
0
11
1015.114129316622
21
173.18458307730592
31
0
0
LWPOLYLINE
5
168
100
AcDbEntity
8
0
100
AcDbPolyline
90
16
70
1
43
0.0
10
578.20000000000005
20
-257.60000000000002
10
578.20000000000005
20
-242.39999999999998
10
550.14445216607078
20
-242.39999999999998
42
-0.39211957985113266
10
742.39999999999998
20
-50.144452166070757
10
742.39999999999998
20
-78.200000000000003
10
757.60000000000002
20
-78.200000000000003
10
757.60000000000002
20
-50.144452166070721
42
-0.39211957985113266
10
949.85554783392922
20
-242.39999999999998
10
921.80000000000007
20
-242.39999999999998
10
921.80000000000007
20
-257.60000000000002
10
949.85554783392922
20
-257.60000000000002
42
-0.39211957985113266
10
757.60000000000002
20
-449.85554783392928
10
757.60000000000002
20
-421.80000000000001
10
742.39999999999998
20
-421.80000000000001
10
742.39999999999998
20
-449.85554783392928
42
-0.39211957985113266
10
550.14445216607078
20
-257.60000000000002
0
LWPOLYLINE
5
169
100
AcDbEntity
8
0
100
AcDbPolyline
90
16
70
1
43
0.0
10
-28.350085438672643
20
-49.999999999999567
10
251.64991456132725
20
-50
42
-0.99999999999999989
10
251.64991456132731
20
-550
10
-28.350085438672679
20
-550
10
-28.350085438672661
20
-315.99999999999977
42
0.74205596918081929
10
-26.685984849996952
20
-310.50384911698626
10
-31.185984849996956
20
-307.50384911698626
42
0.59902153833852645
10
-35.850085438672664
20
-309.99999999999977
10
-35.850085438672664
20
-329.99999999999977
10
-43.350085438672664
20
-329.99999999999977
10
-43.350085438672664
20
-269.99999999999977
10
-35.850085438672664
20
-269.99999999999977
10
-35.850085438672664
20
-289.99999999999977
42
0.59902153833852412
10
-31.185984849996995
20
-292.49615088301334
10
-26.685984849996956
20
-289.49615088301329
42
0.7420559691808174
10
-28.350085438672661
20
-283.99999999999977
0
LINE
5
170
100
AcDbEntity
8
0
100
AcDbLine
10
-88.346115578335429
20
-50.307275335674802
30
0
11
-588.34567212588991
21
-49.641353267718273
31
0
0
LINE
5
171
100
AcDbEntity
8
0
100
AcDbLine
10
-88.420874081495114
20
-550.30726974684148
30
0
11
-588.42086849266127
21
-550.23251124368176
31
0
0
ARC
5
172
100
AcDbEntity
8
0
100
AcDbCircle
10
-588.17892682006652
20
-299.93696597436883
30
0
40
250.29566824896233
210
0
220
0
230
1
100
AcDbArc
50
90.038170069225814
51
269.94461654363187
0
LINE
5
173
100
AcDbEntity
8
0
100
AcDbLine
10
-88.346115578335429
20
-50.307275335674802
30
0
11
-88.420874081495114
21
-550.30726974684148
31
0
0
LINE
5
174
100
AcDbEntity
8
0
100
AcDbLine
10
-31.185984849996995
20
-142.49615088301334
30
0
11
-26.685984849996956
21
-139.49615088301329
31
0
0
LINE
5
175
100
AcDbEntity
8
0
100
AcDbLine
10
-43.350085438672664
20
-119.99999999999979
30
0
11
-43.350085438672664
21
-179.99999999999977
31
0
0
LINE
5
176
100
AcDbEntity
8
0
100
AcDbLine
10
-43.350085438672664
20
-179.99999999999977
30
0
11
-35.850085438672664
21
-179.99999999999977
31
0
0
ARC
5
177
100
AcDbEntity
8
0
100
AcDbCircle
10
-28.350085438672661
20
-162.9999999999998
30
0
40
3.0000000000000071
210
0
220
0
230
1
100
AcDbArc
50
-90
51
56.309932474019988
0
LINE
5
178
100
AcDbEntity
8
0
100
AcDbLine
10
-35.850085438672664
20
-119.99999999999979
30
0
11
-35.850085438672664
21
-139.99999999999977
31
0
0
ARC
5
179
100
AcDbEntity
8
0
100
AcDbCircle
10
-32.850085438672664
20
-159.99999999999977
30
0
40
3.00000000000002
210
0
220
-0
230
1
100
AcDbArc
50
56.309932474019689
51
180
0
LINE
5
180
100
AcDbEntity
8
0
100
AcDbLine
10
-43.350085438672664
20
-119.99999999999979
30
0
11
-35.850085438672664
21
-119.99999999999979
31
0
0
ARC
5
181
100
AcDbEntity
8
0
100
AcDbCircle
10
-28.350085438672661
20
-136.99999999999977
30
0
40
2.9999999999999876
210
0
220
0
230
1
100
AcDbArc
50
-56.309932474019732
51
90
0
ARC
5
182
100
AcDbEntity
8
0
100
AcDbCircle
10
-32.850085438672679
20
-139.99999999999977
30
0
40
2.9999999999999849
210
0
220
0
230
1
100
AcDbArc
50
180
51
303.69006752597932
0
LINE
5
183
100
AcDbEntity
8
0
100
AcDbLine
10
-35.850085438672664
20
-159.99999999999977
30
0
11
-35.850085438672664
21
-179.99999999999977
31
0
0
LINE
5
184
100
AcDbEntity
8
0
100
AcDbLine
10
-31.185984849996956
20
-157.50384911698626
30
0
11
-26.685984849996952
21
-160.50384911698626
31
0
0
LINE
5
185
100
AcDbEntity
8
0
100
AcDbLine
10
-35.850085438672664
20
-419.99999999999977
30
0
11
-35.850085438672664
21
-439.99999999999977
31
0
0
LINE
5
186
100
AcDbEntity
8
0
100
AcDbLine
10
-43.350085438672664
20
-419.99999999999977
30
0
11
-43.350085438672664
21
-479.99999999999977
31
0
0
ARC
5
187
100
AcDbEntity
8
0
100
AcDbCircle
10
-28.350085438672661
20
-462.99999999999983
30
0
40
2.9999999999999716
210
0
220
0
230
1
100
AcDbArc
50
-90
51
56.309932474019689
0
ARC
5
188
100
AcDbEntity
8
0
100
AcDbCircle
10
-28.350085438672661
20
-436.99999999999977
30
0
40
3.0000000000000178
210
0
220
0
230
1
100
AcDbArc
50
-56.309932474019732
51
90
0
LINE
5
189
100
AcDbEntity
8
0
100
AcDbLine
10
-43.350085438672664
20
-479.99999999999977
30
0
11
-35.850085438672664
21
-479.99999999999977
31
0
0
ARC
5
190
100
AcDbEntity
8
0
100
AcDbCircle
10
-32.850085438672664
20
-459.99999999999977
30
0
40
3.00000000000002
210
0
220
-0
230
1
100
AcDbArc
50
56.309932474019689
51
180
0
LINE
5
191
100
AcDbEntity
8
0
100
AcDbLine
10
-35.850085438672664
20
-459.99999999999977
30
0
11
-35.850085438672664
21
-479.99999999999977
31
0
0
LINE
5
192
100
AcDbEntity
8
0
100
AcDbLine
10
-31.185984849996956
20
-457.50384911698626
30
0
11
-26.685984849996952
21
-460.50384911698632
31
0
0
LINE
5
193
100
AcDbEntity
8
0
100
AcDbLine
10
-31.185984849996995
20
-442.49615088301334
30
0
11
-26.685984849996956
21
-439.49615088301329
31
0
0
ARC
5
194
100
AcDbEntity
8
0
100
AcDbCircle
10
-32.850085438672679
20
-439.99999999999977
30
0
40
2.9999999999999849
210
0
220
0
230
1
100
AcDbArc
50
180
51
303.69006752597932
0
LINE
5
195
100
AcDbEntity
8
0
100
AcDbLine
10
-43.350085438672664
20
-419.99999999999977
30
0
11
-35.850085438672664
21
-419.99999999999977
31
0
0
LWPOLYLINE
5
196
100
AcDbEntity
8
0
100
AcDbPolyline
90
4
70
1
43
0.0
10
-148.34652846822064
20
-90.000000000000014
10
-188.34652846822064
20
-90.000000000000014
10
-188.34652846822064
20
-250
10
-148.34652846822064
20
-250
0
LWPOLYLINE
5
197
100
AcDbEntity
8
0
100
AcDbPolyline
90
4
70
1
43
0.0
10
-148.35008543867272
20
-349.99999999999977
10
-188.35008543867269
20
-349.99999999999977
10
-188.35008543867269
20
-510
10
-148.35008543867272
20
-510
0
SPLINE
5
198
100
AcDbEntity
8
0
100
AcDbSpline
70
0
71
3
72
35
73
31
74
0
42
0.000000001
43
0.0000000001
44
0.0000000001
40
0.29451671996823492
40
0.29451671996823492
40
0.29451671996823492
40
0.29451671996823492
40
0.30503238227689011
40
0.30503238227689011
40
0.30503238227689011
40
0.32103699228408095
40
0.32103699228408095
40
0.32103699228408095
40
0.34001023837938166
40
0.34001023837938166
40
0.34001023837938166
40
0.35857569984892901
40
0.35857569984892901
40
0.35857569984892901
40
0.37159676410774578
40
0.37159676410774578
40
0.37159676410774578
40
0.38302535079049493
40
0.38302535079049493
40
0.38302535079049493
40
0.39433371130926509
40
0.39433371130926509
40
0.39433371130926509
40
0.40782105419354092
40
0.40782105419354092
40
0.40782105419354092
40
0.41807429070422186
40
0.41807429070422186
40
0.41807429070422186
40
0.41933663214973527
40
0.41933663214973527
40
0.41933663214973527
40
0.41933663214973527
10
-673.28176826591061
20
-131.16170773222723
30
0
10
-671.56029800765691
20
-131.80894017573871
30
0
10
-668.9632381047752
20
-133.06067073024767
30
0
10
-665.82693954044942
20
-134.82181473868116
30
0
10
-661.05356113452319
20
-137.5022377300395
30
0
10
-655.03684548103456
20
-141.3211319451604
30
0
10
-648.16910837214414
20
-145.32270520528971
30
0
10
-640.02750003390565
20
-150.06651553235773
30
0
10
-630.6141561907192
20
-155.03314566548005
30
0
10
-620.40394934513733
20
-158.6872409153691
30
0
10
-610.41318651859558
20
-162.26280011209894
30
0
10
-599.66190182644448
20
-164.58575704347848
30
0
10
-588.89173497732725
20
-164.62393276240897
30
0
10
-581.33797527948366
20
-164.6507076686043
30
0
10
-573.76387483052258
20
-163.54608449619911
30
0
10
-566.64811337036713
20
-161.09382187186156
30
0
10
-560.4026103112692
20
-158.94147123338513
30
0
10
-554.5360518037744
20
-155.73237300836507
30
0
10
-549.49187839294177
20
-151.70664245850207
30
0
10
-544.50076855300063
20
-147.72326168947012
30
0
10
-540.34094308766487
20
-142.96140996268414
30
0
10
-537.09612482707985
20
-138.03229756005959
30
0
10
-533.22606988807911
20
-132.15340565711873
30
0
10
-530.64848193761395
20
-126.06771399482967
30
0
10
-528.77225599612927
20
-120.90672920360268
30
0
10
-527.3459269934059
20
-116.98328793377547
30
0
10
-526.28219221621282
20
-113.57397783154391
30
0
10
-525.41316390104862
20
-111.15141264610838
30
0
10
-525.30617227373034
20
-110.8531551705447
30
0
10
-525.20264667683182
20
-110.56995608100429
30
0
10
-525.1029003762925
20
-110.30299033482927
30
0
0
SPLINE
5
199
100
AcDbEntity
8
0
100
AcDbSpline
70
0
71
3
72
26
73
22
74
0
42
0.000000001
43
0.0000000001
44
0.0000000001
40
0.45503744111848332
40
0.45503744111848332
40
0.45503744111848332
40
0.45503744111848332
40
0.46345091835638536
40
0.46345091835638536
40
0.46345091835638536
40
0.47586388459936479
40
0.47586388459936479
40
0.47586388459936479
40
0.49219788266113224
40
0.49219788266113224
40
0.49219788266113224
40
0.50467538523401889
40
0.50467538523401889
40
0.50467538523401889
40
0.51517788083803284
40
0.51517788083803284
40
0.51517788083803284
40
0.52438620794084445
40
0.52438620794084445
40
0.52438620794084445
40
0.52787149639614261
40
0.52787149639614261
40
0.52787149639614261
40
0.52787149639614261
10
-525.1029003762925
20
-110.30299033482932
30
0
10
-523.44101242408715
20
-110.53118301991051
30
0
10
-521.29250302912976
20
-110.9562252919533
30
0
10
-518.94822361992942
20
-111.53695740443636
30
0
10
-515.48955126036969
20
-112.39375036941783
30
0
10
-511.59690444565376
20
-113.57073037436419
30
0
10
-507.53950237495576
20
-115.01525982549671
30
0
10
-502.20044027961848
20
-116.9160900374785
30
0
10
-496.51656386632425
20
-119.29652498649651
30
0
10
-490.53622580554304
20
-122.35845669965869
30
0
10
-485.96785967387376
20
-124.69745910951025
30
0
10
-481.21184789084907
20
-127.44886750507811
30
0
10
-476.48141916941847
20
-130.61743312549689
30
0
10
-472.49974843349059
20
-133.28446094657625
30
0
10
-468.53346258468764
20
-136.2552705783983
30
0
10
-464.94137775307189
20
-139.34238231867363
30
0
10
-461.79192705509445
20
-142.0490851614266
30
0
10
-458.93165454835025
20
-144.86291328049293
30
0
10
-456.82097777343364
20
-147.33048363052197
30
0
10
-456.02210113554395
20
-148.26444203117069
30
0
10
-455.33267105583428
20
-149.14400015716819
30
0
10
-454.77559247492525
20
-149.92245236971513
30
0
0
ARC
5
200
100
AcDbEntity
8
0
100
AcDbCircle
10
-588.17892682006652
20
-299.93696597436883
30
0
40
210.39159517768195
210
0
220
0
230
1
100
AcDbArc
50
151.9125901349453
51
166.28248961577049
0
SPLINE
5
201
100
AcDbEntity
8
0
100
AcDbSpline
70
0
71
3
72
14
73
10
74
0
42
0.000000001
43
0.0000000001
44
0.0000000001
40
0.012686601008171929
40
0.012686601008171929
40
0.012686601008171929
40
0.012686601008171929
40
0.016691424327586208
40
0.016691424327586208
40
0.016691424327586208
40
0.030291067726568113
40
0.030291067726568113
40
0.030291067726568113
40
0.040114223579371264
40
0.040114223579371264
40
0.040114223579371264
40
0.040114223579371264
10
-773.79277632291337
20
-200.88080920402416
30
0
10
-773.37883763233106
20
-203.75691336103279
30
0
10
-772.87733416817332
20
-206.56859839769115
30
0
10
-772.28402806261261
20
-209.31775824639598
30
0
10
-770.26926965293478
20
-218.65339944882794
30
0
10
-767.16991245020108
20
-227.28992933913713
30
0
10
-762.76897512769074
20
-235.01016042959924
30
0
10
-759.59013492216911
20
-240.58655908920994
30
0
10
-755.71519284160433
20
-245.66409707445132
30
0
10
-751.2607218684667
20
-250.05320892889154
30
0
0
SPLINE
5
202
100
AcDbEntity
8
0
100
AcDbSpline
70
0
71
3
72
53
73
49
74
0
42
0.000000001
43
0.0000000001
44
0.0000000001
40
0.12223125520761943
40
0.12223125520761943
40
0.12223125520761943
40
0.12223125520761943
40
0.12487369547989309
40
0.12487369547989309
40
0.12487369547989309
40
0.13019486067780367
40
0.13019486067780367
40
0.13019486067780367
40
0.13447198344541542
40
0.13447198344541542
40
0.13447198344541542
40
0.13786485603681686
40
0.13786485603681686
40
0.13786485603681686
40
0.14112672052989483
40
0.14112672052989483
40
0.14112672052989483
40
0.14446375202459197
40
0.14446375202459197
40
0.14446375202459197
40
0.14857983390103047
40
0.14857983390103047
40
0.14857983390103047
40
0.15433689945043216
40
0.15433689945043216
40
0.15433689945043216
40
0.16210598737749876
40
0.16210598737749876
40
0.16210598737749876
40
0.17372815600319547
40
0.17372815600319547
40
0.17372815600319547
40
0.19077071623832653
40
0.19077071623832653
40
0.19077071623832653
40
0.20984373448908972
40
0.20984373448908972
40
0.20984373448908972
40
0.22469303968608059
40
0.22469303968608059
40
0.22469303968608059
40
0.23978328446099856
40
0.23978328446099856
40
0.23978328446099856
40
0.25342303685118894
40
0.25342303685118894
40
0.25342303685118894
40
0.25770904017267326
40
0.25770904017267326
40
0.25770904017267326
40
0.25770904017267326
10
-619.98312713127098
20
-250.0769325567145
30
0
10
-619.0319527420063
20
-249.44970275302123
30
0
10
-618.09593185332392
20
-248.79148094629838
30
0
10
-617.16956730270647
20
-248.09109139376019
30
0
10
-615.30411783198588
20
-246.68069489358149
30
0
10
-613.46430565223284
20
-245.1047292610337
30
0
10
-611.62533107924401
20
-243.03473060697829
30
0
10
-610.1471736226257
20
-241.37087728859939
30
0
10
-608.64670048971846
20
-239.37040420202726
30
0
10
-607.35716346969195
20
-236.74111500255015
30
0
10
-606.3342246744869
20
-234.65540370912493
30
0
10
-605.46000586772163
20
-232.14293003466611
30
0
10
-605.06690196361137
20
-229.31679784550363
30
0
10
-604.68897687731214
20
-226.59979035635223
30
0
10
-604.7990171595427
20
-223.61768144636477
30
0
10
-605.42551989121046
20
-220.86261089456889
30
0
10
-606.06645986634601
20
-218.04405199337435
30
0
10
-607.20970669573637
20
-215.5100693832587
30
0
10
-608.49233140038552
20
-213.45735884566756
30
0
10
-610.07439267534437
20
-210.92543049713993
30
0
10
-611.82590808180123
20
-209.08026650099561
30
0
10
-613.45711049146666
20
-207.63068944804218
30
0
10
-615.73863439665001
20
-205.60320059741167
30
0
10
-617.83290362088383
20
-204.28877945606817
30
0
10
-619.80855947234488
20
-203.1703825213192
30
0
10
-622.47468232467543
20
-201.66111985115037
30
0
10
-624.97103235264819
20
-200.53758606370855
30
0
10
-627.48751129973141
20
-199.45150548812808
30
0
10
-631.25203847982993
20
-197.82678303563608
30
0
10
-635.06136257162211
20
-196.32505730424401
30
0
10
-638.87993306727378
20
-194.65343490372089
30
0
10
-644.4794231263279
20
-192.2021948323696
30
0
10
-650.02914545890746
20
-189.39966640618303
30
0
10
-654.84163365763607
20
-186.04531542205709
30
0
10
-660.22748378693325
20
-182.29132560732154
30
0
10
-664.65976024133101
20
-177.90165810682268
30
0
10
-668.04743978616386
20
-172.69361666219154
30
0
10
-670.68491891030908
20
-168.63889412834141
30
0
10
-672.70828778395651
20
-164.04692178607462
30
0
10
-674.02089405364393
20
-159.15954017025223
30
0
10
-675.35479820874809
20
-154.19285762768192
30
0
10
-675.92716770824779
20
-148.93951007763189
30
0
10
-675.79964286923371
20
-144.18849181042847
30
0
10
-675.68437587034168
20
-139.89414710412939
30
0
10
-674.98097257924144
20
-136.02704472750577
30
0
10
-674.11025224878472
20
-133.33296811955844
30
0
10
-673.83664682533833
20
-132.48641160154565
30
0
10
-673.55056359748664
20
-131.75559803761584
30
0
10
-673.2817682659105
20
-131.16170773222723
30
0
0
LINE
5
203
100
AcDbEntity
8
0
100
AcDbLine
10
-751.2607218684667
20
-250.05320892889156
30
0
11
-792.56945737958381
21
-250.04574388454003
31
0
0
LINE
5
204
100
AcDbEntity
8
0
100
AcDbLine
10
-687.36157807133611
20
-250.06475636399512
30
0
11
-695.38895645634182
21
-250.06330570870568
31
0
0
SPLINE
5
205
100
AcDbEntity
8
0
100
AcDbSpline
70
0
71
3
72
35
73
31
74
0
42
0.000000001
43
0.0000000001
44
0.0000000001
40
0.55943187941123307
40
0.55943187941123307
40
0.55943187941123307
40
0.55943187941123307
40
0.56629569266901492
40
0.56629569266901492
40
0.56629569266901492
40
0.57806327452177741
40
0.57806327452177741
40
0.57806327452177741
40
0.59065266406179273
40
0.59065266406179273
40
0.59065266406179273
40
0.60344476830986171
40
0.60344476830986171
40
0.60344476830986171
40
0.6113846960434941
40
0.6113846960434941
40
0.6113846960434941
40
0.61870489446746724
40
0.61870489446746724
40
0.61870489446746724
40
0.62613268954885126
40
0.62613268954885126
40
0.62613268954885126
40
0.63427872369881833
40
0.63427872369881833
40
0.63427872369881833
40
0.64535108329955204
40
0.64535108329955204
40
0.64535108329955204
40
0.65083298387880939
40
0.65083298387880939
40
0.65083298387880939
40
0.65083298387880939
10
-454.77559247492525
20
-149.92245236971516
30
0
10
-456.43996217273326
20
-150.85486984409141
30
0
10
-458.78119381691391
20
-151.9490561772075
30
0
10
-461.58014604458629
20
-153.06571765327394
30
0
10
-466.37877593210021
20
-154.98016445244068
30
0
10
-472.49956289780812
20
-156.96174745304239
30
0
10
-479.00126442905605
20
-159.0452797903487
30
0
10
-485.95702256814883
20
-161.27431890320685
30
0
10
-493.34089627024855
20
-163.63951960739027
30
0
10
-500.41812759797062
20
-166.49308125203612
30
0
10
-507.60931670560461
20
-169.39259102735733
30
0
10
-514.52572339400353
20
-172.77316213419797
30
0
10
-520.72342137372084
20
-177.3784459220002
30
0
10
-524.57026886022902
20
-180.2368982734605
30
0
10
-528.15464402453222
20
-183.59871064376321
30
0
10
-531.14709089104622
20
-187.62757833836559
30
0
10
-533.90597051450823
20
-191.3419838012139
30
0
10
-536.12807932029932
20
-195.64684990629428
30
0
10
-537.44768310324025
20
-200.23795208169432
30
0
10
-538.78668321233636
20
-204.89653702454052
30
0
10
-539.17105955873797
20
-209.78907804633917
30
0
10
-538.72822407564183
20
-214.39294345910668
30
0
10
-538.24256811332793
20
-219.44198485878783
30
0
10
-536.82134108562286
20
-224.13236419381343
30
0
10
-534.88961581537137
20
-228.37675891610573
30
0
10
-532.26395080485406
20
-234.14588089466582
30
0
10
-528.71432457975334
20
-239.1608459235955
30
0
10
-524.64031454223164
20
-243.69663820194671
30
0
10
-522.62328124581381
20
-245.94229885737164
30
0
10
-520.47124208372645
20
-248.07306031983222
30
0
10
-518.20011904534931
20
-250.09532611585374
30
0
0
LINE
5
206
100
AcDbEntity
8
0
100
AcDbLine
10
-518.20011904534931
20
-250.09532611585374
30
0
11
-619.98312713127086
21
-250.07693255671424
31
0
0
LINE
5
207
100
AcDbEntity
8
0
100
AcDbLine
10
-228.34652846822067
20
-250.14770655990159
30
0
11
-361.89027557802234
21
-250.12357340785235
31
0
0
LINE
5
208
100
AcDbEntity
8
0
100
AcDbLine
10
-399.985978581935
20
-250.11668900170901
30
0
11
-480.59016970300627
21
-250.10212273977444
31
0
0
LINE
5
209
100
AcDbEntity
8
0
100
AcDbLine
10
-228.34652846822058
20
-90.024426713475677
30
0
11
-298.82085570310346
21
-89.930564676547846
31
0
0
SPLINE
5
210
100
AcDbEntity
8
0
100
AcDbSpline
70
4
71
5
72
26
73
20
74
0
42
0.000000001
43
0.0000000001
44
0.0000000001
40
0
40
0
40
0
40
0
40
0
40
0
40
0.066666666666666666
40
0.13333333333333333
40
0.20000000000000001
40
0.26666666666666666
40
0.33333333333333331
40
0.39999999999999997
40
0.46666666666666662
40
0.53333333333333333
40
0.59999999999999998
40
0.66666666666666663
40
0.73333333333333328
40
0.79999999999999993
40
0.86666666666666659
40
0.93333333333333324
40
1
40
1
40
1
40
1
40
1
40
1
41
1
41
1
41
1
41
1
41
1
41
1
41
1
41
1
41
1
41
1
41
1
41
1
41
1
41
1
41
1
41
1
41
1
41
1
41
1
41
1
10
-399.985978581935
20
-250.11668900170901
30
0
10
-396.74032275245816
20
-248.74655726946142
30
0
10
-390.469458293748
20
-245.78751225505351
30
0
10
-381.72447519280632
20
-240.692585027093
30
0
10
-371.45637894377217
20
-232.70767710016924
30
0
10
-361.29924670665844
20
-221.41436520698414
30
0
10
-354.20788623475596
20
-209.64090065801264
30
0
10
-350.42410890556846
20
-198.15567123039733
30
0
10
-349.88881776956828
20
-187.47533369619677
30
0
10
-351.99734778739025
20
-177.58947195804322
30
0
10
-355.58549174264448
20
-167.94261609427195
30
0
10
-359.28178180609962
20
-157.81868020677447
30
0
10
-361.75972081052032
20
-146.62173799745199
30
0
10
-362.02972929809755
20
-134.20324782694695
30
0
10
-359.71937933927222
20
-121.17638168383037
30
0
10
-354.86446509301027
20
-108.58471194621606
30
0
10
-349.14773663262423
20
-99.786247612064898
30
0
10
-343.96006835057392
20
-94.335330361486442
30
0
10
-340.12213133962916
20
-91.269285015934003
30
0
10
-338.10829014197179
20
-89.878241025211565
30
0
0
SPLINE
5
211
100
AcDbEntity
8
0
100
AcDbSpline
70
4
71
5
72
16
73
10
74
0
42
0.000000001
43
0.0000000001
44
0.0000000001
40
0
40
0
40
0
40
0
40
0
40
0
40
0.20000000000000001
40
0.40000000000000002
40
0.60000000000000009
40
0.80000000000000004
40
1
40
1
40
1
40
1
40
1
40
1
41
1
41
1
41
1
41
1
41
1
41
1
41
1
41
1
41
1
41
1
10
-298.82085570310346
20
-89.930564676547846
30
0
10
-296.3251195118952
20
-91.355557835273018
30
0
10
-291.23950948260614
20
-94.869669548214006
30
0
10
-283.32893536125289
20
-102.13142085215594
30
0
10
-272.29486572782429
20
-115.24561042812394
30
0
10
-257.96122087058325
20
-135.444864224593
30
0
10
-246.22704558378331
20
-153.47114049743135
30
0
10
-237.32417166404849
20
-167.69507331707376
30
0
10
-231.34619973345099
20
-177.47018149979343
30
0
10
-228.34652846822064
20
-182.43088782021371
30
0
0
SPLINE
5
212
100
AcDbEntity
8
0
100
AcDbSpline
70
0
71
3
72
59
73
55
74
0
42
0.000000001
43
0.0000000001
44
0.0000000001
40
0.74788161988075064
40
0.74788161988075064
40
0.74788161988075064
40
0.74788161988075064
40
0.75990599071925269
40
0.75990599071925269
40
0.75990599071925269
40
0.77748844736316869
40
0.77748844736316869
40
0.77748844736316869
40
0.79149631486196614
40
0.79149631486196614
40
0.79149631486196614
40
0.80465401538709991
40
0.80465401538709991
40
0.80465401538709991
40
0.81868129218028773
40
0.81868129218028773
40
0.81868129218028773
40
0.83525257376272366
40
0.83525257376272366
40
0.83525257376272366
40
0.85341573500848789
40
0.85341573500848789
40
0.85341573500848789
40
0.86903426392368954
40
0.86903426392368954
40
0.86903426392368954
40
0.88739689937302768
40
0.88739689937302768
40
0.88739689937302768
40
0.90184018399493593
40
0.90184018399493593
40
0.90184018399493593
40
0.91446561382545821
40
0.91446561382545821
40
0.91446561382545821
40
0.92637694005803117
40
0.92637694005803117
40
0.92637694005803117
40
0.93879081259932651
40
0.93879081259932651
40
0.93879081259932651
40
0.95268797137361816
40
0.95268797137361816
40
0.95268797137361816
40
0.97102217946309266
40
0.97102217946309266
40
0.97102217946309266
40
0.99594977009660346
40
0.99594977009660346
40
0.99594977009660346
40
1
40
1
40
1
40
4.8601745624074724
40
4.8601745624074724
40
4.8601745624074724
40
4.8601745624074724
10
-361.89027557802217
20
-250.12357340785235
30
0
10
-356.90981049259801
20
-245.95243211196288
30
0
10
-352.41841164228038
20
-241.45835619734521
30
0
10
-348.49394061750229
20
-236.74005680851889
30
0
10
-342.75544148351696
20
-229.84079400705741
30
0
10
-338.21091137146368
20
-222.43637008234208
30
0
10
-335.12435906327175
20
-214.7289777322105
30
0
10
-332.66531612991577
20
-208.58853143460811
30
0
10
-331.15878358631039
20
-202.2334113508164
30
0
10
-330.66425045224145
20
-196.03446258534137
30
0
10
-330.19973157537498
20
-190.21174107303614
30
0
10
-330.63878337909671
20
-184.5715141863889
30
0
10
-331.57364007433273
20
-179.49967140636844
30
0
10
-332.57028030041107
20
-174.0926367660087
30
0
10
-334.07203465699433
20
-169.33967874764886
30
0
10
-335.48534844298729
20
-165.15849335246895
30
0
10
-337.1549826176979
20
-160.21900284740215
30
0
10
-338.6870318329843
20
-156.04496753011378
30
0
10
-339.74736713824063
20
-152.20410307102759
30
0
10
-340.90956096302978
20
-147.9942753551405
30
0
10
-341.56695426735729
20
-144.14569859089514
30
0
10
-341.641528915126
20
-140.04260383410858
30
0
10
-341.70565576379283
20
-136.5143466527972
30
0
10
-341.32042984684017
20
-132.78336825710451
30
0
10
-340.40424435410188
20
-128.97204712328229
30
0
10
-339.32708911762171
20
-124.49109370310342
30
0
10
-337.48998509861502
20
-119.93134533576834
30
0
10
-335.15748386126694
20
-116.04149662589242
30
0
10
-333.32283548822062
20
-112.98190356214592
30
0
10
-331.19722616000206
20
-110.36548940387115
30
0
10
-329.130569783792
20
-108.46891808138716
30
0
10
-327.32402606851673
20
-106.81105224425747
30
0
10
-325.59650175317734
20
-105.70912691669918
30
0
10
-324.05471845791919
20
-105.03725877603097
30
0
10
-322.6001395599119
20
-104.40339199159692
30
0
10
-321.31364050210556
20
-104.10701246801955
30
0
10
-319.82113009238498
20
-104.05225507031744
30
0
10
-318.26564973435728
20
-103.99518742373513
30
0
10
-316.41887884853844
20
-104.20640634281793
30
0
10
-313.92108269447471
20
-105.07858546628421
30
0
10
-311.12483441470812
20
-106.05497794317756
30
0
10
-307.53361312560639
20
-107.91667833353964
30
0
10
-303.30643667304753
20
-111.10918440917168
30
0
10
-297.7296181325907
20
-115.32098566064963
30
0
10
-291.1088108706013
20
-121.83696901044274
30
0
10
-283.91234696655397
20
-130.83714160080154
30
0
10
-274.12787712016262
20
-143.07397325824343
30
0
10
-263.28188469048155
20
-159.85280003508788
30
0
10
-251.77745313923833
20
-181.04212147582496
30
0
10
-249.90821541885535
20
-184.48495815401489
30
0
10
-248.02053778291199
20
-188.04406518730073
30
0
10
-246.11516016827323
20
-191.71883075406822
30
0
10
-240.19228293492233
20
-203.14186057560602
30
0
10
-234.26940570157149
20
-214.56489039714373
30
0
10
-228.34652846822064
20
-225.98792021868147
30
0
0
LINE
5
213
100
AcDbEntity
8
0
100
AcDbLine
10
-228.34652846822058
20
-90.024426713475677
30
0
11
-228.34652846822064
21
-182.43088782021371
31
0
0
LINE
5
214
100
AcDbEntity
8
0
100
AcDbLine
10
-228.34652846822064
20
-225.98792021868135
30
0
11
-228.34652846822067
21
-250.14770655990159
31
0
0
LINE
5
215
100
AcDbEntity
8
0
100
AcDbLine
10
-691.78362052114824
20
-122.18508913058102
30
0
11
-689.07281934569767
21
-115.31560672682286
31
0
0
LINE
5
216
100
AcDbEntity
8
0
100
AcDbLine
10
-661.31976503804265
20
-114.42335867839131
30
0
11
-673.57055927844317
21
-107.65359958009392
31
0
0
SPLINE
5
217
100
AcDbEntity
8
0
100
AcDbSpline
70
4
71
5
72
31
73
25
74
0
42
0.000000001
43
0.0000000001
44
0.0000000001
40
0
40
0
40
0
40
0
40
0
40
0
40
0.050000000000000003
40
0.10000000000000001
40
0.15000000000000002
40
0.20000000000000001
40
0.25
40
0.29999999999999999
40
0.34999999999999998
40
0.39999999999999997
40
0.44999999999999996
40
0.49999999999999994
40
0.54999999999999993
40
0.59999999999999998
40
0.65000000000000002
40
0.70000000000000007
40
0.75000000000000011
40
0.80000000000000016
40
0.8500000000000002
40
0.90000000000000024
40
0.95000000000000029
40
1
40
1
40
1
40
1
40
1
40
1
41
1
41
1
41
1
41
1
41
1
41
1
41
1
41
1
41
1
41
1
41
1
41
1
41
1
41
1
41
1
41
1
41
1
41
1
41
1
41
1
41
1
41
1
41
1
41
1
41
1
10
-755.39080179881012
20
-172.24666735798314
30
0
10
-755.43109235700126
20
-177.95320698046049
30
0
10
-755.07806412142952
20
-188.83908676542308
30
0
10
-753.24771460367265
20
-203.5863208997512
30
0
10
-748.19469850197606
20
-220.07292541014971
30
0
10
-737.57578685291662
20
-235.36227166243251
30
0
10
-722.91809265894528
20
-245.39158758719378
30
0
10
-704.84561130008706
20
-250.38915721216287
30
0
10
-684.47878600777585
20
-250.83423989235231
30
0
10
-663.62431362326095
20
-247.56946341456813
30
0
10
-644.84924413235922
20
-241.85424375919104
30
0
10
-630.84448242282804
20
-235.04345863437723
30
0
10
-623.82975315193733
20
-228.29099857853944
30
0
10
-625.01292961416254
20
-222.28635571293339
30
0
10
-633.81297705331338
20
-216.86762950325149
30
0
10
-647.84763304041985
20
-211.05019015438469
30
0
10
-663.91780194535318
20
-203.59124278227364
30
0
10
-678.75151739898274
20
-193.43734216360502
30
0
10
-689.77161984309305
20
-180.17261706991164
30
0
10
-696.03041303210443
20
-164.60450771399189
30
0
10
-697.87370902554517
20
-148.39370849184576
30
0
10
-696.58881999666801
20
-136.42339665231427
30
0
10
-694.54396905739475
20
-128.72344964987394
30
0
10
-692.77186728561196
20
-124.25390537394078
30
0
10
-691.78362052114824
20
-122.18508913058102
30
0
0
ARC
5
218
100
AcDbEntity
8
0
100
AcDbCircle
10
-588.17892682006652
20
-299.93696597436883
30
0
40
210.39159690557821
210
0
220
-0
230
1
100
AcDbArc
50
89.941564042308173
51
113.94565587520943
0
ARC
5
219
100
AcDbEntity
8
0
100
AcDbCircle
10
-588.17892682006652
20
-299.93696597436883
30
0
40
210.39159640866131
210
0
220
0
230
1
100
AcDbArc
50
118.65620290195925
51
142.63306427030551
0
LINE
5
220
100
AcDbEntity
8
0
100
AcDbLine
10
-495.55114687904745
20
-97.879148534939901
30
0
11
-511.77929261088201
21
-89.646941133303542
31
0
0
SPLINE
5
221
100
AcDbEntity
8
0
100
AcDbSpline
70
4
71
5
72
21
73
15
74
0
42
0.000000001
43
0.0000000001
44
0.0000000001
40
0
40
0
40
0
40
0
40
0
40
0
40
0.10000000000000001
40
0.20000000000000001
40
0.30000000000000004
40
0.40000000000000002
40
0.5
40
0.59999999999999998
40
0.69999999999999996
40
0.79999999999999993
40
0.89999999999999991
40
1
40
1
40
1
40
1
40
1
40
1
41
1
41
1
41
1
41
1
41
1
41
1
41
1
41
1
41
1
41
1
41
1
41
1
41
1
41
1
41
1
10
-661.31976503804265
20
-114.42335867839131
30
0
10
-659.67367696218059
20
-115.22694042886891
30
0
10
-656.37712139416249
20
-117.02143753913913
30
0
10
-651.41895649416915
20
-120.27496753182886
30
0
10
-644.62156237269755
20
-125.50085351921649
30
0
10
-635.00650747365228
20
-132.22017536878764
30
0
10
-623.47310636536304
20
-137.58950467643686
30
0
10
-609.58486636107148
20
-140.20721197543759
30
0
10
-593.83899735300031
20
-139.36398142237979
30
0
10
-577.5825613420941
20
-135.01888737288718
30
0
10
-562.52848453324918
20
-127.43751925962383
30
0
10
-552.85348582166557
20
-119.09788314863034
30
0
10
-547.56447257631339
20
-111.71498644242421
30
0
10
-544.99875055280177
20
-106.31182891328166
30
0
10
-543.95597140011762
20
-103.48993300569818
30
0
0
SPLINE
5
222
100
AcDbEntity
8
0
100
AcDbSpline
70
4
71
5
72
31
73
25
74
0
42
0.000000001
43
0.0000000001
44
0.0000000001
40
0
40
0
40
0
40
0
40
0
40
0
40
0.050000000000000003
40
0.10000000000000001
40
0.15000000000000002
40
0.20000000000000001
40
0.25
40
0.29999999999999999
40
0.34999999999999998
40
0.39999999999999997
40
0.44999999999999996
40
0.49999999999999994
40
0.54999999999999993
40
0.59999999999999998
40
0.65000000000000002
40
0.70000000000000007
40
0.75000000000000011
40
0.80000000000000016
40
0.8500000000000002
40
0.90000000000000024
40
0.95000000000000029
40
1
40
1
40
1
40
1
40
1
40
1
41
1
41
1
41
1
41
1
41
1
41
1
41
1
41
1
41
1
41
1
41
1
41
1
41
1
41
1
41
1
41
1
41
1
41
1
41
1
41
1
41
1
41
1
41
1
41
1
41
1
10
-495.55114687904745
20
-97.879148534939901
30
0
10
-493.65023489197375
20
-98.631947347318459
30
0
10
-489.92920302872818
20
-100.15956213077217
30
0
10
-484.59059709833474
20
-102.51679327402977
30
0
10
-477.68066699254928
20
-105.96965087982319
30
0
10
-468.24908622266668
20
-111.63706429561597
30
0
10
-457.22616228257601
20
-119.44482798689498
30
0
10
-445.2268311799653
20
-129.58126217901491
30
0
10
-434.75240489400778
20
-141.33573744177195
30
0
10
-432.32784435931086
20
-152.07986204174571
30
0
10
-439.27787802248389
20
-161.04949635841282
30
0
10
-453.94183364139212
20
-168.50843278169347
30
0
10
-472.64466287697155
20
-175.39185436479042
30
0
10
-491.10118143133639
20
-182.77861031137465
30
0
10
-505.50229330480386
20
-191.49074817702913
30
0
10
-514.02296896043458
20
-201.51159585673935
30
0
10
-516.7682090458793
20
-212.08714703146669
30
0
10
-514.91501716803634
20
-222.18403154000032
30
0
10
-510.13310248235109
20
-230.82641420314701
30
0
10
-503.89533865222154
20
-237.49228238159876
30
0
10
-496.87184391195638
20
-242.46411339086947
30
0
10
-490.74558879505503
20
-245.6334065564082
30
0
10
-485.81348191084516
20
-247.87709729997687
30
0
10
-482.35900994343092
20
-249.36222243896495
30
0
10
-480.59016970300627
20
-250.10212273977444
30
0
0
LINE
5
223
100
AcDbEntity
8
0
100
AcDbLine
10
-338.10829014197179
20
-89.878241025211565
30
0
11
-511.77929261088201
21
-89.646941133303542
31
0
0
LINE
5
224
100
AcDbEntity
8
0
100
AcDbLine
10
-541.16989049486074
20
-89.607800121725603
30
0
11
-587.96434849634818
21
-89.545478493001582
31
0
0
SPLINE
5
225
100
AcDbEntity
8
0
100
AcDbSpline
70
0
71
3
72
35
73
31
74
0
42
0.000000001
43
0.0000000001
44
0.0000000001
40
0.29451671996823492
40
0.29451671996823492
40
0.29451671996823492
40
0.29451671996823492
40
0.30503238227689011
40
0.30503238227689011
40
0.30503238227689011
40
0.32103699228408095
40
0.32103699228408095
40
0.32103699228408095
40
0.34001023837938166
40
0.34001023837938166
40
0.34001023837938166
40
0.35857569984892901
40
0.35857569984892901
40
0.35857569984892901
40
0.37159676410774578
40
0.37159676410774578
40
0.37159676410774578
40
0.38302535079049493
40
0.38302535079049493
40
0.38302535079049493
40
0.39433371130926509
40
0.39433371130926509
40
0.39433371130926509
40
0.40782105419354092
40
0.40782105419354092
40
0.40782105419354092
40
0.41807429070422186
40
0.41807429070422186
40
0.41807429070422186
40
0.41933663214973527
40
0.41933663214973527
40
0.41933663214973527
40
0.41933663214973527
10
-673.28406279396984
20
-468.92240920083424
30
0
10
-671.56260804232943
20
-468.27513551525726
30
0
10
-668.96557812862068
20
-467.02334274185233
30
0
10
-665.82932175793303
20
-465.26212359581893
30
0
10
-661.05600756980925
20
-462.58158624666282
30
0
10
-655.03938340948832
20
-458.76254788672662
30
0
10
-648.17174217055708
20
-454.76081009342477
30
0
10
-640.03024748484245
20
-450.01680471453284
30
0
10
-630.6170226327672
20
-445.04994906195293
30
0
10
-620.40690333337329
20
-441.3956092013251
30
0
10
-610.4162261714232
20
-437.81981065118038
30
0
10
-599.66499713477037
20
-435.49659614576746
30
0
10
-588.8948312033416
20
-435.45816239977728
30
0
10
-581.34107214912763
20
-435.43120652383163
30
0
10
-573.7669452382487
20
-436.53564823884693
30
0
10
-566.65112502987176
20
-438.98774038609804
30
0
10
-560.40557040746614
20
-441.13994139685423
30
0
10
-554.5389350194464
20
-444.34889907244298
30
0
10
-549.49466516332325
20
-448.37450877499231
30
0
10
-544.50345989267453
20
-452.35776996799711
30
0
10
-540.34352034611663
20
-457.11952203408953
30
0
10
-537.0985839968871
20
-462.04855669732552
30
0
10
-533.22838821500841
20
-467.92735588145121
30
0
10
-530.6506544668739
20
-474.01298578923928
30
0
10
-528.77430488125196
20
-479.17392562916314
30
0
10
-527.34788188280277
20
-483.09733272648151
30
0
10
-526.28406542711548
20
-486.50661734322989
30
0
10
-525.41497907341568
20
-488.92916170815994
30
0
10
-525.30798030060259
20
-489.22741662037816
30
0
10
-525.20444791897046
20
-489.51061322961516
30
0
10
-525.10469522260814
20
-489.77757658603417
30
0
0
SPLINE
5
226
100
AcDbEntity
8
0
100
AcDbSpline
70
0
71
3
72
26
73
22
74
0
42
0.000000001
43
0.0000000001
44
0.0000000001
40
0.45503744111848332
40
0.45503744111848332
40
0.45503744111848332
40
0.45503744111848332
40
0.46345091835638536
40
0.46345091835638536
40
0.46345091835638536
40
0.47586388459936479
40
0.47586388459936479
40
0.47586388459936479
40
0.49219788266113224
40
0.49219788266113224
40
0.49219788266113224
40
0.50467538523401889
40
0.50467538523401889
40
0.50467538523401889
40
0.51517788083803284
40
0.51517788083803284
40
0.51517788083803284
40
0.52438620794084445
40
0.52438620794084445
40
0.52438620794084445
40
0.52787149639614261
40
0.52787149639614261
40
0.52787149639614261
40
0.52787149639614261
10
-525.10469522260803
20
-489.77757658603537
30
0
10
-523.44281608053575
20
-489.54931974746273
30
0
10
-521.29432309503522
20
-489.12419453708594
30
0
10
-518.95006610551366
20
-488.54337192909844
30
0
10
-515.49142682320712
20
-487.68644545004076
30
0
10
-511.59882544620973
20
-486.50931517859294
30
0
10
-507.54147914153208
20
-485.06462910113072
30
0
10
-502.20249042769376
20
-483.163592787391
30
0
10
-496.51870591027966
20
-480.78293842614653
30
0
10
-490.53848605333735
20
-477.7207758569923
30
0
10
-485.97021021730166
20
-475.3815970967932
30
0
10
-481.21430465010917
20
-472.63000510752244
30
0
10
-476.48399824796206
20
-469.46125688129149
30
0
10
-472.50243046995638
20
-466.79407535824106
30
0
10
-468.53625930591681
20
-463.82311261857524
30
0
10
-464.94429364838203
20
-460.73586221577978
30
0
10
-461.79494743927677
20
-458.02903779717565
30
0
10
-458.93478355653338
20
-455.21509926544911
30
0
10
-456.82420203851194
20
-452.74744743905603
30
0
10
-456.02536145470168
20
-451.81345820016406
30
0
10
-455.33596532898258
20
-450.93387346083512
30
0
10
-454.77891679898613
20
-450.15539974403049
30
0
0
LINE
5
227
100
AcDbEntity
8
0
100
AcDbLine
10
-686.89204113323626
20
-349.99999999999977
30
0
11
-702.84319729343326
21
-350.00000011061354
31
0
0
LINE
5
228
100
AcDbEntity
8
0
100
AcDbLine
10
-750.92419434464421
20
-350.00000000000409
30
0
11
-792.31086598238426
21
-349.99999999999977
31
0
0
SPLINE
5
229
100
AcDbEntity
8
0
100
AcDbSpline
70
4
71
5
72
31
73
25
74
0
42
0.000000001
43
0.0000000001
44
0.0000000001
40
0
40
0
40
0
40
0
40
0
40
0
40
0.013333333333333334
40
0.026666666666666668
40
0.040000000000000001
40
0.053333333333333337
40
0.066666666666666666
40
0.080000000000000002
40
0.093333333333333338
40
0.10666666666666667
40
0.12000000000000001
40
0.13333333333333333
40
0.14666666666666667
40
0.16
40
0.17333333333333334
40
0.18666666666666668
40
0.20000000000000001
40
0.21333333333333335
40
0.22666666666666668
40
0.24000000000000002
40
0.25333333333333335
40
0.25845228065783138
40
0.25845228065783138
40
0.25845228065783138
40
0.25845228065783138
40
0.25845228065783138
40
0.25845228065783138
41
1
41
1
41
1
41
1
41
1
41
1
41
1
41
1
41
1
41
1
41
1
41
1
41
1
41
1
41
1
41
1
41
1
41
1
41
1
41
1
41
1
41
1
41
1
41
1
41
1
10
-754.90058791258321
20
-427.90985155838456
30
0
10
-755.07914547162181
20
-421.90253952918681
30
0
10
-754.97407674010788
20
-410.48102106774093
30
0
10
-753.42993387007084
20
-395.12805300239455
30
0
10
-748.59709216183137
20
-378.21714037612912
30
0
10
-738.04808060238531
20
-362.94887710500439
30
0
10
-723.34340079402682
20
-353.35434091877528
30
0
10
-705.19733381380161
20
-349.03025993120127
30
0
10
-684.79936304330954
20
-349.30148382773314
30
0
10
-663.95634843716061
20
-353.13814095522957
30
0
10
-645.15656055706563
20
-359.12008483855686
30
0
10
-630.99241350007435
20
-365.78012085657758
30
0
10
-623.60817747105125
20
-371.9371865103127
30
0
10
-624.19845835466401
20
-376.98822455212365
30
0
10
-632.33974788496437
20
-381.32608542181032
30
0
10
-645.88623619259931
20
-386.33595244669198
30
0
10
-661.8289463919682
20
-393.68421917694593
30
0
10
-676.96460207466112
20
-404.73354675901055
30
0
10
-688.57872095589312
20
-419.98061586575204
30
0
10
-695.27836335819802
20
-438.29826260039482
30
0
10
-696.70468884327317
20
-454.93870563900327
30
0
10
-695.24022058725279
20
-466.50827644087002
30
0
10
-693.15418613757265
20
-473.42097821039891
30
0
10
-691.63068231540603
20
-476.92495941640863
30
0
10
-691.18486868567231
20
-477.85610218613783
30
0
0
ARC
5
230
100
AcDbEntity
8
0
100
AcDbCircle
10
-588.35008543867264
20
-299.99999999999977
30
0
40
210.00000000000028
210
0
220
0
230
1
100
AcDbArc
50
217.52406043617583
51
241.49961700362095
0
SPLINE
5
231
100
AcDbEntity
8
0
100
AcDbSpline
70
4
71
5
72
16
73
10
74
0
42
0.000000001
43
0.0000000001
44
0.0000000001
40
0.94624894517516533
40
0.94624894517516533
40
0.94624894517516533
40
0.94624894517516533
40
0.94624894517516533
40
0.94624894517516533
40
0.94666666666666544
40
0.95999999999999874
40
0.97333333333333205
40
0.98666666666666536
40
1
40
1
40
1
40
1
40
1
40
1
41
1
41
1
41
1
41
1
41
1
41
1
41
1
41
1
41
1
41
1
10
-298.8160438800216
20
-509.99999657858496
30
0
10
-298.71910719829629
20
-509.94467642962445
30
0
10
-295.52620786055047
20
-508.11282468936832
30
0
10
-289.11944908123093
20
-503.80683649591117
30
0
10
-279.22904042645951
20
-495.28517386340195
30
0
10
-265.47117357015179
20
-479.66497675396556
30
0
10
-251.07692906702096
20
-458.43277484356634
30
0
10
-239.87243899973518
20
-439.26301634248318
30
0
10
-232.22114277602969
20
-425.04109829371487
30
0
10
-228.35008543867269
20
-417.56961976207162
30
0
0
LINE
5
232
100
AcDbEntity
8
0
100
AcDbLine
10
-518.23103448103325
20
-350.0000006538869
30
0
11
-620.00144936581466
21
-350.00000009130144
31
0
0
SPLINE
5
233
100
AcDbEntity
8
0
100
AcDbSpline
70
0
71
3
72
53
73
49
74
0
42
0.000000001
43
0.0000000001
44
0.0000000001
40
0.12223125520761943
40
0.12223125520761943
40
0.12223125520761943
40
0.12223125520761943
40
0.12487369547989309
40
0.12487369547989309
40
0.12487369547989309
40
0.13019486067780367
40
0.13019486067780367
40
0.13019486067780367
40
0.13447198344541542
40
0.13447198344541542
40
0.13447198344541542
40
0.13786485603681686
40
0.13786485603681686
40
0.13786485603681686
40
0.14112672052989483
40
0.14112672052989483
40
0.14112672052989483
40
0.14446375202459197
40
0.14446375202459197
40
0.14446375202459197
40
0.14857983390103047
40
0.14857983390103047
40
0.14857983390103047
40
0.15433689945043216
40
0.15433689945043216
40
0.15433689945043216
40
0.16210598737749876
40
0.16210598737749876
40
0.16210598737749876
40
0.17372815600319547
40
0.17372815600319547
40
0.17372815600319547
40
0.19077071623832653
40
0.19077071623832653
40
0.19077071623832653
40
0.20984373448908972
40
0.20984373448908972
40
0.20984373448908972
40
0.22469303968608059
40
0.22469303968608059
40
0.22469303968608059
40
0.23978328446099856
40
0.23978328446099856
40
0.23978328446099856
40
0.25342303685118894
40
0.25342303685118894
40
0.25342303685118894
40
0.25770904017267326
40
0.25770904017267326
40
0.25770904017267326
40
0.25770904017267326
10
-620.00144060033494
20
-350.00000586980684
30
0
10
-619.05018172880386
20
-350.6271075400067
30
0
10
-618.11407218294448
20
-351.28520325420487
30
0
10
-617.18761329486244
20
-351.98546801459145
30
0
10
-615.32197385381846
20
-353.39561321688416
30
0
10
-613.48194940054452
20
-354.97133100351118
30
0
10
-611.6426960053833
20
-357.04108191999342
30
0
10
-610.16431443306521
20
-358.70473610829919
30
0
10
-608.66357184034564
20
-360.7050070557143
30
0
10
-607.37368065401336
20
-363.33412252444674
30
0
10
-606.35046091266349
20
-365.41969600413267
30
0
10
-605.4759036714421
20
-367.93205189428392
30
0
10
-605.08241907718752
20
-370.75813110480362
30
0
10
-604.70412800023269
20
-373.47508766096257
30
0
10
-604.81376657693352
20
-376.45721136685387
30
0
10
-605.43989818155364
20
-379.21236628660995
30
0
10
-606.08045847732217
20
-382.0310114999553
30
0
10
-607.22336395659443
20
-384.56514808797283
30
0
10
-608.50571213954299
20
-386.61803138270784
30
0
10
-610.08743233712164
20
-389.15017281958973
30
0
10
-611.83869917514937
20
-390.9955727366123
30
0
10
-613.46970630495696
20
-392.445369507289
30
0
10
-615.75095707686057
20
-394.47316567185862
30
0
10
-617.84504922319195
20
-395.78786890949709
30
0
10
-619.82055440323791
20
-396.90653196452303
30
0
10
-622.48647392637895
20
-398.4161537606758
30
0
10
-624.98267258625356
20
-399.54002380837846
30
0
10
-627.49900521018526
20
-400.62644335602272
30
0
10
-631.26331349813609
20
-402.25167289384075
30
0
10
-635.07243526562911
20
-403.75391174603584
30
0
10
-638.89078055099253
20
-405.42604851135604
30
0
10
-644.48994036531963
20
-407.87804283893274
30
0
10
-650.03928513337883
20
-410.68131881420345
30
0
10
-654.85132144110128
20
-414.03631803339402
30
0
10
-660.23666584090176
20
-417.79103331420089
30
0
10
-664.66835094558758
20
-422.18129782400558
30
0
10
-668.05532891124699
20
-427.38979555824841
30
0
10
-670.69226182067507
20
-431.44487333653927
30
0
10
-672.71501211502266
20
-436.0371181947437
30
0
10
-674.02696001879713
20
-440.92467658065414
30
0
10
-675.36019512557573
20
-445.89153876152147
30
0
10
-675.9318569684923
20
-451.14496336485666
30
0
10
-675.80369214543543
20
-455.89596441074127
30
0
10
-675.68784667853254
20
-460.19029355105539
30
0
10
-674.98392247637094
20
-464.05730114075959
30
0
10
-674.11283924863051
20
-466.75126043401349
30
0
10
-673.83911979239826
20
-467.59778008836832
30
0
10
-673.55293812301102
20
-468.32855510886958
30
0
10
-673.28406279396972
20
-468.92240920083538
30
0
0
LINE
5
234
100
AcDbEntity
8
0
100
AcDbLine
10
-228.35008543867264
20
-510
30
0
11
-228.35008543867269
21
-417.56961976207162
31
0
0
LINE
5
235
100
AcDbEntity
8
0
100
AcDbLine
10
-400
20
-349.99999999999955
30
0
11
-480.60116914684488
21
-350.00000350540847
31
0
0
SPLINE
5
236
100
AcDbEntity
8
0
100
AcDbSpline
70
4
71
5
72
26
73
20
74
0
42
0.000000001
43
0.0000000001
44
0.0000000001
40
0.72676892514417091
40
0.72676892514417091
40
0.72676892514417091
40
0.72676892514417091
40
0.72676892514417091
40
0.72676892514417091
40
0.7333333333333325
40
0.74666666666666581
40
0.75999999999999912
40
0.77333333333333243
40
0.78666666666666574
40
0.79999999999999905
40
0.81333333333333235
40
0.82666666666666566
40
0.83999999999999897
40
0.85333333333333228
40
0.86666666666666559
40
0.87999999999999889
40
0.8933333333333322
40
0.90666666666666551
40
0.90747665063376681
40
0.90747665063376681
40
0.90747665063376681
40
0.90747665063376681
40
0.90747665063376681
40
0.90747665063376681
41
1
41
1
41
1
41
1
41
1
41
1
41
1
41
1
41
1
41
1
41
1
41
1
41
1
41
1
41
1
41
1
41
1
41
1
41
1
41
1
10
-399.99999990373362
20
-350.00000004061224
30
0
10
-398.23525128142091
20
-350.74451041926579
30
0
10
-392.96031284661399
20
-353.11676390903671
30
0
10
-384.55402028909384
20
-357.64080556261177
30
0
10
-373.91066749416632
20
-365.11647201599976
30
0
10
-362.818695258236
20
-376.09910963291145
30
0
10
-354.41167504043847
20
-388.96623598619203
30
0
10
-350.19772574935871
20
-401.54392305370777
30
0
10
-349.93030480667949
20
-413.26168589590065
30
0
10
-352.65777292817188
20
-424.19267128320456
30
0
10
-356.78897025957519
20
-435.02172464573209
30
0
10
-360.55710728934935
20
-446.55038228741057
30
0
10
-362.34999837211433
20
-459.35710160871992
30
0
10
-361.17389971979748
20
-473.30226259184997
30
0
10
-356.76253476980878
20
-487.44514392917125
30
0
10
-350.70714223876291
20
-497.96744122008903
30
0
10
-344.93869220420083
20
-504.60136841518568
30
0
10
-340.58884960918618
20
-508.26181865699448
30
0
10
-338.23585735253573
20
-509.90659415967258
30
0
10
-338.10073013828054
20
-509.99999999999034
30
0
0
SPLINE
5
237
100
AcDbEntity
8
0
100
AcDbSpline
70
0
71
3
72
35
73
31
74
0
42
0.000000001
43
0.0000000001
44
0.0000000001
40
0.55943187941123307
40
0.55943187941123307
40
0.55943187941123307
40
0.55943187941123307
40
0.56629569266901492
40
0.56629569266901492
40
0.56629569266901492
40
0.57806327452177741
40
0.57806327452177741
40
0.57806327452177741
40
0.59065266406179273
40
0.59065266406179273
40
0.59065266406179273
40
0.60344476830986171
40
0.60344476830986171
40
0.60344476830986171
40
0.6113846960434941
40
0.6113846960434941
40
0.6113846960434941
40
0.61870489446746724
40
0.61870489446746724
40
0.61870489446746724
40
0.62613268954885126
40
0.62613268954885126
40
0.62613268954885126
40
0.63427872369881833
40
0.63427872369881833
40
0.63427872369881833
40
0.64535108329955204
40
0.64535108329955204
40
0.64535108329955204
40
0.65083298387880939
40
0.65083298387880939
40
0.65083298387880939
40
0.65083298387880939
10
-454.77891679898607
20
-450.15539974403026
30
0
10
-456.44354327641855
20
-449.22344077061223
30
0
10
-458.78507623522967
20
-448.12989939229482
30
0
10
-461.58433595114701
20
-447.01400895512586
30
0
10
-466.3834930081739
20
-445.10088405429713
30
0
10
-472.50482558650333
20
-443.12098715462389
30
0
10
-479.00710079878195
20
-441.03924584845265
30
0
10
-485.9634726828275
20
-438.81212284622109
30
0
10
-493.34799762057105
20
-436.44895618610747
30
0
10
-500.42601471897831
20
-433.59734413666274
30
0
10
-507.61800224979947
20
-430.69981534898005
30
0
10
-514.53533988447543
20
-427.32114955674314
30
0
10
-520.73430619584553
20
-422.71757315523928
30
0
10
-524.58194092278507
20
-419.86018056091962
30
0
10
-528.16724199251621
20
-416.49935566649583
30
0
10
-531.16079853329597
20
-412.47131242111294
30
0
10
-533.92070121843869
20
-408.75766705735873
30
0
10
-536.14399575396271
20
-404.45341321543054
30
0
10
-537.46486414717322
20
-399.86267471092685
30
0
10
-538.80514745453729
20
-395.20445878442956
30
0
10
-539.19087148072788
20
-390.31202382816548
30
0
10
-538.74930419051441
20
-385.70803660705161
30
0
10
-538.26503905043228
20
-380.65886162062787
30
0
10
-536.84510408376593
20
-375.96809097379889
30
0
10
-534.91454804345346
20
-371.72316430145656
30
0
10
-532.29047228902084
20
-365.95331927875793
30
0
10
-528.74222761575288
20
-360.93737666366195
30
0
10
-524.66946715751999
20
-356.40046233473385
30
0
10
-522.65305252502526
20
-354.15424615456715
30
0
10
-520.50160038196816
20
-352.0228919744273
30
0
10
-518.23103448103325
20
-350.0000006538869
30
0
0
LINE
5
238
100
AcDbEntity
8
0
100
AcDbLine
10
-691.18486868567231
20
-477.85610218613783
30
0
11
-688.55465873490789
21
-484.5509238408722
31
0
0
LINE
5
239
100
AcDbEntity
8
0
100
AcDbLine
10
-228.35008543867269
20
-374.09439963352281
30
0
11
-228.35008543867269
21
-349.99999999999977
31
0
0
SPLINE
5
240
100
AcDbEntity
8
0
100
AcDbSpline
70
4
71
5
72
26
73
20
74
0
42
0.000000001
43
0.0000000001
44
0.0000000001
40
0.48044333752280366
40
0.48044333752280366
40
0.48044333752280366
40
0.48044333752280366
40
0.48044333752280366
40
0.48044333752280366
40
0.4933333333333329
40
0.50666666666666627
40
0.51999999999999957
40
0.53333333333333288
40
0.54666666666666619
40
0.5599999999999995
40
0.57333333333333281
40
0.58666666666666611
40
0.59999999999999942
40
0.61333333333333273
40
0.62666666666666604
40
0.63999999999999935
40
0.65333333333333266
40
0.66666666666666596
40
0.67147613589724431
40
0.67147613589724431
40
0.67147613589724431
40
0.67147613589724431
40
0.67147613589724431
40
0.67147613589724431
41
1
41
1
41
1
41
1
41
1
41
1
41
1
41
1
41
1
41
1
41
1
41
1
41
1
41
1
41
1
41
1
41
1
41
1
41
1
41
1
10
-495.61281466194612
20
-501.94437933705683
30
0
10
-492.62582606703279
20
-500.76257183016105
30
0
10
-486.40897375312579
20
-498.12815074365301
30
0
10
-476.59092203090017
20
-493.37514878895422
30
0
10
-462.60786180720737
20
-485.08810408830311
30
0
10
-445.12695389323375
20
-471.17213999746082
30
0
10
-431.79186870457357
20
-455.07501342294739
30
0
10
-431.27326906138052
20
-441.63890754223274
30
0
10
-443.51519889082044
20
-431.68186457638313
30
0
10
-464.54451095447615
20
-424.34939231422703
30
0
10
-487.90370575640623
20
-417.66265669933557
30
0
10
-507.15698424082035
20
-409.64188664364173
30
0
10
-518.39650813083119
20
-399.38888070155542
30
0
10
-520.77251849261381
20
-387.30586584998878
30
0
10
-515.17240936359508
20
-374.48180479776522
30
0
10
-505.00210330872733
20
-363.90418202724095
30
0
10
-494.78069123631934
20
-356.86331470109621
30
0
10
-486.75335863676469
20
-352.67514155972026
30
0
10
-481.90196202639424
20
-350.54439003756636
30
0
10
-480.60116914684488
20
-350.00000350540853
30
0
0
SPLINE
5
241
100
AcDbEntity
8
0
100
AcDbSpline
70
0
71
3
72
14
73
10
74
0
42
0.000000001
43
0.0000000001
44
0.0000000001
40
0.012686601008171929
40
0.012686601008171929
40
0.012686601008171929
40
0.012686601008171929
40
0.016691424327586208
40
0.016691424327586208
40
0.016691424327586208
40
0.030291067726568113
40
0.030291067726568113
40
0.030291067726568113
40
0.040114223579371264
40
0.040114223579371264
40
0.040114223579371264
40
0.040114223579371264
10
-773.45819294851367
20
-399.1715088192492
30
0
10
-773.04414054351014
20
-396.29542103070128
30
0
10
-772.54252591198781
20
-393.48375582456924
30
0
10
-771.94911111124088
20
-390.73461943601365
30
0
10
-769.93398359270248
20
-381.39905789993338
30
0
10
-766.834284923258
20
-372.76265055804708
30
0
10
-762.4330423634658
20
-365.04259347686718
30
0
10
-759.25398168206084
20
-359.46632050586828
30
0
10
-755.3788388499953
20
-354.38893573116457
30
0
10
-750.92419434464421
20
-350.00000000000409
30
0
0
SPLINE
5
242
100
AcDbEntity
8
0
100
AcDbSpline
70
0
71
3
72
59
73
55
74
0
42
0.000000001
43
0.0000000001
44
0.0000000001
40
0.74788161988075064
40
0.74788161988075064
40
0.74788161988075064
40
0.74788161988075064
40
0.75990599071925269
40
0.75990599071925269
40
0.75990599071925269
40
0.77748844736316869
40
0.77748844736316869
40
0.77748844736316869
40
0.79149631486196614
40
0.79149631486196614
40
0.79149631486196614
40
0.80465401538709991
40
0.80465401538709991
40
0.80465401538709991
40
0.81868129218028773
40
0.81868129218028773
40
0.81868129218028773
40
0.83525257376272366
40
0.83525257376272366
40
0.83525257376272366
40
0.85341573500848789
40
0.85341573500848789
40
0.85341573500848789
40
0.86903426392368954
40
0.86903426392368954
40
0.86903426392368954
40
0.88739689937302768
40
0.88739689937302768
40
0.88739689937302768
40
0.90184018399493593
40
0.90184018399493593
40
0.90184018399493593
40
0.91446561382545821
40
0.91446561382545821
40
0.91446561382545821
40
0.92637694005803117
40
0.92637694005803117
40
0.92637694005803117
40
0.93879081259932651
40
0.93879081259932651
40
0.93879081259932651
40
0.95268797137361816
40
0.95268797137361816
40
0.95268797137361816
40
0.97102217946309266
40
0.97102217946309266
40
0.97102217946309266
40
0.99594977009660346
40
0.99594977009660346
40
0.99594977009660346
40
1
40
1
40
1
40
4.8601745624074724
40
4.8601745624074724
40
4.8601745624074724
40
4.8601745624074724
10
-361.90128181986069
20
-350.00000003220686
30
0
10
-356.91952848237645
20
-354.16960263459822
30
0
10
-352.42674160029208
20
-358.66229091570034
30
0
10
-348.50081325276972
20
-363.37937778759931
30
0
10
-342.76018317037028
20
-370.27686760429566
30
0
10
-338.21336600574256
20
-377.67988734408448
30
0
10
-335.12443298671423
20
-385.3863258726156
30
0
10
-332.66349335128609
20
-391.52601226465595
30
0
10
-331.15499774618797
20
-397.88066666861482
30
0
10
-330.65854974456647
20
-404.07946237418241
30
0
10
-330.19223221749132
20
-409.9020401161082
30
0
10
-330.62954170153955
20
-415.54240235929541
30
0
10
-331.5628316305864
20
-420.61453367997439
30
0
10
-332.55780154482233
20
-426.02187593029043
30
0
10
-334.05808761351716
20
-430.77529762249156
30
0
10
-335.47010973971368
20
-434.9569193989887
30
0
10
-337.13821799756147
20
-439.89692542804437
30
0
10
-338.66897775608669
20
-444.07143380505238
30
0
10
-339.72812654549421
20
-447.91262562459764
30
0
10
-340.88901987468938
20
-452.12281214802613
30
0
10
-341.54522430001737
20
-455.97159180124663
30
0
10
-341.61853147451274
20
-460.07470939880903
30
0
10
-341.68156842105839
20
-463.602986220937
30
0
10
-341.29519000166761
20
-467.33384544010448
30
0
10
-340.37782721348714
20
-471.14488337708252
30
0
10
-339.29928783595642
20
-475.6255038439827
30
0
10
-337.46077537194225
20
-480.18468450170292
30
0
10
-335.12707264910381
20
-484.07381250285817
30
0
10
-333.29147923758768
20
-487.13283868712756
30
0
10
-331.16506178530994
20
-489.74859610754709
30
0
10
-329.0978196458459
20
-491.6445289374285
30
0
10
-327.29076389241197
20
-493.3018366436508
30
0
10
-325.56289926838468
20
-494.40322827637635
30
0
10
-324.02090850273044
20
-495.07462011920654
30
0
10
-322.56613386900506
20
-495.70803754555857
30
0
10
-321.27954331922945
20
-496.00401964799124
30
0
10
-319.78701606584161
20
-496.05831599797796
30
0
10
-318.23151815350172
20
-496.11490314495325
30
0
10
-316.38481260254133
20
-495.90311375773399
30
0
10
-313.88728598882955
20
-495.03016309219362
30
0
10
-311.09133945576241
20
-494.05290688460968
30
0
10
-307.50069342802726
20
-492.19009723403303
30
0
10
-303.27450336075486
20
-488.99628551145071
30
0
10
-297.69898613615641
20
-484.78276174940311
30
0
10
-291.0801920150202
20
-478.26473350481831
30
0
10
-283.88650865972397
20
-469.26233831452396
30
0
10
-274.10581930827766
20
-457.02248476155933
30
0
10
-263.26501047276565
20
-440.24030839542803
30
0
10
-251.76712497443202
20
-419.04743418017983
30
0
10
-249.89895085540681
20
-415.60402024790329
30
0
10
-248.01237273828659
20
-412.04433026988158
30
0
10
-246.10813037090577
20
-408.36897629627049
30
0
10
-240.18878206016132
20
-396.94411740868787
30
0
10
-234.26943374941698
20
-385.51925852110537
30
0
10
-228.35008543867261
20
-374.09439963352281
30
0
0
LINE
5
243
100
AcDbEntity
8
0
100
AcDbLine
10
-495.61281466194612
20
-501.94437933705683
30
0
11
-511.51382369834619
21
-509.99999999999994
31
0
0
SPLINE
5
244
100
AcDbEntity
8
0
100
AcDbSpline
70
4
71
5
72
21
73
15
74
0
42
0.000000001
43
0.0000000001
44
0.0000000001
40
0.29972479132721308
40
0.29972479132721308
40
0.29972479132721308
40
0.29972479132721308
40
0.29972479132721308
40
0.29972479132721308
40
0.30666666666666659
40
0.3199999999999999
40
0.3333333333333332
40
0.34666666666666651
40
0.35999999999999982
40
0.37333333333333313
40
0.38666666666666644
40
0.39999999999999974
40
0.41333333333333305
40
0.41901915299395531
40
0.41901915299395531
40
0.41901915299395531
40
0.41901915299395531
40
0.41901915299395531
40
0.41901915299395531
41
1
41
1
41
1
41
1
41
1
41
1
41
1
41
1
41
1
41
1
41
1
41
1
41
1
41
1
41
1
10
-661.34691486996758
20
-485.50672259382515
30
0
10
-659.9998915356839
20
-484.84929685419002
30
0
10
-655.98524616436123
20
-482.76988972676151
30
0
10
-648.94089579330421
20
-478.63178125721186
30
0
10
-638.19939913712983
20
-471.82992669089521
30
0
10
-622.88388659787984
20
-463.17686402928672
30
0
10
-604.62623000356143
20
-456.36748713673001
30
0
10
-586.49792238570808
20
-454.14232035125701
30
0
10
-570.38310868049155
20
-457.3055564438547
30
0
10
-557.92613118836414
20
-465.66838589130754
30
0
10
-550.79664304068297
20
-476.53900916682665
30
0
10
-547.47115265953653
20
-485.90293616090776
30
0
10
-545.49287870600142
20
-492.14598729296893
30
0
10
-544.30308056460785
20
-495.5250320764286
30
0
10
-543.94087206070412
20
-496.50525640910973
30
0
0
ARC
5
245
100
AcDbEntity
8
0
100
AcDbCircle
10
-588.35008543867264
20
-299.99999999999977
30
0
40
210.00000000000017
210
0
220
0
230
1
100
AcDbArc
50
193.77414699802671
51
208.18014163202358
0
ARC
5
246
100
AcDbEntity
8
0
100
AcDbCircle
10
-588.35008543867264
20
-299.99999999999977
30
0
40
210.00000000000023
210
0
220
0
230
1
100
AcDbArc
50
246.15636072591607
51
270
0
LINE
5
247
100
AcDbEntity
8
0
100
AcDbLine
10
-661.34691486996758
20
-485.50672259382515
30
0
11
-673.24091748542583
21
-492.07692894881973
31
0
0
LINE
5
248
100
AcDbEntity
8
0
100
AcDbLine
10
-543.94087206070412
20
-496.50525640910962
30
0
11
-541.23330809624963
21
-510
31
0
0
LINE
5
249
100
AcDbEntity
8
0
100
AcDbLine
10
-338.10073013826639
20
-510
30
0
11
-511.51382369834619
21
-509.99999999999994
31
0
0
LINE
5
250
100
AcDbEntity
8
0
100
AcDbLine
10
-541.23330809624963
20
-510
30
0
11
-588.35008543867264
21
-510
31
0
0
LINE
5
251
100
AcDbEntity
8
0
100
AcDbLine
10
-228.35008543867269
20
-349.99999999999977
30
0
11
-361.90128181986069
21
-350.00000003220686
31
0
0
LINE
5
252
100
AcDbEntity
8
0
100
AcDbLine
10
-228.35008543867264
20
-510
30
0
11
-298.8160438800216
21
-509.99999657858496
31
0
0
LINE
5
253
100
AcDbEntity
8
0
100
AcDbLine
10
-95.856385979738292
20
-118.99723715602184
30
0
11
-95.865654299197374
21
-180.98563288192105
31
0
0
ARC
5
254
100
AcDbEntity
8
0
100
AcDbCircle
10
-99.606386435109414
20
-118.99805723017673
30
0
40
3.7500005450406499
210
0
220
0
230
1
100
AcDbArc
50
-0.029670419498487359
51
180.02968328881315
0
LINE
5
255
100
AcDbEntity
8
0
100
AcDbLine
10
-85.359451374108261
20
-139.49999986269179
30
0
11
-95.859451491470935
21
-139.49999984397564
31
0
0
LINE
5
256
100
AcDbEntity
8
0
100
AcDbLine
10
-85.362591231265142
20
-160.49999978969524
30
0
11
-95.862591348626353
21
-160.49999976102967
31
0
0
ARC
5
257
100
AcDbEntity
8
0
100
AcDbCircle
10
-99.615803818494143
20
-180.98507217078537
30
0
40
3.7501495612146831
210
0
220
0
230
1
100
AcDbArc
50
180.71510354537122
51
359.99143330657216
0
LINE
5
258
100
AcDbEntity
8
0
100
AcDbLine
10
-103.35638647689922
20
-118.9999999970824
30
0
11
-103.36566129719841
21
-181.03187623988518
31
0
0
LINE
5
259
100
AcDbEntity
8
0
100
AcDbLine
10
-85.385018782463717
20
-310.49999978963405
30
0
11
-95.862591348626353
21
-310.4999997610297
31
0
0
ARC
5
260
100
AcDbEntity
8
0
100
AcDbCircle
10
-99.615803818494143
20
-330.98507217078532
30
0
40
3.7501495612146836
210
0
220
0
230
1
100
AcDbArc
50
180.7151035453717
51
359.99143330657216
0
LINE
5
261
100
AcDbEntity
8
0
100
AcDbLine
10
-103.35638647689922
20
-268.9999999970824
30
0
11
-103.36566129719841
21
-331.03187623988515
31
0
0
ARC
5
262
100
AcDbEntity
8
0
100
AcDbCircle
10
-99.606386435109414
20
-268.9980572301767
30
0
40
3.7500005450406499
210
0
220
0
230
1
100
AcDbArc
50
-0.029670419498487359
51
180.02968328881315
0
LINE
5
263
100
AcDbEntity
8
0
100
AcDbLine
10
-85.381878925306836
20
-289.4999998626518
30
0
11
-95.859451491470935
21
-289.49999984397562
31
0
0
LINE
5
264
100
AcDbEntity
8
0
100
AcDbLine
10
-95.856385979738292
20
-268.99723715602187
30
0
11
-95.865654299197374
21
-330.98563288192105
31
0
0
LINE
5
265
100
AcDbEntity
8
0
100
AcDbLine
10
-103.35638647689922
20
-418.99999999708245
30
0
11
-103.36566129719841
21
-481.03187623988515
31
0
0
ARC
5
266
100
AcDbEntity
8
0
100
AcDbCircle
10
-99.606386435109414
20
-418.99805723017676
30
0
40
3.7500005450406499
210
0
220
0
230
1
100
AcDbArc
50
-0.029670419498487359
51
180.02968328881315
0
LINE
5
267
100
AcDbEntity
8
0
100
AcDbLine
10
-95.856385979738292
20
-418.99723715602192
30
0
11
-95.865654299197374
21
-480.98563288192111
31
0
0
ARC
5
268
100
AcDbEntity
8
0
100
AcDbCircle
10
-99.615803818494143
20
-480.98507217078532
30
0
40
3.7501495612146836
210
0
220
0
230
1
100
AcDbArc
50
180.7151035453717
51
359.99143330657216
0
LINE
5
269
100
AcDbEntity
8
0
100
AcDbLine
10
-85.407446333662307
20
-460.49999978957288
30
0
11
-95.862591348626353
21
-460.4999997610297
31
0
0
LINE
5
270
100
AcDbEntity
8
0
100
AcDbLine
10
-85.404306476505411
20
-439.4999998626119
30
0
11
-95.859451491470935
21
-439.49999984397573
31
0
0
LINE
5
271
100
AcDbEntity
8
0
100
AcDbLine
10
-543.95597140011762
20
-103.48993300569818
30
0
11
-541.16989049486074
21
-89.607800121725603
31
0
0
LINE
5
272
100
AcDbEntity
8
0
100
AcDbLine
10
-85.356535859538965
20
-120.00044855101876
30
0
11
-95.856535742173449
21
-119.99887862245238
31
0
0
LINE
5
273
100
AcDbEntity
8
0
100
AcDbLine
10
-85.365506880018401
20
-180.00044855101874
30
0
11
-95.865506762652885
21
-179.99887862245237
31
0
0
LINE
5
274
100
AcDbEntity
8
0
100
AcDbLine
10
-85.378963343671543
20
-269.99999999999977
30
0
11
-95.856535675608811
21
-269.99843342473366
31
0
0
LINE
5
275
100
AcDbEntity
8
0
100
AcDbLine
10
-85.387934364150993
20
-329.99999999999977
30
0
11
-95.865506696088246
21
-329.99843342473378
31
0
0
LINE
5
276
100
AcDbEntity
8
0
100
AcDbLine
10
-85.356535859538965
20
-120.00044855101876
30
0
11
-85.365506880018401
21
-180.00044855101874
31
0
0
LINE
5
277
100
AcDbEntity
8
0
100
AcDbLine
10
-85.401390894870133
20
-419.99999999999977
30
0
11
-95.856535676110184
21
-419.99843677803398
31
0
0
LINE
5
278
100
AcDbEntity
8
0
100
AcDbLine
10
-85.410361915349583
20
-479.99999999999977
30
0
11
-95.86550669658962
21
-479.99843677803398
31
0
0
LINE
5
279
100
AcDbEntity
8
0
100
AcDbLine
10
-85.378963343671543
20
-269.99999999999977
30
0
11
-85.387934364150993
21
-329.99999999999977
31
0
0
LINE
5
280
100
AcDbEntity
8
0
100
AcDbLine
10
-85.401390894870133
20
-419.99999999999977
30
0
11
-85.410361915349583
21
-479.99999999999977
31
0
0
ENDSEC
0
SECTION
2
OBJECTS
0
DICTIONARY
5
C
100
AcDbDictionary
3
ACAD_GROUP
350
D
3
ACAD_MLINESTYLE
350
17
0
DICTIONARY
5
D
100
AcDbDictionary
0
DICTIONARY
5
1A
330
C
100
AcDbDictionary
0
DICTIONARY
5
17
100
AcDbDictionary
0
ENDSEC
0
EOF
