0
SECTION
2
HEADER
9
$INSUNITS
70
4
9
$ACADVER
1
AC1014
9
$HANDSEED
5
FFFF
0
ENDSEC
0
SECTION
2
TABLES
0
TABLE
2
VPORT
5
8
100
AcDbSymbolTable
0
ENDTAB
0
TABLE
2
LTYPE
5
5
100
AcDbSymbolTable
0
LTYPE
5
14
100
AcDbSymbolTableRecord
100
AcDbLinetypeTableRecord
2
BYBLOCK
70
0
0
LTYPE
5
15
100
AcDbSymbolTableRecord
100
AcDbLinetypeTableRecord
2
BYLAYER
70
0
0
ENDTAB
0
TABLE
2
LAYER
5
2
100
AcDbSymbolTable
70
2
0
LAYER
5
50
100
AcDbSymbolTableRecord
100
AcDbLayerTableRecord
2
0
70
0
6
CONTINUOUS
0
ENDTAB
0
TABLE
2
STYLE
5
3
100
AcDbSymbolTable
70
1
0
STYLE
5
11
100
AcDbSymbolTableRecord
100
AcDbTextStyleTableRecord
2
STANDARD
70
0
0
ENDTAB
0
TABLE
2
VIEW
5
6
100
AcDbSymbolTable
70
0
0
ENDTAB
0
TABLE
2
UCS
5
7
100
AcDbSymbolTable
70
0
0
ENDTAB
0
TABLE
2
APPID
5
9
100
AcDbSymbolTable
70
2
0
APPID
5
12
100
AcDbSymbolTableRecord
100
AcDbRegAppTableRecord
2
ACAD
70
0
0
ENDTAB
0
TABLE
2
DIMSTYLE
5
A
100
AcDbSymbolTable
70
1
0
ENDTAB
0
TABLE
2
BLOCK_RECORD
5
1
100
AcDbSymbolTable
70
1
0
BLOCK_RECORD
5
1F
100
AcDbSymbolTableRecord
100
AcDbBlockTableRecord
2
*MODEL_SPACE
0
BLOCK_RECORD
5
1B
100
AcDbSymbolTableRecord
100
AcDbBlockTableRecord
2
*PAPER_SPACE
0
ENDTAB
0
ENDSEC
0
SECTION
2
BLOCKS
0
BLOCK
5
20
100
AcDbEntity
100
AcDbBlockBegin
2
*MODEL_SPACE
0
ENDBLK
5
21
100
AcDbEntity
100
AcDbBlockEnd
0
BLOCK
5
1C
100
AcDbEntity
100
AcDbBlockBegin
2
*PAPER_SPACE
0
ENDBLK
5
1D
100
AcDbEntity
100
AcDbBlockEnd
0
ENDSEC
0
SECTION
2
ENTITIES
0
ARC
5
100
100
AcDbEntity
8
0
100
AcDbCircle
10
-1073.2991544827255
20
74.784264338582204
30
-2.0471231058052012e-55
40
3.1749999999999199
210
-2.9928961055317203e-44
220
1.0193935894049724e-41
230
1
100
AcDbArc
50
35.517399160540279
51
225.33405501045868
0
LINE
5
101
100
AcDbEntity
8
0
100
AcDbLine
10
-1070.7148977220438
20
76.628781076069387
30
-1.8725541257498907e-41
11
-1060.2354033279094
21
66.210641244300319
31
1.0651548995990207e-40
0
ARC
5
102
100
AcDbEntity
8
0
100
AcDbCircle
10
-1062.4804673581764
20
63.965577214033082
30
-4.5096324814076336e-55
40
3.1749999999999661
210
-2.9928961055326124e-44
220
1.0193935894049756e-41
230
1
100
AcDbArc
50
-134.66356503909404
51
45.000000000002622
0
LINE
5
103
100
AcDbEntity
8
0
100
AcDbLine
10
-1064.7123099738124
20
61.707369176887099
30
2.2953231235368663e-41
11
-1092.5538981587622
21
33.701816168443145
31
2.8465354223698502e-40
0
ARC
5
104
100
AcDbEntity
8
0
100
AcDbCircle
10
-1085.4621005585639
20
26.651539096028067
30
1.9117102933589427e-55
40
9.9999999999999503
210
2.5269056543739895e-41
220
-1.4956930996854412e-41
230
1
100
AcDbArc
50
135.16821748045086
51
270.16821748044782
0
LINE
5
105
100
AcDbEntity
8
0
100
AcDbLine
10
-1085.4327411118104
20
16.651582194976683
30
1.0193979829031704e-40
11
-754.67581687271991
21
17.622670410823496
31
8.451351424445719e-50
0
ARC
5
106
100
AcDbEntity
8
0
100
AcDbCircle
10
-754.70517631947348
20
27.622627311874886
30
4.6199665422841116e-55
40
9.9999999999999485
210
-2.8036979625380448e-52
220
8.4505184954160883e-51
230
1
100
AcDbArc
50
-89.831782519551467
51
45.168217480446394
0
LINE
5
107
100
AcDbEntity
8
0
100
AcDbLine
10
-747.65489924705787
20
34.714424912072651
30
-7.2082322642062062e-41
11
-775.66045225549942
21
62.55601309702449
31
-2.846535422512537e-40
0
ARC
5
108
100
AcDbEntity
8
0
100
AcDbCircle
10
-777.91866029264497
20
64.787855712661226
30
-5.7032690418541792e-55
40
3.1750000000000806
210
-2.9928961055314017e-44
220
1.0193935894049801e-41
230
1
100
AcDbArc
50
135.00000000000398
51
315.33643496089064
0
LINE
5
109
100
AcDbEntity
8
0
100
AcDbLine
10
-780.16372432291246
20
67.032919742928399
30
-2.2953231236509814e-41
11
-769.3768004021166
21
77.883370071231198
31
-1.1028595364235705e-40
0
LINE
5
110
100
AcDbEntity
8
0
100
AcDbLine
10
-769.3768004021166
20
77.883370071231198
30
-1.1028595364235705e-40
11
-769.34494394100966
21
77.851700120957531
31
3.2379487364140849e-43
0
ARC
5
111
100
AcDbEntity
8
0
100
AcDbCircle
10
-767.09997316809563
20
75.606542837210512
30
-1.7205392640230485e-55
40
3.175000000000106
210
-2.9928961055303816e-44
220
1.0193935894049752e-41
230
1
100
AcDbArc
50
-44.661185088375298
51
134.99762004926748
0
LINE
5
112
100
AcDbEntity
8
0
100
AcDbLine
10
-764.84167242667252
20
73.374794024891216
30
2.2817892919345685e-41
11
-726.83865897842065
21
35.594277786040593
31
3.862695512924266e-40
0
ARC
5
113
100
AcDbEntity
8
0
100
AcDbCircle
10
-719.78838190600527
20
42.686075386238393
30
-5.9900255858580206e-55
40
9.9999999999998863
210
2.2121141184939221e-41
220
3.2475458235604782e-41
230
1
100
AcDbArc
50
225.16821748044745
51
315.1682174804464
0
LINE
5
114
100
AcDbEntity
8
0
100
AcDbLine
10
-712.69658430580751
20
35.635798313822775
30
7.2082322645681455e-41
11
-705.64601191548013
21
42.727892971120184
31
-2.3123925359010996e-49
0
ARC
5
115
100
AcDbEntity
8
0
100
AcDbCircle
10
-712.73780951567755
20
49.77817004353583
30
-4.2694863218349721e-55
40
9.9999999999998472
210
5.0820034828969665e-42
220
5.1119324109934054e-42
230
1
100
AcDbArc
50
-44.831782519555148
51
45.165817457840916
0
LINE
5
116
100
AcDbEntity
8
0
100
AcDbLine
10
-705.68723538612619
20
56.869672313414839
30
-7.2079303173114459e-41
11
-790.78526269920735
21
141.47656194213511
31
-8.6502410461545439e-40
0
ARC
5
117
100
AcDbEntity
8
0
100
AcDbCircle
10
-797.83583682875872
20
134.38505967225598
30
3.5685258809366931e-55
40
10.000000000000025
210
5.587723207106089e-41
220
6.6425634487221464e-41
230
1
100
AcDbArc
50
45.165817457841392
51
135.16821748044893
0
LINE
5
118
100
AcDbEntity
8
0
100
AcDbLine
10
-804.92763442895682
20
141.4353367446713
30
-7.2082322645678671e-41
11
-826.89863131977961
21
119.33494814662225
31
3.1329486041520321e-48
0
ARC
5
119
100
AcDbEntity
8
0
100
AcDbCircle
10
-833.99042891997738
20
126.38522521903759
30
0
40
9.9999999999999893
210
-2.9928961055302537e-44
220
1.0193935894049765e-41
230
1
100
AcDbArc
50
270.16821748044856
51
315.16821748044754
0
LINE
5
120
100
AcDbEntity
8
0
100
AcDbLine
10
-833.9610694732238
20
116.38526831798616
30
1.0193979829031731e-40
11
-1006.7287759002634
21
115.87802970408217
31
0
0
ARC
5
121
100
AcDbEntity
8
0
100
AcDbCircle
10
-1006.7581353470171
20
125.87798660513359
30
0
40
10.000000000000007
210
-2.9928961055304453e-44
220
1.0193935894049759e-41
230
1
100
AcDbArc
50
225.16821748045021
51
270.16821748044919
0
LINE
5
122
100
AcDbEntity
8
0
100
AcDbLine
10
-1013.8084124194322
20
118.78618900493534
30
7.2082322642067517e-41
11
-1018.9783392928654
21
123.92584737601028
31
-1.7434695280314481e-49
0
ARC
5
123
100
AcDbEntity
8
0
100
AcDbCircle
10
-1011.9280622204502
20
131.01764497620852
30
0
40
9.9999999999999485
210
-2.9928961055297523e-44
220
1.0193935894049761e-41
230
1
100
AcDbArc
50
182.87671898826858
51
225.16821748045012
0
LINE
5
124
100
AcDbEntity
8
0
100
AcDbLine
10
-1021.9154605422711
20
130.51577371653445
30
4.817130992765895e-42
11
-1030.8825423760359
21
308.96356551943967
31
-1.8193537255165365e-39
0
ARC
5
125
100
AcDbEntity
8
0
100
AcDbCircle
10
-1020.8951440542151
20
309.4654367791137
30
0
40
9.9999999999999361
210
-2.9928961055298081e-44
220
1.0193935894049761e-41
230
1
100
AcDbArc
50
180.16821748044686
51
182.87671898826844
0
LINE
5
126
100
AcDbEntity
8
0
100
AcDbLine
10
-1030.8951009552666
20
309.43607733236013
30
-2.5555246760262495e-51
11
-1030.9980457292163
21
344.49952084083179
31
-2.136942341460025e-48
0
ARC
5
127
100
AcDbEntity
8
0
100
AcDbCircle
10
-1040.9980026302676
20
344.47016139407845
30
-2.5489470578119236e-55
40
9.9999999999999361
210
-2.9928747106242078e-44
220
1.0193935894678015e-41
230
1
100
AcDbArc
50
0.16821748044685061
51
90.168217480449172
0
LINE
5
128
100
AcDbEntity
8
0
100
AcDbLine
10
-1041.0273620770213
20
354.47011829512979
30
-1.0193979829031804e-40
11
-1161.026844889514
21
354.11780493408662
31
0
0
ARC
5
129
100
AcDbEntity
8
0
100
AcDbCircle
10
-1160.9974854427603
20
344.11784803303527
30
5.7351308800768282e-56
40
9.9999999999999361
210
-2.554711323138495e-52
220
-7.4431718767675033e-55
230
1
100
AcDbArc
50
90.168217480449172
51
180.16821748044686
0
LINE
5
130
100
AcDbEntity
8
0
100
AcDbLine
10
-1170.9974423438118
20
344.08848858628164
30
-2.5553975723787089e-51
11
-1170.9680828970584
21
334.08853168523126
31
-2.665299481396629e-49
0
ARC
5
131
100
AcDbEntity
8
0
100
AcDbCircle
10
-1160.9681259960068
20
334.11789113198472
30
-1.9117102933589427e-55
40
10.000000000000078
210
-2.9928987452535002e-44
220
1.0193935893972372e-41
230
1
100
AcDbArc
50
180.16821748044686
51
270.16821748044919
0
LINE
5
132
100
AcDbEntity
8
0
100
AcDbLine
10
-1160.9387665492532
20
324.11793423093337
30
1.0193979829031764e-40
11
-1107.3068269965183
21
324.27539531693219
31
1.3714655663057248e-50
0
ARC
5
133
100
AcDbEntity
8
0
100
AcDbCircle
10
-1104.1318406804344
20
324.28471694127632
30
1.8479866169136446e-55
40
3.1750000000000429
210
-2.9928961055130801e-44
220
1.0193935894049705e-41
230
1
100
AcDbArc
50
0.16821748045118387
51
180.16821748044467
0
LINE
5
134
100
AcDbEntity
8
0
100
AcDbLine
10
-1100.9568543643504
20
324.29403856562078
30
8.09079502024225e-52
11
-1100.9119344108176
21
308.99410450701214
31
-9.3805172008053705e-49
0
ARC
5
135
100
AcDbEntity
8
0
100
AcDbCircle
10
-1104.0869207269013
20
308.98478288266756
30
3.6322495573819912e-55
40
3.1750000000000416
210
-2.9928961055305086e-44
220
1.0193935894049814e-41
230
1
100
AcDbArc
50
-179.83178251955533
51
0.1682174804533505
0
LINE
5
136
100
AcDbEntity
8
0
100
AcDbLine
10
-1107.2619070429851
20
308.97546125832343
30
-8.1270540755171495e-52
11
-1158.9765650414463
21
308.8236292291557
31
-1.3224398383597682e-50
0
ARC
5
137
100
AcDbEntity
8
0
100
AcDbCircle
10
-1158.9472055946926
20
298.82367232810418
30
1.6249537493551013e-55
40
10.000000000000043
210
-2.5943675320276373e-52
220
1.3217000923315271e-51
230
1
100
AcDbArc
50
90.168217480449172
51
190.16705223011829
0
LINE
5
138
100
AcDbEntity
8
0
100
AcDbLine
10
-1168.7901783676673
20
297.05848480535116
30
1.7699618499130426e-41
11
-1123.8162008846202
21
46.276270365282031
31
2.5578038417904976e-39
0
ARC
5
139
100
AcDbEntity
8
0
100
AcDbCircle
10
-1113.9732281116455
20
48.041457888035097
30
1.2744735289059618e-56
40
10.000000000000096
210
2.4999183814268648e-40
220
5.5031538708511811e-41
230
1
100
AcDbArc
50
190.16705223011857
51
315.16821748045112
0
LINE
5
140
100
AcDbEntity
8
0
100
AcDbLine
10
-1106.8814305114472
20
40.991180815620083
30
7.2082322645675816e-41
11
-1075.5310908978167
21
72.526149009598967
31
2.2952283366980711e-41
0
ENDSEC
0
SECTION
2
OBJECTS
0
DICTIONARY
5
C
100
AcDbDictionary
3
ACAD_GROUP
350
D
3
ACAD_MLINESTYLE
350
17
0
DICTIONARY
5
D
100
AcDbDictionary
0
DICTIONARY
5
1A
330
C
100
AcDbDictionary
0
DICTIONARY
5
17
100
AcDbDictionary
0
ENDSEC
0
EOF
