0
SECTION
2
HEADER
9
$INSUNITS
70
4
9
$ACADVER
1
AC1014
9
$HANDSEED
5
FFFF
0
ENDSEC
0
SECTION
2
TABLES
0
TABLE
2
VPORT
5
8
100
AcDbSymbolTable
0
ENDTAB
0
TABLE
2
LTYPE
5
5
100
AcDbSymbolTable
0
LTYPE
5
14
100
AcDbSymbolTableRecord
100
AcDbLinetypeTableRecord
2
BYBLOCK
70
0
0
LTYPE
5
15
100
AcDbSymbolTableRecord
100
AcDbLinetypeTableRecord
2
BYLAYER
70
0
0
ENDTAB
0
TABLE
2
LAYER
5
2
100
AcDbSymbolTable
70
2
0
LAYER
5
50
100
AcDbSymbolTableRecord
100
AcDbLayerTableRecord
2
0
70
0
6
CONTINUOUS
0
ENDTAB
0
TABLE
2
STYLE
5
3
100
AcDbSymbolTable
70
1
0
STYLE
5
11
100
AcDbSymbolTableRecord
100
AcDbTextStyleTableRecord
2
STANDARD
70
0
0
ENDTAB
0
TABLE
2
VIEW
5
6
100
AcDbSymbolTable
70
0
0
ENDTAB
0
TABLE
2
UCS
5
7
100
AcDbSymbolTable
70
0
0
ENDTAB
0
TABLE
2
APPID
5
9
100
AcDbSymbolTable
70
2
0
APPID
5
12
100
AcDbSymbolTableRecord
100
AcDbRegAppTableRecord
2
ACAD
70
0
0
ENDTAB
0
TABLE
2
DIMSTYLE
5
A
100
AcDbSymbolTable
70
1
0
ENDTAB
0
TABLE
2
BLOCK_RECORD
5
1
100
AcDbSymbolTable
70
1
0
BLOCK_RECORD
5
1F
100
AcDbSymbolTableRecord
100
AcDbBlockTableRecord
2
*MODEL_SPACE
0
BLOCK_RECORD
5
1B
100
AcDbSymbolTableRecord
100
AcDbBlockTableRecord
2
*PAPER_SPACE
0
ENDTAB
0
ENDSEC
0
SECTION
2
BLOCKS
0
BLOCK
5
20
100
AcDbEntity
100
AcDbBlockBegin
2
*MODEL_SPACE
0
ENDBLK
5
21
100
AcDbEntity
100
AcDbBlockEnd
0
BLOCK
5
1C
100
AcDbEntity
100
AcDbBlockBegin
2
*PAPER_SPACE
0
ENDBLK
5
1D
100
AcDbEntity
100
AcDbBlockEnd
0
ENDSEC
0
SECTION
2
ENTITIES
0
LINE
5
100
100
AcDbEntity
8
0
100
AcDbLine
10
352.87494979918938
20
-192.60893391091517
30
7.1054273576010019e-14
11
338.62674815828001
21
-178.3607322700058
31
7.1054273576009842e-14
0
SPLINE
5
101
100
AcDbEntity
8
0
100
AcDbSpline
70
4
71
5
72
16
73
10
74
0
42
0.000000001
43
0.0000000001
44
0.0000000001
40
0.51458779748572736
40
0.51458779748572736
40
0.51458779748572736
40
0.51458779748572736
40
0.51458779748572736
40
0.51458779748572736
40
0.59999999999999998
40
0.69999999999999996
40
0.79999999999999993
40
0.89999999999999991
40
1
40
1
40
1
40
1
40
1
40
1
41
1
41
1
41
1
41
1
41
1
41
1
41
1
41
1
41
1
41
1
10
44.840124107791233
20
-571.05062835650983
30
7.1054273576010019e-14
10
56.811893534133837
20
-558.86417874518202
30
7.1054273576010019e-14
10
82.459237874384584
20
-532.06903280018264
30
7.1054273576010019e-14
10
120.80371999891845
20
-489.68675339190361
30
7.1054273576010019e-14
10
170.28497516383456
20
-430.1569757765227
30
7.1054273576010019e-14
10
228.97803258286714
20
-351.55472916799158
30
7.1054273576010019e-14
10
274.49633524495152
20
-283.93594684045189
30
7.1054273576010019e-14
10
307.13527845151356
20
-231.72207630503237
30
7.1054273576010019e-14
10
328.23887765054735
20
-196.25713300951961
30
7.1054273576010019e-14
10
338.62674815828001
20
-178.36073227000577
30
7.1054273576010019e-14
0
SPLINE
5
102
100
AcDbEntity
8
0
100
AcDbSpline
70
0
71
3
72
14
73
10
74
0
42
0.000000001
43
0.0000000001
44
0.0000000001
40
0
40
0
40
0
40
0
40
0.27345113137084742
40
0.27345113137084742
40
0.54690226274169706
40
0.54690226274169706
40
0.82035339411254782
40
0.82035339411254782
40
1.0967985152355699
40
1.0967985152355699
40
1.0967985152355699
40
1.0967985152355699
10
44.883912501812055
20
-580.90594404793285
30
7.1054273576010019e-14
10
44.239382004093869
20
-580.26141355021468
30
7.1054273576010019e-14
10
43.726904707661589
20
-579.49715397691944
30
7.1054273576010019e-14
10
43.023748138000826
20
-577.8152124385615
30
7.1054273576010019e-14
10
42.839791424828277
20
-576.91361075133443
30
7.1054273576010019e-14
10
42.827829885352784
20
-575.09064245169657
30
7.1054273576010019e-14
10
42.999939417886779
20
-574.18670440982487
30
7.1054273576010019e-14
10
43.684692264492469
20
-572.4864230376113
30
7.1054273576010019e-14
10
44.194352487973624
20
-571.70798008331599
30
7.1054273576010019e-14
10
44.840124107791233
20
-571.05062835650983
30
7.1054273576010019e-14
0
LINE
5
103
100
AcDbEntity
8
0
100
AcDbLine
10
44.883912501812055
20
-580.90594404793285
30
7.1054273576010019e-14
11
84.987545746668417
21
-621.00957729279173
31
7.1054273576010145e-14
0
ARC
5
104
100
AcDbEntity
8
0
100
AcDbCircle
10
87.232609776935575
20
-623.2546413230591
30
7.1054273576010019e-14
40
3.1750000000000052
210
-8.7843920550304709e-31
220
-8.7843920550398526e-31
230
1
100
AcDbArc
50
-44.999999999969724
51
134.9999999999973
0
LINE
5
105
100
AcDbEntity
8
0
100
AcDbLine
10
89.47767380720407
20
-625.49970535332523
30
7.1054273576010019e-14
11
78.658940055050408
21
-636.31843910547991
31
7.1054273576010019e-14
0
ARC
5
106
100
AcDbEntity
8
0
100
AcDbCircle
10
76.413876024781416
20
-634.07337507521322
30
7.1054273576010006e-14
40
3.1749999999999923
210
-8.784392055039469e-31
220
-8.7843920550398859e-31
230
1
100
AcDbArc
50
135.00000000000236
51
315.00000000002939
0
LINE
5
107
100
AcDbEntity
8
0
100
AcDbLine
10
74.168811994514087
20
-631.82831104494608
30
7.1054273576010006e-14
11
34.065178749661143
21
-591.7246778000906
31
7.1054273576009892e-14
0
SPLINE
5
108
100
AcDbEntity
8
0
100
AcDbSpline
70
0
71
3
72
14
73
10
74
0
42
0.000000001
43
0.0000000001
44
0.0000000001
40
0
40
0
40
0
40
0
40
0.27345113137085297
40
0.27345113137085297
40
0.54690226274170173
40
0.54690226274170173
40
0.82035339411255026
40
0.82035339411255026
40
1.0967985152358128
40
1.0967985152358128
40
1.0967985152358128
40
1.0967985152358128
10
24.209863058236504
20
-591.68088940607151
30
7.1054273576010019e-14
10
24.860095453995385
20
-591.04211170101007
30
7.1054273576010019e-14
10
25.628878763749299
20
-590.53644590488011
30
7.1054273576010019e-14
10
27.317002196739555
20
-589.84826295326025
30
7.1054273576010019e-14
10
28.220202939858176
20
-589.67232520187667
30
7.1054273576010019e-14
10
30.043205556307299
20
-589.67656316488842
30
7.1054273576010019e-14
10
30.945578531011385
20
-589.85669836204761
30
7.1054273576010019e-14
10
32.639708008739639
20
-590.55653299846279
30
7.1054273576010019e-14
10
33.413591350420539
20
-591.07309040084999
30
7.1054273576010019e-14
10
34.065178749661172
20
-591.7246778000906
30
7.1054273576010019e-14
0
SPLINE
5
109
100
AcDbEntity
8
0
100
AcDbSpline
70
4
71
5
72
16
73
10
74
0
42
0.000000001
43
0.0000000001
44
0.0000000001
40
0
40
0
40
0
40
0
40
0
40
0
40
0.10000000000000001
40
0.20000000000000001
40
0.30000000000000004
40
0.40000000000000002
40
0.48541220251426864
40
0.48541220251426864
40
0.48541220251426864
40
0.48541220251426864
40
0.48541220251426864
40
0.48541220251426864
41
1
41
1
41
1
41
1
41
1
41
1
41
1
41
1
41
1
41
1
10
-368.48003302826783
20
-885.46751345655457
30
7.1054273576010019e-14
10
-350.58363228874987
20
-875.07964294883504
30
7.1054273576010019e-14
10
-315.11868899322894
20
-853.9760437498237
30
7.1054273576010019e-14
10
-262.90481845779584
20
-821.3371005432798
30
7.1054273576010019e-14
10
-195.28603613024501
20
-775.81879788120114
30
7.1054273576010019e-14
10
-116.68378952171432
20
-717.12574046215639
30
7.1054273576010019e-14
10
-57.154011906344458
20
-667.64448529722404
30
7.1054273576010019e-14
10
-14.771732498077494
20
-629.30000317267684
30
7.1054273576010019e-14
10
12.023413446913141
20
-603.6526588324175
30
7.1054273576010019e-14
10
24.209863058236504
20
-591.68088940607151
30
7.1054273576010019e-14
0
LINE
5
110
100
AcDbEntity
8
0
100
AcDbLine
10
-368.48003302826783
20
-885.46751345655457
30
7.1054273576010019e-14
11
-354.2318313873588
21
-899.71571509746343
31
7.1054273576010069e-14
0
LINE
5
111
100
AcDbEntity
8
0
100
AcDbLine
10
-354.2318313873588
20
-899.71571509746343
30
7.1054273576010069e-14
11
-364.83843310515704
21
-910.3223168152615
31
7.1054273576010019e-14
0
LINE
5
112
100
AcDbEntity
8
0
100
AcDbLine
10
-364.83843310515704
20
-910.3223168152615
30
7.1054273576010019e-14
11
-294.33988702085816
21
-980.82086289956032
31
7.1054273576010246e-14
0
LINE
5
113
100
AcDbEntity
8
0
100
AcDbLine
10
-294.33988702085816
20
-980.82086289956032
30
7.1054273576010246e-14
11
-283.73328530306003
21
-970.21426118176237
31
7.1054273576010019e-14
0
LINE
5
114
100
AcDbEntity
8
0
100
AcDbLine
10
-283.73328530306003
20
-970.21426118176237
30
7.1054273576010019e-14
11
-269.48508366211433
21
-984.46246282270806
31
7.1054273576010069e-14
0
SPLINE
5
115
100
AcDbEntity
8
0
100
AcDbSpline
70
4
71
5
72
21
73
15
74
0
42
0.000000001
43
0.0000000001
44
0.0000000001
40
-1
40
-1
40
-1
40
-1
40
-1
40
-1
40
-0.89999999999999991
40
-0.79999999999999993
40
-0.69999999999999996
40
-0.59999999999999998
40
-0.5
40
-0.40000000000000002
40
-0.30000000000000004
40
-0.20000000000000001
40
-0.10000000000000001
40
0
40
0
40
0
40
0
40
0
40
0
41
1
41
1
41
1
41
1
41
1
41
1
41
1
41
1
41
1
41
1
41
1
41
1
41
1
41
1
41
1
10
437.62169752443384
20
-277.35568163615972
30
7.1054273576010019e-14
10
427.2338270167013
20
-295.25208237567364
30
7.1054273576010019e-14
10
406.13022781766654
20
-330.71702567118535
30
7.1054273576010019e-14
10
373.49128461109854
20
-382.93089620659896
30
7.1054273576010019e-14
10
327.9729819489981
20
-450.54967853412245
30
7.1054273576010019e-14
10
267.51605779767692
20
-531.51411062026284
30
7.1054273576010019e-14
10
203.18201928559483
20
-608.6014283459466
30
7.1054273576010019e-14
10
134.65446439276934
20
-681.49522969104282
30
7.1054273576010019e-14
10
61.76066304762908
20
-750.02278458382659
30
7.1054273576010019e-14
10
-15.326654678090767
20
-814.35682309588049
30
7.1054273576010019e-14
10
-96.291086764249144
20
-874.81374724719717
30
7.1054273576010019e-14
10
-163.90986909175979
20
-920.33204990931597
30
7.1054273576010019e-14
10
-216.12373962714258
20
-952.97099311590978
30
7.1054273576010019e-14
10
-251.58868292262039
20
-974.07459231496478
30
7.1054273576010019e-14
10
-269.48508366211439
20
-984.46246282270795
30
7.1054273576010019e-14
0
LINE
5
116
100
AcDbEntity
8
0
100
AcDbLine
10
437.62169752443384
20
-277.35568163615972
30
7.1054273576010019e-14
11
423.3734958834882
21
-263.10747999521413
31
7.1054273576009968e-14
0
LINE
5
117
100
AcDbEntity
8
0
100
AcDbLine
10
423.3734958834882
20
-263.10747999521413
30
7.1054273576009968e-14
11
433.9800976012865
21
-252.50087827741581
31
7.1054273576010019e-14
0
LINE
5
118
100
AcDbEntity
8
0
100
AcDbLine
10
433.9800976012865
20
-252.50087827741581
30
7.1054273576010019e-14
11
363.48155151698757
21
-182.0023321931171
31
7.1054273576009791e-14
0
LINE
5
119
100
AcDbEntity
8
0
100
AcDbLine
10
363.48155151698757
20
-182.0023321931171
30
7.1054273576009791e-14
11
352.87494979918938
21
-192.60893391091517
31
7.1054273576010019e-14
0
ENDSEC
0
SECTION
2
OBJECTS
0
DICTIONARY
5
C
100
AcDbDictionary
3
ACAD_GROUP
350
D
3
ACAD_MLINESTYLE
350
17
0
DICTIONARY
5
D
100
AcDbDictionary
0
DICTIONARY
5
1A
330
C
100
AcDbDictionary
0
DICTIONARY
5
17
100
AcDbDictionary
0
ENDSEC
0
EOF
