999
"DXF R12 Output" (www.mydxf.blogspot.com)
 0 
SECTION
 2 
HEADER
 9 
$ACADVER
 1 
AC1009
 9 
$EXTMIN
 10 
 0 
 20 
 0 
 9 
$EXTMAX
 10 
 8.5 
 20 
 11 
 0 
ENDSEC
 0 
SECTION
 2 
ENTITIES
0
LINE
8
Layer 1
10
5.890340
20
64.251400
11
4.845306
21
64.473442
0
LINE
8
Layer 1
10
4.845306
20
64.473442
11
4.056930
21
64.893059
0
LINE
8
Layer 1
10
4.056930
20
64.893059
11
3.729442
21
65.113984
0
LINE
8
Layer 1
10
3.729442
20
65.113984
11
3.334235
21
65.458282
0
LINE
8
Layer 1
10
3.334235
20
65.458282
11
3.090996
21
65.781712
0
LINE
8
Layer 1
10
3.090996
20
65.781712
11
2.850680
21
66.252155
0
LINE
8
Layer 1
10
2.850680
20
66.252155
11
2.802601
21
68.634725
0
LINE
8
Layer 1
10
2.802601
20
68.634725
11
2.750873
21
71.593965
0
LINE
8
Layer 1
10
2.750873
20
71.593965
11
2.695068
21
76.556385
0
LINE
8
Layer 1
10
2.695068
20
76.556385
11
2.733254
21
79.105885
0
LINE
8
Layer 1
10
2.733254
20
79.105885
11
2.699535
21
79.294574
0
LINE
8
Layer 1
10
2.699535
20
79.294574
11
2.709689
21
79.592570
0
LINE
8
Layer 1
10
2.709689
20
79.592570
11
3.078306
21
80.009321
0
LINE
8
Layer 1
10
3.078306
20
80.009321
11
3.435153
21
80.333521
0
LINE
8
Layer 1
10
3.435153
20
80.333521
11
3.874537
21
80.616610
0
LINE
8
Layer 1
10
3.874537
20
80.616610
11
4.493563
21
80.790553
0
LINE
8
Layer 1
10
4.493563
20
80.790553
11
5.551973
21
80.987478
0
LINE
8
Layer 1
10
5.551973
20
80.987478
11
7.321833
21
81.139411
0
LINE
8
Layer 1
10
7.321833
20
81.139411
11
8.585943
21
81.005083
0
LINE
8
Layer 1
10
8.585943
20
81.005083
11
8.864656
21
80.941737
0
LINE
8
Layer 1
10
8.864656
20
80.941737
11
9.553179
21
80.712586
0
LINE
8
Layer 1
10
9.553179
20
80.712586
11
9.841837
21
80.545611
0
LINE
8
Layer 1
10
9.841837
20
80.545611
11
10.543492
21
80.053908
0
LINE
8
Layer 1
10
10.543492
20
80.053908
11
10.912747
21
79.644083
0
LINE
8
Layer 1
10
10.912747
20
79.644083
11
10.974603
21
79.484827
0
LINE
8
Layer 1
10
10.974603
20
79.484827
11
11.053523
21
78.453337
0
LINE
8
Layer 1
10
11.053523
20
78.453337
11
11.103873
21
76.465337
0
LINE
8
Layer 1
10
11.103873
20
76.465337
11
11.058748
21
68.953417
0
LINE
8
Layer 1
10
11.058748
20
68.953417
11
11.047076
21
66.931257
0
LINE
8
Layer 1
10
11.047076
20
66.931257
11
11.010718
21
66.339158
0
LINE
8
Layer 1
10
11.010718
20
66.339158
11
10.736803
21
65.840007
0
LINE
8
Layer 1
10
10.736803
20
65.840007
11
10.320589
21
65.317854
0
LINE
8
Layer 1
10
10.320589
20
65.317854
11
9.551933
21
64.816577
0
LINE
8
Layer 1
10
9.551933
20
64.816577
11
8.797786
21
64.469125
0
LINE
8
Layer 1
10
8.797786
20
64.469125
11
7.874133
21
64.264995
0
LINE
8
Layer 1
10
7.874133
20
64.264995
11
5.890343
21
64.251414
0
LINE
8
Layer 1
10
5.890343
20
64.251414
11
5.890340
21
64.251400
0
LINE
8
Layer 1
10
7.833730
20
64.768313
11
9.117460
21
65.116216
0
LINE
8
Layer 1
10
9.117460
20
65.116216
11
9.724006
21
65.453457
0
LINE
8
Layer 1
10
9.724006
20
65.453457
11
10.245299
21
65.853913
0
LINE
8
Layer 1
10
10.245299
20
65.853913
11
10.500906
21
66.206629
0
LINE
8
Layer 1
10
10.500906
20
66.206629
11
10.654718
21
66.403911
0
LINE
8
Layer 1
10
10.654718
20
66.403911
11
10.635439
21
66.722599
0
LINE
8
Layer 1
10
10.635439
20
66.722599
11
10.682249
21
74.617859
0
LINE
8
Layer 1
10
10.682249
20
74.617859
11
10.683236
21
75.235026
0
LINE
8
Layer 1
10
10.683236
20
75.235026
11
10.534701
21
75.158325
0
LINE
8
Layer 1
10
10.534701
20
75.158325
11
10.051715
21
74.854081
0
LINE
8
Layer 1
10
10.051715
20
74.854081
11
9.373231
21
74.675313
0
LINE
8
Layer 1
10
9.373231
20
74.675313
11
7.792491
21
74.446272
0
LINE
8
Layer 1
10
7.792491
20
74.446272
11
6.191811
21
74.371560
0
LINE
8
Layer 1
10
6.191811
20
74.371560
11
5.690668
21
74.420300
0
LINE
8
Layer 1
10
5.690668
20
74.420300
11
4.383588
21
74.801565
0
LINE
8
Layer 1
10
4.383588
20
74.801565
11
3.984967
21
74.995474
0
LINE
8
Layer 1
10
3.984967
20
74.995474
11
3.668819
21
75.193360
0
LINE
8
Layer 1
10
3.668819
20
75.193360
11
3.317398
21
75.410828
0
LINE
8
Layer 1
10
3.317398
20
75.410828
11
3.115346
21
75.515359
0
LINE
8
Layer 1
10
3.115346
20
75.515359
11
3.132003
21
72.990119
0
LINE
8
Layer 1
10
3.132003
20
72.990119
11
3.234023
21
68.491739
0
LINE
8
Layer 1
10
3.234023
20
68.491739
11
3.247697
21
66.360749
0
LINE
8
Layer 1
10
3.247697
20
66.360749
11
3.444731
21
66.124344
0
LINE
8
Layer 1
10
3.444731
20
66.124344
11
3.705935
21
65.788270
0
LINE
8
Layer 1
10
3.705935
20
65.788270
11
3.953134
21
65.586488
0
LINE
8
Layer 1
10
3.953134
20
65.586488
11
4.328008
21
65.329535
0
LINE
8
Layer 1
10
4.328008
20
65.329535
11
4.712884
21
65.095029
0
LINE
8
Layer 1
10
4.712884
20
65.095029
11
5.027996
21
64.957589
0
LINE
8
Layer 1
10
5.027996
20
64.957589
11
6.514146
21
64.708947
0
LINE
8
Layer 1
10
6.514146
20
64.708947
11
7.833716
21
64.768310
0
LINE
8
Layer 1
10
7.833716
20
64.768310
11
7.833730
21
64.768313
0
LINE
8
Layer 1
10
6.284740
20
65.776513
11
6.307865
21
65.951357
0
LINE
8
Layer 1
10
6.307865
20
65.951357
11
7.049948
21
66.001462
0
LINE
8
Layer 1
10
7.049948
20
66.001462
11
7.695545
21
65.981112
0
LINE
8
Layer 1
10
7.695545
20
65.981112
11
7.806236
21
65.859943
0
LINE
8
Layer 1
10
7.806236
20
65.859943
11
7.699238
21
65.740290
0
LINE
8
Layer 1
10
7.699238
20
65.740290
11
7.035247
21
65.721009
0
LINE
8
Layer 1
10
7.035247
20
65.721009
11
6.284739
21
65.776513
0
LINE
8
Layer 1
10
6.284739
20
65.776513
11
6.284740
21
65.776513
0
LINE
8
Layer 1
10
7.558820
20
74.902173
11
8.191117
21
74.992741
0
LINE
8
Layer 1
10
8.191117
20
74.992741
11
8.878396
21
75.084513
0
LINE
8
Layer 1
10
8.878396
20
75.084513
11
9.892916
21
75.271416
0
LINE
8
Layer 1
10
9.892916
20
75.271416
11
10.481240
21
75.656474
0
LINE
8
Layer 1
10
10.481240
20
75.656474
11
10.593611
21
75.748483
0
LINE
8
Layer 1
10
10.593611
20
75.748483
11
10.691901
21
75.799976
0
LINE
8
Layer 1
10
10.691901
20
75.799976
11
10.674796
21
77.278416
0
LINE
8
Layer 1
10
10.674796
20
77.278416
11
10.651577
21
78.765276
0
LINE
8
Layer 1
10
10.651577
20
78.765276
11
10.511063
21
78.642787
0
LINE
8
Layer 1
10
10.511063
20
78.642787
11
9.924078
21
78.150407
0
LINE
8
Layer 1
10
9.924078
20
78.150407
11
8.831048
21
77.902264
0
LINE
8
Layer 1
10
8.831048
20
77.902264
11
7.118958
21
77.848793
0
LINE
8
Layer 1
10
7.118958
20
77.848793
11
5.682727
21
77.881741
0
LINE
8
Layer 1
10
5.682727
20
77.881741
11
4.754718
21
78.033223
0
LINE
8
Layer 1
10
4.754718
20
78.033223
11
3.772009
21
78.473694
0
LINE
8
Layer 1
10
3.772009
20
78.473694
11
3.088546
21
78.832727
0
LINE
8
Layer 1
10
3.088546
20
78.832727
11
3.061334
21
78.385046
0
LINE
8
Layer 1
10
3.061334
20
78.385046
11
3.094826
21
77.018866
0
LINE
8
Layer 1
10
3.094826
20
77.018866
11
3.111139
21
76.100366
0
LINE
8
Layer 1
10
3.111139
20
76.100366
11
3.238777
21
76.031370
0
LINE
8
Layer 1
10
3.238777
20
76.031370
11
4.081185
21
75.508777
0
LINE
8
Layer 1
10
4.081185
20
75.508777
11
5.080938
21
75.090607
0
LINE
8
Layer 1
10
5.080938
20
75.090607
11
6.252985
21
74.844632
0
LINE
8
Layer 1
10
6.252985
20
74.844632
11
7.558815
21
74.902175
0
LINE
8
Layer 1
10
7.558815
20
74.902175
11
7.558820
21
74.902173
0
LINE
8
Layer 1
10
6.994730
20
75.532100
11
6.974975
21
75.947634
0
LINE
8
Layer 1
10
6.974975
20
75.947634
11
6.967758
21
76.325228
0
LINE
8
Layer 1
10
6.967758
20
76.325228
11
6.677748
21
76.317233
0
LINE
8
Layer 1
10
6.677748
20
76.317233
11
6.321353
21
76.368577
0
LINE
8
Layer 1
10
6.321353
20
76.368577
11
6.285972
21
76.503052
0
LINE
8
Layer 1
10
6.285972
20
76.503052
11
6.737521
21
76.617164
0
LINE
8
Layer 1
10
6.737521
20
76.617164
11
6.981500
21
76.617100
0
LINE
8
Layer 1
10
6.981500
20
76.617100
11
6.981500
21
76.918700
0
LINE
8
Layer 1
10
6.981500
20
76.918700
11
7.097254
21
77.370461
0
LINE
8
Layer 1
10
7.097254
20
77.370461
11
7.198689
21
76.919910
0
LINE
8
Layer 1
10
7.198689
20
76.919910
11
7.201427
21
76.630807
0
LINE
8
Layer 1
10
7.201427
20
76.630807
11
7.486324
21
76.642449
0
LINE
8
Layer 1
10
7.486324
20
76.642449
11
7.806023
21
76.625653
0
LINE
8
Layer 1
10
7.806023
20
76.625653
11
7.888705
21
76.513581
0
LINE
8
Layer 1
10
7.888705
20
76.513581
11
7.819623
21
76.398503
0
LINE
8
Layer 1
10
7.819623
20
76.398503
11
7.510294
21
76.354238
0
LINE
8
Layer 1
10
7.510294
20
76.354238
11
7.207311
21
76.335097
0
LINE
8
Layer 1
10
7.207311
20
76.335097
11
7.190925
21
76.225731
0
LINE
8
Layer 1
10
7.190925
20
76.225731
11
7.174237
21
75.841687
0
LINE
8
Layer 1
10
7.174237
20
75.841687
11
7.140946
21
75.530587
0
LINE
8
Layer 1
10
7.140946
20
75.530587
11
6.994720
21
75.532168
0
LINE
8
Layer 1
10
6.994720
20
75.532168
11
6.994730
21
75.532100
0
LINE
8
Layer 1
10
8.346140
20
78.378090
11
9.436525
21
78.492560
0
LINE
8
Layer 1
10
9.436525
20
78.492560
11
9.972060
21
78.742582
0
LINE
8
Layer 1
10
9.972060
20
78.742582
11
10.544338
21
79.304428
0
LINE
8
Layer 1
10
10.544338
20
79.304428
11
10.127317
21
79.789607
0
LINE
8
Layer 1
10
10.127317
20
79.789607
11
9.015857
21
80.376349
0
LINE
8
Layer 1
10
9.015857
20
80.376349
11
7.767607
21
80.659780
0
LINE
8
Layer 1
10
7.767607
20
80.659780
11
5.799387
21
80.594771
0
LINE
8
Layer 1
10
5.799387
20
80.594771
11
4.929245
21
80.442081
0
LINE
8
Layer 1
10
4.929245
20
80.442081
11
4.057346
21
80.252485
0
LINE
8
Layer 1
10
4.057346
20
80.252485
11
3.624905
21
79.969904
0
LINE
8
Layer 1
10
3.624905
20
79.969904
11
3.311441
21
79.705831
0
LINE
8
Layer 1
10
3.311441
20
79.705831
11
2.995293
21
79.406294
0
LINE
8
Layer 1
10
2.995293
20
79.406294
11
3.125877
21
79.332758
0
LINE
8
Layer 1
10
3.125877
20
79.332758
11
3.984974
21
78.917371
0
LINE
8
Layer 1
10
3.984974
20
78.917371
11
4.865353
21
78.532890
0
LINE
8
Layer 1
10
4.865353
20
78.532890
11
6.074303
21
78.368083
0
LINE
8
Layer 1
10
6.074303
20
78.368083
11
8.346143
21
78.378083
0
LINE
8
Layer 1
10
8.346143
20
78.378083
11
8.346140
21
78.378090
0
LINE
8
Layer 1
10
6.527900
20
78.822300
11
5.851362
21
78.968857
0
LINE
8
Layer 1
10
5.851362
20
78.968857
11
5.579623
21
79.155858
0
LINE
8
Layer 1
10
5.579623
20
79.155858
11
5.551965
21
79.439767
0
LINE
8
Layer 1
10
5.551965
20
79.439767
11
5.775814
21
79.452701
0
LINE
8
Layer 1
10
5.775814
20
79.452701
11
5.875211
21
79.422308
0
LINE
8
Layer 1
10
5.875211
20
79.422308
11
5.902039
21
79.690119
0
LINE
8
Layer 1
10
5.902039
20
79.690119
11
6.106239
21
80.242724
0
LINE
8
Layer 1
10
6.106239
20
80.242724
11
6.549223
21
80.475096
0
LINE
8
Layer 1
10
6.549223
20
80.475096
11
7.164739
21
80.499871
0
LINE
8
Layer 1
10
7.164739
20
80.499871
11
7.818241
21
80.269296
0
LINE
8
Layer 1
10
7.818241
20
80.269296
11
8.018772
21
79.810181
0
LINE
8
Layer 1
10
8.018772
20
79.810181
11
8.039914
21
79.619103
0
LINE
8
Layer 1
10
8.039914
20
79.619103
11
8.134601
21
79.696364
0
LINE
8
Layer 1
10
8.134601
20
79.696364
11
8.412581
21
79.717655
0
LINE
8
Layer 1
10
8.412581
20
79.717655
11
8.395007
21
79.375745
0
LINE
8
Layer 1
10
8.395007
20
79.375745
11
7.689024
21
78.875272
0
LINE
8
Layer 1
10
7.689024
20
78.875272
11
7.077724
21
78.816420
0
LINE
8
Layer 1
10
7.077724
20
78.816420
11
6.527902
21
78.822304
0
LINE
8
Layer 1
10
6.527902
20
78.822304
11
6.527900
21
78.822300
0
LINE
8
Layer 1
10
7.464422
20
79.260116
11
7.648506
21
79.315128
0
LINE
8
Layer 1
10
7.648506
20
79.315128
11
7.651506
21
79.436497
0
LINE
8
Layer 1
10
7.651506
20
79.436497
11
7.610376
21
79.519076
0
LINE
8
Layer 1
10
7.610376
20
79.519076
11
7.421362
21
79.452222
0
LINE
8
Layer 1
10
7.421362
20
79.452222
11
6.768448
21
79.405963
0
LINE
8
Layer 1
10
6.768448
20
79.405963
11
6.239243
21
79.365746
0
LINE
8
Layer 1
10
6.239243
20
79.365746
11
6.301099
21
79.303014
0
LINE
8
Layer 1
10
6.301099
20
79.303014
11
7.464419
21
79.260116
0
LINE
8
Layer 1
10
7.464419
20
79.260116
11
7.464422
21
79.260116
0
LINE
8
Layer 1
10
7.302098
20
79.895463
11
7.389949
21
80.021215
0
LINE
8
Layer 1
10
7.389949
20
80.021215
11
6.995249
21
80.060761
0
LINE
8
Layer 1
10
6.995249
20
80.060761
11
6.521027
21
79.988734
0
LINE
8
Layer 1
10
6.521027
20
79.988734
11
6.376698
21
79.891876
0
LINE
8
Layer 1
10
6.376698
20
79.891876
11
7.302098
21
79.895457
0
LINE
8
Layer 1
10
7.302098
20
79.895457
11
7.302098
21
79.895463
0
LINE
8
Layer 1
10
46.192300
20
65.530700
11
45.250226
21
65.888954
0
LINE
8
Layer 1
10
45.250226
20
65.888954
11
44.493645
21
66.705604
0
LINE
8
Layer 1
10
44.493645
20
66.705604
11
44.106230
21
67.625213
0
LINE
8
Layer 1
10
44.106230
20
67.625213
11
43.996003
21
69.800953
0
LINE
8
Layer 1
10
43.996003
20
69.800953
11
43.994310
21
71.131923
0
LINE
8
Layer 1
10
43.994310
20
71.131923
11
43.709043
21
71.146903
0
LINE
8
Layer 1
10
43.709043
20
71.146903
11
43.189337
21
71.336699
0
LINE
8
Layer 1
10
43.189337
20
71.336699
11
43.146998
21
71.553585
0
LINE
8
Layer 1
10
43.146998
20
71.553585
11
43.335206
21
71.904108
0
LINE
8
Layer 1
10
43.335206
20
71.904108
11
44.707506
21
73.684848
0
LINE
8
Layer 1
10
44.707506
20
73.684848
11
44.893558
21
73.704181
0
LINE
8
Layer 1
10
44.893558
20
73.704181
11
45.173915
21
73.442916
0
LINE
8
Layer 1
10
45.173915
20
73.442916
11
46.517005
21
71.708816
0
LINE
8
Layer 1
10
46.517005
20
71.708816
11
46.542292
21
71.309960
0
LINE
8
Layer 1
10
46.542292
20
71.309960
11
46.355276
21
71.190329
0
LINE
8
Layer 1
10
46.355276
20
71.190329
11
45.946191
21
71.179051
0
LINE
8
Layer 1
10
45.946191
20
71.179051
11
45.603351
21
71.197184
0
LINE
8
Layer 1
10
45.603351
20
71.197184
11
45.615204
21
70.251194
0
LINE
8
Layer 1
10
45.615204
20
70.251194
11
45.684606
21
68.588297
0
LINE
8
Layer 1
10
45.684606
20
68.588297
11
45.926461
21
67.987504
0
LINE
8
Layer 1
10
45.926461
20
67.987504
11
46.554400
21
67.596659
0
LINE
8
Layer 1
10
46.554400
20
67.596659
11
47.372741
21
67.528308
0
LINE
8
Layer 1
10
47.372741
20
67.528308
11
51.660421
21
67.634889
0
LINE
8
Layer 1
10
51.660421
20
67.634889
11
53.660754
21
67.672487
0
LINE
8
Layer 1
10
53.660754
20
67.672487
11
54.085111
21
67.847124
0
LINE
8
Layer 1
10
54.085111
20
67.847124
11
54.428296
21
68.454126
0
LINE
8
Layer 1
10
54.428296
20
68.454126
11
54.488663
21
68.871736
0
LINE
8
Layer 1
10
54.488663
20
68.871736
11
54.555423
21
69.236115
0
LINE
8
Layer 1
10
54.555423
20
69.236115
11
54.731040
21
69.413885
0
LINE
8
Layer 1
10
54.731040
20
69.413885
11
55.404098
21
69.439435
0
LINE
8
Layer 1
10
55.404098
20
69.439435
11
56.168256
21
69.420433
0
LINE
8
Layer 1
10
56.168256
20
69.420433
11
56.482711
21
69.062009
0
LINE
8
Layer 1
10
56.482711
20
69.062009
11
56.412350
21
68.082195
0
LINE
8
Layer 1
10
56.412350
20
68.082195
11
56.082464
21
67.154392
0
LINE
8
Layer 1
10
56.082464
20
67.154392
11
55.599029
21
66.339445
0
LINE
8
Layer 1
10
55.599029
20
66.339445
11
55.156151
21
65.877753
0
LINE
8
Layer 1
10
55.156151
20
65.877753
11
54.700321
21
65.630559
0
LINE
8
Layer 1
10
54.700321
20
65.630559
11
49.514941
21
65.514157
0
LINE
8
Layer 1
10
49.514941
20
65.514157
11
46.696861
21
65.484773
0
LINE
8
Layer 1
10
46.696861
20
65.484773
11
46.192152
21
65.530684
0
LINE
8
Layer 1
10
46.192152
20
65.530684
11
46.192300
21
65.530700
0
LINE
8
Layer 1
10
50.453130
20
66.094880
11
53.564070
21
66.127724
0
LINE
8
Layer 1
10
53.564070
20
66.127724
11
54.558081
21
66.128429
0
LINE
8
Layer 1
10
54.558081
20
66.128429
11
54.714963
21
66.220920
0
LINE
8
Layer 1
10
54.714963
20
66.220920
11
55.245182
21
66.677331
0
LINE
8
Layer 1
10
55.245182
20
66.677331
11
55.670431
21
67.320613
0
LINE
8
Layer 1
10
55.670431
20
67.320613
11
55.948665
21
68.067679
0
LINE
8
Layer 1
10
55.948665
20
68.067679
11
56.037843
21
68.835440
0
LINE
8
Layer 1
10
56.037843
20
68.835440
11
56.035303
21
68.932385
0
LINE
8
Layer 1
10
56.035303
20
68.932385
11
55.486200
21
68.932400
0
LINE
8
Layer 1
10
55.486200
20
68.932400
11
54.937100
21
68.932400
0
LINE
8
Layer 1
10
54.937100
20
68.932400
11
54.918530
21
68.701223
0
LINE
8
Layer 1
10
54.918530
20
68.701223
11
54.778773
21
68.029467
0
LINE
8
Layer 1
10
54.778773
20
68.029467
11
54.457825
21
67.514583
0
LINE
8
Layer 1
10
54.457825
20
67.514583
11
53.837504
21
67.119348
0
LINE
8
Layer 1
10
53.837504
20
67.119348
11
52.947582
21
67.084842
0
LINE
8
Layer 1
10
52.947582
20
67.084842
11
50.439632
21
67.054007
0
LINE
8
Layer 1
10
50.439632
20
67.054007
11
46.246222
21
67.089303
0
LINE
8
Layer 1
10
46.246222
20
67.089303
11
45.753592
21
67.405896
0
LINE
8
Layer 1
10
45.753592
20
67.405896
11
45.381158
21
67.863966
0
LINE
8
Layer 1
10
45.381158
20
67.863966
11
45.178540
21
68.813082
0
LINE
8
Layer 1
10
45.178540
20
68.813082
11
45.140268
21
71.139922
0
LINE
8
Layer 1
10
45.140268
20
71.139922
11
45.243387
21
71.640192
0
LINE
8
Layer 1
10
45.243387
20
71.640192
11
45.640729
21
71.736357
0
LINE
8
Layer 1
10
45.640729
20
71.736357
11
45.895649
21
71.750116
0
LINE
8
Layer 1
10
45.895649
20
71.750116
11
45.475686
21
72.305648
0
LINE
8
Layer 1
10
45.475686
20
72.305648
11
44.957555
21
72.992876
0
LINE
8
Layer 1
10
44.957555
20
72.992876
11
44.843264
21
73.138333
0
LINE
8
Layer 1
10
44.843264
20
73.138333
11
44.600006
21
72.817668
0
LINE
8
Layer 1
10
44.600006
20
72.817668
11
44.080311
21
72.109219
0
LINE
8
Layer 1
10
44.080311
20
72.109219
11
43.787754
21
71.721439
0
LINE
8
Layer 1
10
43.787754
20
71.721439
11
43.891107
21
71.701096
0
LINE
8
Layer 1
10
43.891107
20
71.701096
11
44.173888
21
71.661745
0
LINE
8
Layer 1
10
44.173888
20
71.661745
11
44.394419
21
71.607516
0
LINE
8
Layer 1
10
44.394419
20
71.607516
11
44.452396
21
70.394036
0
LINE
8
Layer 1
10
44.452396
20
70.394036
11
44.577327
21
67.903286
0
LINE
8
Layer 1
10
44.577327
20
67.903286
11
44.881339
21
67.082981
0
LINE
8
Layer 1
10
44.881339
20
67.082981
11
45.518108
21
66.382578
0
LINE
8
Layer 1
10
45.518108
20
66.382578
11
46.276413
21
66.104077
0
LINE
8
Layer 1
10
46.276413
20
66.104077
11
50.453113
21
66.094927
0
LINE
8
Layer 1
10
50.453113
20
66.094927
11
50.453130
21
66.094880
0
LINE
8
Layer 1
10
52.044200
20
69.095560
11
51.917745
21
69.168265
0
LINE
8
Layer 1
10
51.917745
20
69.168265
11
51.822131
21
69.677997
0
LINE
8
Layer 1
10
51.822131
20
69.677997
11
51.921008
21
70.144356
0
LINE
8
Layer 1
10
51.921008
20
70.144356
11
52.166479
21
70.273037
0
LINE
8
Layer 1
10
52.166479
20
70.273037
11
53.766679
21
70.906923
0
LINE
8
Layer 1
10
53.766679
20
70.906923
11
53.883443
21
70.983943
0
LINE
8
Layer 1
10
53.883443
20
70.983943
11
53.429006
21
71.001723
0
LINE
8
Layer 1
10
53.429006
20
71.001723
11
51.958486
21
71.118864
0
LINE
8
Layer 1
10
51.958486
20
71.118864
11
51.727166
21
71.418835
0
LINE
8
Layer 1
10
51.727166
20
71.418835
11
51.674669
21
71.955242
0
LINE
8
Layer 1
10
51.674669
20
71.955242
11
51.791103
21
72.252279
0
LINE
8
Layer 1
10
51.791103
20
72.252279
11
52.113008
21
72.376387
0
LINE
8
Layer 1
10
52.113008
20
72.376387
11
55.090948
21
72.271339
0
LINE
8
Layer 1
10
55.090948
20
72.271339
11
55.559620
21
72.071594
0
LINE
8
Layer 1
10
55.559620
20
72.071594
11
55.589323
21
71.571093
0
LINE
8
Layer 1
10
55.589323
20
71.571093
11
55.327003
21
70.861487
0
LINE
8
Layer 1
10
55.327003
20
70.861487
11
54.841121
21
70.205899
0
LINE
8
Layer 1
10
54.841121
20
70.205899
11
54.180149
21
69.655312
0
LINE
8
Layer 1
10
54.180149
20
69.655312
11
53.392563
21
69.260703
0
LINE
8
Layer 1
10
53.392563
20
69.260703
11
52.588927
21
69.073437
0
LINE
8
Layer 1
10
52.588927
20
69.073437
11
52.044203
21
69.095556
0
LINE
8
Layer 1
10
52.044203
20
69.095556
11
52.044200
21
69.095560
0
LINE
8
Layer 1
10
52.783509
20
69.636026
11
53.901521
21
70.119019
0
LINE
8
Layer 1
10
53.901521
20
70.119019
11
54.796089
21
70.915986
0
LINE
8
Layer 1
10
54.796089
20
70.915986
11
55.175452
21
71.618640
0
LINE
8
Layer 1
10
55.175452
20
71.618640
11
55.226114
21
71.766122
0
LINE
8
Layer 1
10
55.226114
20
71.766122
11
54.720587
21
71.766183
0
LINE
8
Layer 1
10
54.720587
20
71.766183
11
52.361067
21
71.841381
0
LINE
8
Layer 1
10
52.361067
20
71.841381
11
52.071169
21
71.858808
0
LINE
8
Layer 1
10
52.071169
20
71.858808
11
52.071100
21
71.689600
0
LINE
8
Layer 1
10
52.071100
20
71.689600
11
52.071100
21
71.520400
0
LINE
8
Layer 1
10
52.071100
20
71.520400
11
52.320548
21
71.539402
0
LINE
8
Layer 1
10
52.320548
20
71.539402
11
54.315328
21
71.468797
0
LINE
8
Layer 1
10
54.315328
20
71.468797
11
54.479166
21
71.331668
0
LINE
8
Layer 1
10
54.479166
20
71.331668
11
54.484863
21
71.109949
0
LINE
8
Layer 1
10
54.484863
20
71.109949
11
54.066676
21
70.574100
0
LINE
8
Layer 1
10
54.066676
20
70.574100
11
53.270544
21
70.140686
0
LINE
8
Layer 1
10
53.270544
20
70.140686
11
52.376156
21
69.886171
0
LINE
8
Layer 1
10
52.376156
20
69.886171
11
52.164557
21
69.849713
0
LINE
8
Layer 1
10
52.164557
20
69.849713
11
52.139750
21
69.696147
0
LINE
8
Layer 1
10
52.139750
20
69.696147
11
52.120587
21
69.550154
0
LINE
8
Layer 1
10
52.120587
20
69.550154
11
52.358785
21
69.571439
0
LINE
8
Layer 1
10
52.358785
20
69.571439
11
52.783467
21
69.636026
0
LINE
8
Layer 1
10
52.783467
20
69.636026
11
52.783509
21
69.636026
0
LINE
8
Layer 1
10
47.413479
20
69.161113
11
47.275303
21
69.306666
0
LINE
8
Layer 1
10
47.275303
20
69.306666
11
47.263647
21
69.720264
0
LINE
8
Layer 1
10
47.263647
20
69.720264
11
47.244654
21
70.139168
0
LINE
8
Layer 1
10
47.244654
20
70.139168
11
47.308523
21
70.409506
0
LINE
8
Layer 1
10
47.308523
20
70.409506
11
47.720282
21
70.498356
0
LINE
8
Layer 1
10
47.720282
20
70.498356
11
48.603972
21
70.748950
0
LINE
8
Layer 1
10
48.603972
20
70.748950
11
49.299822
21
71.300463
0
LINE
8
Layer 1
10
49.299822
20
71.300463
11
49.633376
21
71.804439
0
LINE
8
Layer 1
10
49.633376
20
71.804439
11
49.794873
21
72.337893
0
LINE
8
Layer 1
10
49.794873
20
72.337893
11
49.812315
21
72.502155
0
LINE
8
Layer 1
10
49.812315
20
72.502155
11
49.263032
21
72.521840
0
LINE
8
Layer 1
10
49.263032
20
72.521840
11
48.174402
21
72.542324
0
LINE
8
Layer 1
10
48.174402
20
72.542324
11
47.354395
21
72.674502
0
LINE
8
Layer 1
10
47.354395
20
72.674502
11
47.284483
21
73.161311
0
LINE
8
Layer 1
10
47.284483
20
73.161311
11
47.360790
21
73.681130
0
LINE
8
Layer 1
10
47.360790
20
73.681130
11
47.522594
21
73.822422
0
LINE
8
Layer 1
10
47.522594
20
73.822422
11
48.140556
21
73.861242
0
LINE
8
Layer 1
10
48.140556
20
73.861242
11
48.633507
21
73.888852
0
LINE
8
Layer 1
10
48.633507
20
73.888852
11
48.645409
21
74.063183
0
LINE
8
Layer 1
10
48.645409
20
74.063183
11
48.647384
21
74.793803
0
LINE
8
Layer 1
10
48.647384
20
74.793803
11
48.979785
21
75.528150
0
LINE
8
Layer 1
10
48.979785
20
75.528150
11
49.689266
21
76.065820
0
LINE
8
Layer 1
10
49.689266
20
76.065820
11
50.673529
21
76.067457
0
LINE
8
Layer 1
10
50.673529
20
76.067457
11
51.351313
21
75.551584
0
LINE
8
Layer 1
10
51.351313
20
75.551584
11
51.710093
21
74.642147
0
LINE
8
Layer 1
10
51.710093
20
74.642147
11
51.558122
21
73.630574
0
LINE
8
Layer 1
10
51.558122
20
73.630574
11
51.079039
21
72.977593
0
LINE
8
Layer 1
10
51.079039
20
72.977593
11
50.938549
21
72.861544
0
LINE
8
Layer 1
10
50.938549
20
72.861544
11
50.938312
21
72.455580
0
LINE
8
Layer 1
10
50.938312
20
72.455580
11
50.771920
21
71.337800
0
LINE
8
Layer 1
10
50.771920
20
71.337800
11
50.437757
21
70.639651
0
LINE
8
Layer 1
10
50.437757
20
70.639651
11
49.873308
21
70.021610
0
LINE
8
Layer 1
10
49.873308
20
70.021610
11
49.222180
21
69.559717
0
LINE
8
Layer 1
10
49.222180
20
69.559717
11
48.108980
21
69.142939
0
LINE
8
Layer 1
10
48.108980
20
69.142939
11
47.413452
21
69.161235
0
LINE
8
Layer 1
10
47.413452
20
69.161235
11
47.413479
21
69.161113
0
LINE
8
Layer 1
10
48.173963
20
69.648119
11
49.467093
21
70.308536
0
LINE
8
Layer 1
10
49.467093
20
70.308536
11
49.762557
21
70.572905
0
LINE
8
Layer 1
10
49.762557
20
70.572905
11
50.015106
21
70.841415
0
LINE
8
Layer 1
10
50.015106
20
70.841415
11
50.204960
21
71.117947
0
LINE
8
Layer 1
10
50.204960
20
71.117947
11
50.352751
21
71.416239
0
LINE
8
Layer 1
10
50.352751
20
71.416239
11
50.515520
21
72.744789
0
LINE
8
Layer 1
10
50.515520
20
72.744789
11
50.549335
21
73.182941
0
LINE
8
Layer 1
10
50.549335
20
73.182941
11
50.784943
21
73.428419
0
LINE
8
Layer 1
10
50.784943
20
73.428419
11
51.155639
21
73.969170
0
LINE
8
Layer 1
10
51.155639
20
73.969170
11
51.203710
21
74.421738
0
LINE
8
Layer 1
10
51.203710
20
74.421738
11
51.108629
21
74.899008
0
LINE
8
Layer 1
10
51.108629
20
74.899008
11
50.614935
21
75.446805
0
LINE
8
Layer 1
10
50.614935
20
75.446805
11
50.155926
21
75.539529
0
LINE
8
Layer 1
10
50.155926
20
75.539529
11
49.695069
21
75.443073
0
LINE
8
Layer 1
10
49.695069
20
75.443073
11
49.282855
21
75.057677
0
LINE
8
Layer 1
10
49.282855
20
75.057677
11
49.071446
21
74.492429
0
LINE
8
Layer 1
10
49.071446
20
74.492429
11
49.089565
21
73.958527
0
LINE
8
Layer 1
10
49.089565
20
73.958527
11
49.041000
21
73.411753
0
LINE
8
Layer 1
10
49.041000
20
73.411753
11
48.983421
21
73.342202
0
LINE
8
Layer 1
10
48.983421
20
73.342202
11
48.336207
21
73.350504
0
LINE
8
Layer 1
10
48.336207
20
73.350504
11
47.688993
21
73.358782
0
LINE
8
Layer 1
10
47.688993
20
73.358782
11
47.687300
21
73.237062
0
LINE
8
Layer 1
10
47.687300
20
73.237062
11
47.685607
21
73.115342
0
LINE
8
Layer 1
10
47.685607
20
73.115342
11
48.833357
21
73.102831
0
LINE
8
Layer 1
10
48.833357
20
73.102831
11
50.049773
21
73.039998
0
LINE
8
Layer 1
10
50.049773
20
73.039998
11
50.172305
21
72.885634
0
LINE
8
Layer 1
10
50.172305
20
72.885634
11
50.179777
21
72.566104
0
LINE
8
Layer 1
10
50.179777
20
72.566104
11
50.001379
21
71.492594
0
LINE
8
Layer 1
10
50.001379
20
71.492594
11
49.487478
21
70.733418
0
LINE
8
Layer 1
10
49.487478
20
70.733418
11
48.698669
21
70.188634
0
LINE
8
Layer 1
10
48.698669
20
70.188634
11
47.772301
21
69.976370
0
LINE
8
Layer 1
10
47.772301
20
69.976370
11
47.594500
21
69.976400
0
LINE
8
Layer 1
10
47.594500
20
69.976400
11
47.594500
21
69.763300
0
LINE
8
Layer 1
10
47.594500
20
69.763300
11
47.594500
21
69.550200
0
LINE
8
Layer 1
10
47.594500
20
69.550200
11
47.777651
21
69.569038
0
LINE
8
Layer 1
10
47.777651
20
69.569038
11
48.173857
21
69.648140
0
LINE
8
Layer 1
10
48.173857
20
69.648140
11
48.173963
21
69.648119
0
LINE
8
Layer 1
10
49.891493
20
73.510659
11
49.593955
21
73.703206
0
LINE
8
Layer 1
10
49.593955
20
73.703206
11
49.399916
21
74.018234
0
LINE
8
Layer 1
10
49.399916
20
74.018234
11
49.433585
21
74.662214
0
LINE
8
Layer 1
10
49.433585
20
74.662214
11
49.811274
21
75.109486
0
LINE
8
Layer 1
10
49.811274
20
75.109486
11
50.210426
21
75.211406
0
LINE
8
Layer 1
10
50.210426
20
75.211406
11
50.587968
21
75.118868
0
LINE
8
Layer 1
10
50.587968
20
75.118868
11
50.878945
21
74.807411
0
LINE
8
Layer 1
10
50.878945
20
74.807411
11
50.970322
21
74.352684
0
LINE
8
Layer 1
10
50.970322
20
74.352684
11
50.724953
21
73.732499
0
LINE
8
Layer 1
10
50.724953
20
73.732499
11
50.172410
21
73.468388
0
LINE
8
Layer 1
10
50.172410
20
73.468388
11
49.891492
21
73.510660
0
LINE
8
Layer 1
10
49.891492
20
73.510660
11
49.891493
21
73.510659
0
LINE
8
Layer 1
10
50.257495
20
74.049201
11
50.478782
21
74.295211
0
LINE
8
Layer 1
10
50.478782
20
74.295211
11
50.359756
21
74.633093
0
LINE
8
Layer 1
10
50.359756
20
74.633093
11
50.002894
21
74.631048
0
LINE
8
Layer 1
10
50.002894
20
74.631048
11
49.836746
21
74.402654
0
LINE
8
Layer 1
10
49.836746
20
74.402654
11
49.869657
21
74.139576
0
LINE
8
Layer 1
10
49.869657
20
74.139576
11
50.030415
21
74.013833
0
LINE
8
Layer 1
10
50.030415
20
74.013833
11
50.257495
21
74.049202
0
LINE
8
Layer 1
10
50.257495
20
74.049202
11
50.257495
21
74.049201
0
LINE
8
Layer 1
10
53.404445
20
72.512301
11
52.038845
21
72.646932
0
LINE
8
Layer 1
10
52.038845
20
72.646932
11
51.863272
21
72.742320
0
LINE
8
Layer 1
10
51.863272
20
72.742320
11
51.748662
21
72.879115
0
LINE
8
Layer 1
10
51.748662
20
72.879115
11
51.748098
21
73.529694
0
LINE
8
Layer 1
10
51.748098
20
73.529694
11
52.104855
21
73.827031
0
LINE
8
Layer 1
10
52.104855
20
73.827031
11
54.922155
21
73.828443
0
LINE
8
Layer 1
10
54.922155
20
73.828443
11
55.456644
21
73.733851
0
LINE
8
Layer 1
10
55.456644
20
73.733851
11
55.518010
21
73.243016
0
LINE
8
Layer 1
10
55.518010
20
73.243016
11
55.431258
21
72.699719
0
LINE
8
Layer 1
10
55.431258
20
72.699719
11
55.269638
21
72.540358
0
LINE
8
Layer 1
10
55.269638
20
72.540358
11
53.404528
21
72.512342
0
LINE
8
Layer 1
10
53.404528
20
72.512342
11
53.404445
21
72.512301
0
LINE
8
Layer 1
10
55.199365
20
73.138273
11
55.199300
21
73.287400
0
LINE
8
Layer 1
10
55.199300
20
73.287400
11
54.437476
21
73.288585
0
LINE
8
Layer 1
10
54.437476
20
73.288585
11
52.907706
21
73.316618
0
LINE
8
Layer 1
10
52.907706
20
73.316618
11
52.134158
21
73.337291
0
LINE
8
Layer 1
10
52.134158
20
73.337291
11
52.110677
21
73.181996
0
LINE
8
Layer 1
10
52.110677
20
73.181996
11
52.092812
21
73.032905
0
LINE
8
Layer 1
10
52.092812
20
73.032905
11
52.452769
21
73.057478
0
LINE
8
Layer 1
10
52.452769
20
73.057478
11
54.950929
21
73.005366
0
LINE
8
Layer 1
10
54.950929
20
73.005366
11
55.082461
21
72.989138
0
LINE
8
Layer 1
10
55.082461
20
72.989138
11
55.199400
21
72.989200
0
LINE
8
Layer 1
10
55.199400
20
72.989200
11
55.199400
21
73.138300
0
LINE
8
Layer 1
10
55.199400
20
73.138300
11
55.199365
21
73.138273
0
LINE
8
Layer 1
10
55.374650
20
74.088351
11
54.444280
21
75.166771
0
LINE
8
Layer 1
10
54.444280
20
75.166771
11
53.961694
21
75.777717
0
LINE
8
Layer 1
10
53.961694
20
75.777717
11
53.662643
21
76.282282
0
LINE
8
Layer 1
10
53.662643
20
76.282282
11
53.683979
21
76.411161
0
LINE
8
Layer 1
10
53.683979
20
76.411161
11
54.260937
21
76.560334
0
LINE
8
Layer 1
10
54.260937
20
76.560334
11
54.576472
21
76.577290
0
LINE
8
Layer 1
10
54.576472
20
76.577290
11
54.533425
21
76.669913
0
LINE
8
Layer 1
10
54.533425
20
76.669913
11
53.826973
21
77.462184
0
LINE
8
Layer 1
10
53.826973
20
77.462184
11
52.979712
21
77.464724
0
LINE
8
Layer 1
10
52.979712
20
77.464724
11
49.293552
21
77.412442
0
LINE
8
Layer 1
10
49.293552
20
77.412442
11
46.367602
21
77.397507
0
LINE
8
Layer 1
10
46.367602
20
77.397507
11
46.258021
21
77.271737
0
LINE
8
Layer 1
10
46.258021
20
77.271737
11
46.062927
21
76.879682
0
LINE
8
Layer 1
10
46.062927
20
76.879682
11
45.927681
21
75.435132
0
LINE
8
Layer 1
10
45.927681
20
75.435132
11
45.915398
21
74.685339
0
LINE
8
Layer 1
10
45.915398
20
74.685339
11
45.786491
21
74.494756
0
LINE
8
Layer 1
10
45.786491
20
74.494756
11
44.909760
21
74.452601
0
LINE
8
Layer 1
10
44.909760
20
74.452601
11
44.077321
21
74.520779
0
LINE
8
Layer 1
10
44.077321
20
74.520779
11
44.021825
21
75.211413
0
LINE
8
Layer 1
10
44.021825
20
75.211413
11
43.989242
21
76.255433
0
LINE
8
Layer 1
10
43.989242
20
76.255433
11
44.062874
21
77.245003
0
LINE
8
Layer 1
10
44.062874
20
77.245003
11
44.285956
21
77.914255
0
LINE
8
Layer 1
10
44.285956
20
77.914255
11
44.686012
21
78.520363
0
LINE
8
Layer 1
10
44.686012
20
78.520363
11
45.489639
21
79.233859
0
LINE
8
Layer 1
10
45.489639
20
79.233859
11
46.165349
21
79.474698
0
LINE
8
Layer 1
10
46.165349
20
79.474698
11
52.030729
21
79.593280
0
LINE
8
Layer 1
10
52.030729
20
79.593280
11
54.479279
21
79.556779
0
LINE
8
Layer 1
10
54.479279
20
79.556779
11
55.477972
21
79.106561
0
LINE
8
Layer 1
10
55.477972
20
79.106561
11
56.153669
21
78.219379
0
LINE
8
Layer 1
10
56.153669
20
78.219379
11
56.422723
21
76.889389
0
LINE
8
Layer 1
10
56.422723
20
76.889389
11
56.426392
21
76.598633
0
LINE
8
Layer 1
10
56.426392
20
76.598633
11
56.717154
21
76.598544
0
LINE
8
Layer 1
10
56.717154
20
76.598544
11
57.137048
21
76.536489
0
LINE
8
Layer 1
10
57.137048
20
76.536489
11
57.248891
21
76.303921
0
LINE
8
Layer 1
10
57.248891
20
76.303921
11
56.856957
21
75.613873
0
LINE
8
Layer 1
10
56.856957
20
75.613873
11
55.839591
21
74.294151
0
LINE
8
Layer 1
10
55.839591
20
74.294151
11
55.579589
21
74.041788
0
LINE
8
Layer 1
10
55.579589
20
74.041788
11
55.374670
21
74.088343
0
LINE
8
Layer 1
10
55.374670
20
74.088343
11
55.374650
21
74.088351
0
LINE
8
Layer 1
10
55.861424
20
74.957861
11
56.607997
21
75.960081
0
LINE
8
Layer 1
10
56.607997
20
75.960081
11
56.712738
21
76.082334
0
LINE
8
Layer 1
10
56.712738
20
76.082334
11
56.397039
21
76.099527
0
LINE
8
Layer 1
10
56.397039
20
76.099527
11
56.015674
21
76.192426
0
LINE
8
Layer 1
10
56.015674
20
76.192426
11
55.952237
21
76.785636
0
LINE
8
Layer 1
10
55.952237
20
76.785636
11
55.849514
21
77.612662
0
LINE
8
Layer 1
10
55.849514
20
77.612662
11
55.418357
21
78.423037
0
LINE
8
Layer 1
10
55.418357
20
78.423037
11
54.674864
21
78.984642
0
LINE
8
Layer 1
10
54.674864
20
78.984642
11
53.918419
21
79.137192
0
LINE
8
Layer 1
10
53.918419
20
79.137192
11
49.873329
21
79.119342
0
LINE
8
Layer 1
10
49.873329
20
79.119342
11
46.017009
21
79.102219
0
LINE
8
Layer 1
10
46.017009
20
79.102219
11
45.845909
21
79.026511
0
LINE
8
Layer 1
10
45.845909
20
79.026511
11
45.158103
21
78.492440
0
LINE
8
Layer 1
10
45.158103
20
78.492440
11
44.606809
21
77.656631
0
LINE
8
Layer 1
10
44.606809
20
77.656631
11
44.425851
21
76.359811
0
LINE
8
Layer 1
10
44.425851
20
76.359811
11
44.399491
21
75.321551
0
LINE
8
Layer 1
10
44.399491
20
75.321551
11
44.377365
21
74.864954
0
LINE
8
Layer 1
10
44.377365
20
74.864954
11
44.442110
21
74.882711
0
LINE
8
Layer 1
10
44.442110
20
74.882711
11
45.000983
21
74.906782
0
LINE
8
Layer 1
10
45.000983
20
74.906782
11
45.495106
21
74.913109
0
LINE
8
Layer 1
10
45.495106
20
74.913109
11
45.478934
21
75.002597
0
LINE
8
Layer 1
10
45.478934
20
75.002597
11
45.446990
21
75.733417
0
LINE
8
Layer 1
10
45.446990
20
75.733417
11
45.486823
21
76.631968
0
LINE
8
Layer 1
10
45.486823
20
76.631968
11
45.764918
21
77.331844
0
LINE
8
Layer 1
10
45.764918
20
77.331844
11
46.203514
21
77.782088
0
LINE
8
Layer 1
10
46.203514
20
77.782088
11
46.540603
21
77.844000
0
LINE
8
Layer 1
10
46.540603
20
77.844000
11
47.581113
21
77.868774
0
LINE
8
Layer 1
10
47.581113
20
77.868774
11
52.721613
21
77.965315
0
LINE
8
Layer 1
10
52.721613
20
77.965315
11
53.891453
21
77.952332
0
LINE
8
Layer 1
10
53.891453
20
77.952332
11
54.052215
21
77.870745
0
LINE
8
Layer 1
10
54.052215
20
77.870745
11
54.530621
21
77.490673
0
LINE
8
Layer 1
10
54.530621
20
77.490673
11
54.893708
21
76.936314
0
LINE
8
Layer 1
10
54.893708
20
76.936314
11
54.979702
21
76.438179
0
LINE
8
Layer 1
10
54.979702
20
76.438179
11
54.672395
21
76.210337
0
LINE
8
Layer 1
10
54.672395
20
76.210337
11
54.325459
21
76.158786
0
LINE
8
Layer 1
10
54.325459
20
76.158786
11
54.139221
21
76.136116
0
LINE
8
Layer 1
10
54.139221
20
76.136116
11
54.679131
21
75.524615
0
LINE
8
Layer 1
10
54.679131
20
75.524615
11
55.375195
21
74.710432
0
LINE
8
Layer 1
10
55.375195
20
74.710432
11
55.551279
21
74.531456
0
LINE
8
Layer 1
10
55.551279
20
74.531456
11
55.861424
21
74.957858
0
LINE
8
Layer 1
10
55.861424
20
74.957858
11
55.861424
21
74.957861
0
LINE
8
Layer 1
10
33.868400
20
64.565700
11
32.310890
21
65.043248
0
LINE
8
Layer 1
10
32.310890
20
65.043248
11
31.048140
21
66.009647
0
LINE
8
Layer 1
10
31.048140
20
66.009647
11
30.733330
21
66.364555
0
LINE
8
Layer 1
10
30.733330
20
66.364555
11
30.141666
21
67.152759
0
LINE
8
Layer 1
10
30.141666
20
67.152759
11
29.654080
21
68.230705
0
LINE
8
Layer 1
10
29.654080
20
68.230705
11
29.357211
21
69.421345
0
LINE
8
Layer 1
10
29.357211
20
69.421345
11
29.369687
21
70.509575
0
LINE
8
Layer 1
10
29.369687
20
70.509575
11
29.764223
21
71.936595
0
LINE
8
Layer 1
10
29.764223
20
71.936595
11
30.287919
21
73.017035
0
LINE
8
Layer 1
10
30.287919
20
73.017035
11
30.778533
21
73.479535
0
LINE
8
Layer 1
10
30.778533
20
73.479535
11
31.045648
21
73.124421
0
LINE
8
Layer 1
10
31.045648
20
73.124421
11
31.585462
21
72.308692
0
LINE
8
Layer 1
10
31.585462
20
72.308692
11
32.395778
21
71.726544
0
LINE
8
Layer 1
10
32.395778
20
71.726544
11
32.464739
21
71.778165
0
LINE
8
Layer 1
10
32.464739
20
71.778165
11
32.306709
21
72.062357
0
LINE
8
Layer 1
10
32.306709
20
72.062357
11
31.865494
21
72.923162
0
LINE
8
Layer 1
10
31.865494
20
72.923162
11
31.769476
21
73.181957
0
LINE
8
Layer 1
10
31.769476
20
73.181957
11
31.246603
21
75.360487
0
LINE
8
Layer 1
10
31.246603
20
75.360487
11
31.248579
21
77.171227
0
LINE
8
Layer 1
10
31.248579
20
77.171227
11
31.560165
21
78.129678
0
LINE
8
Layer 1
10
31.560165
20
78.129678
11
31.971381
21
78.839937
0
LINE
8
Layer 1
10
31.971381
20
78.839937
11
32.322649
21
79.299815
0
LINE
8
Layer 1
10
32.322649
20
79.299815
11
33.102900
21
80.253347
0
LINE
8
Layer 1
10
33.102900
20
80.253347
11
33.899766
21
80.958033
0
LINE
8
Layer 1
10
33.899766
20
80.958033
11
34.580720
21
81.378407
0
LINE
8
Layer 1
10
34.580720
20
81.378407
11
34.872789
21
81.381483
0
LINE
8
Layer 1
10
34.872789
20
81.381483
11
34.888734
21
81.195558
0
LINE
8
Layer 1
10
34.888734
20
81.195558
11
34.691712
21
80.129838
0
LINE
8
Layer 1
10
34.691712
20
80.129838
11
34.875328
21
78.684088
0
LINE
8
Layer 1
10
34.875328
20
78.684088
11
35.425144
21
77.358368
0
LINE
8
Layer 1
10
35.425144
20
77.358368
11
35.702131
21
76.993204
0
LINE
8
Layer 1
10
35.702131
20
76.993204
11
35.768073
21
77.162300
0
LINE
8
Layer 1
10
35.768073
20
77.162300
11
36.304365
21
78.024347
0
LINE
8
Layer 1
10
36.304365
20
78.024347
11
36.658292
21
78.270734
0
LINE
8
Layer 1
10
36.658292
20
78.270734
11
36.939957
21
78.264128
0
LINE
8
Layer 1
10
36.939957
20
78.264128
11
36.979053
21
78.013535
0
LINE
8
Layer 1
10
36.979053
20
78.013535
11
37.091397
21
76.925545
0
LINE
8
Layer 1
10
37.091397
20
76.925545
11
37.340505
21
76.084669
0
LINE
8
Layer 1
10
37.340505
20
76.084669
11
37.718189
21
75.396945
0
LINE
8
Layer 1
10
37.718189
20
75.396945
11
37.871306
21
75.184025
0
LINE
8
Layer 1
10
37.871306
20
75.184025
11
37.869895
21
75.345007
0
LINE
8
Layer 1
10
37.869895
20
75.345007
11
37.713679
21
76.164876
0
LINE
8
Layer 1
10
37.713679
20
76.164876
11
37.612624
21
76.565089
0
LINE
8
Layer 1
10
37.612624
20
76.565089
11
37.685812
21
76.649894
0
LINE
8
Layer 1
10
37.685812
20
76.649894
11
37.949148
21
76.815220
0
LINE
8
Layer 1
10
37.949148
20
76.815220
11
38.387958
21
76.636387
0
LINE
8
Layer 1
10
38.387958
20
76.636387
11
38.893660
21
76.213113
0
LINE
8
Layer 1
10
38.893660
20
76.213113
11
39.252229
21
75.848922
0
LINE
8
Layer 1
10
39.252229
20
75.848922
11
40.007884
21
74.714822
0
LINE
8
Layer 1
10
40.007884
20
74.714822
11
40.186576
21
74.320010
0
LINE
8
Layer 1
10
40.186576
20
74.320010
11
40.522313
21
73.229410
0
LINE
8
Layer 1
10
40.522313
20
73.229410
11
40.606159
21
71.947590
0
LINE
8
Layer 1
10
40.606159
20
71.947590
11
40.435288
21
69.672540
0
LINE
8
Layer 1
10
40.435288
20
69.672540
11
39.985994
21
68.377140
0
LINE
8
Layer 1
10
39.985994
20
68.377140
11
39.427768
21
67.354560
0
LINE
8
Layer 1
10
39.427768
20
67.354560
11
39.107711
21
66.950745
0
LINE
8
Layer 1
10
39.107711
20
66.950745
11
38.716955
21
66.533497
0
LINE
8
Layer 1
10
38.716955
20
66.533497
11
38.318331
21
66.161280
0
LINE
8
Layer 1
10
38.318331
20
66.161280
11
37.502481
21
65.361042
0
LINE
8
Layer 1
10
37.502481
20
65.361042
11
36.353961
21
64.710893
0
LINE
8
Layer 1
10
36.353961
20
64.710893
11
35.525970
21
64.546002
0
LINE
8
Layer 1
10
35.525970
20
64.546002
11
33.868400
21
64.565673
0
LINE
8
Layer 1
10
33.868400
20
64.565673
11
33.868400
21
64.565700
0
LINE
8
Layer 1
10
35.837350
20
65.025553
11
36.251993
21
65.126862
0
LINE
8
Layer 1
10
36.251993
20
65.126862
11
37.070406
21
65.549772
0
LINE
8
Layer 1
10
37.070406
20
65.549772
11
37.414787
21
66.646312
0
LINE
8
Layer 1
10
37.414787
20
66.646312
11
37.470952
21
67.584014
0
LINE
8
Layer 1
10
37.470952
20
67.584014
11
37.249255
21
69.362414
0
LINE
8
Layer 1
10
37.249255
20
69.362414
11
36.877475
21
70.451479
0
LINE
8
Layer 1
10
36.877475
20
70.451479
11
36.348107
21
71.450412
0
LINE
8
Layer 1
10
36.348107
20
71.450412
11
35.694801
21
72.306435
0
LINE
8
Layer 1
10
35.694801
20
72.306435
11
34.951205
21
72.966774
0
LINE
8
Layer 1
10
34.951205
20
72.966774
11
34.722866
21
73.086196
0
LINE
8
Layer 1
10
34.722866
20
73.086196
11
34.759500
21
72.799001
0
LINE
8
Layer 1
10
34.759500
20
72.799001
11
34.668043
21
71.124651
0
LINE
8
Layer 1
10
34.668043
20
71.124651
11
34.331132
21
69.782761
0
LINE
8
Layer 1
10
34.331132
20
69.782761
11
34.096208
21
68.182201
0
LINE
8
Layer 1
10
34.096208
20
68.182201
11
34.145632
21
67.450506
0
LINE
8
Layer 1
10
34.145632
20
67.450506
11
34.364618
21
66.738431
0
LINE
8
Layer 1
10
34.364618
20
66.738431
11
34.439915
21
66.197087
0
LINE
8
Layer 1
10
34.439915
20
66.197087
11
34.107051
21
66.252005
0
LINE
8
Layer 1
10
34.107051
20
66.252005
11
33.748000
21
66.434566
0
LINE
8
Layer 1
10
33.748000
20
66.434566
11
33.358330
21
66.669008
0
LINE
8
Layer 1
10
33.358330
20
66.669008
11
32.648257
21
67.585942
0
LINE
8
Layer 1
10
32.648257
20
67.585942
11
32.299117
21
69.071402
0
LINE
8
Layer 1
10
32.299117
20
69.071402
11
32.273632
21
69.297744
0
LINE
8
Layer 1
10
32.273632
20
69.297744
11
32.121238
21
69.056185
0
LINE
8
Layer 1
10
32.121238
20
69.056185
11
31.791510
21
68.141145
0
LINE
8
Layer 1
10
31.791510
20
68.141145
11
31.812254
21
66.791815
0
LINE
8
Layer 1
10
31.812254
20
66.791815
11
32.141031
21
65.789445
0
LINE
8
Layer 1
10
32.141031
20
65.789445
11
32.464996
21
65.469617
0
LINE
8
Layer 1
10
32.464996
20
65.469617
11
33.876996
21
65.014401
0
LINE
8
Layer 1
10
33.876996
20
65.014401
11
34.936896
21
64.964351
0
LINE
8
Layer 1
10
34.936896
20
64.964351
11
35.837342
21
65.025551
0
LINE
8
Layer 1
10
35.837342
20
65.025551
11
35.837350
21
65.025553
0
LINE
8
Layer 1
10
31.600070
20
66.299123
11
31.432394
21
67.416744
0
LINE
8
Layer 1
10
31.432394
20
67.416744
11
31.535811
21
68.529943
0
LINE
8
Layer 1
10
31.535811
20
68.529943
11
31.687322
21
68.966461
0
LINE
8
Layer 1
10
31.687322
20
68.966461
11
32.177553
21
69.678386
0
LINE
8
Layer 1
10
32.177553
20
69.678386
11
32.500994
21
69.630795
0
LINE
8
Layer 1
10
32.500994
20
69.630795
11
32.610524
21
69.182305
0
LINE
8
Layer 1
10
32.610524
20
69.182305
11
32.863192
21
67.994325
0
LINE
8
Layer 1
10
32.863192
20
67.994325
11
33.287500
21
67.287864
0
LINE
8
Layer 1
10
33.287500
20
67.287864
11
33.803262
21
66.805525
0
LINE
8
Layer 1
10
33.803262
20
66.805525
11
33.969494
21
66.738023
0
LINE
8
Layer 1
10
33.969494
20
66.738023
11
33.861903
21
67.100455
0
LINE
8
Layer 1
10
33.861903
20
67.100455
11
33.732335
21
68.101365
0
LINE
8
Layer 1
10
33.732335
20
68.101365
11
33.787543
21
69.131635
0
LINE
8
Layer 1
10
33.787543
20
69.131635
11
33.934208
21
69.778327
0
LINE
8
Layer 1
10
33.934208
20
69.778327
11
34.379326
21
71.544997
0
LINE
8
Layer 1
10
34.379326
20
71.544997
11
34.428726
21
72.288691
0
LINE
8
Layer 1
10
34.428726
20
72.288691
11
34.394833
21
72.942450
0
LINE
8
Layer 1
10
34.394833
20
72.942450
11
34.262667
21
73.246623
0
LINE
8
Layer 1
10
34.262667
20
73.246623
11
34.116053
21
73.446648
0
LINE
8
Layer 1
10
34.116053
20
73.446648
11
34.072588
21
73.668858
0
LINE
8
Layer 1
10
34.072588
20
73.668858
11
34.284489
21
73.736888
0
LINE
8
Layer 1
10
34.284489
20
73.736888
11
34.967672
21
73.457026
0
LINE
8
Layer 1
10
34.967672
20
73.457026
11
35.781169
21
72.835172
0
LINE
8
Layer 1
10
35.781169
20
72.835172
11
36.746410
21
71.623124
0
LINE
8
Layer 1
10
36.746410
20
71.623124
11
37.474769
21
70.138442
0
LINE
8
Layer 1
10
37.474769
20
70.138442
11
37.895318
21
68.234312
0
LINE
8
Layer 1
10
37.895318
20
68.234312
11
37.822791
21
66.454532
0
LINE
8
Layer 1
10
37.822791
20
66.454532
11
37.784897
21
66.221927
0
LINE
8
Layer 1
10
37.784897
20
66.221927
11
37.935945
21
66.392022
0
LINE
8
Layer 1
10
37.935945
20
66.392022
11
38.328908
21
66.765896
0
LINE
8
Layer 1
10
38.328908
20
66.765896
11
38.711655
21
67.138830
0
LINE
8
Layer 1
10
38.711655
20
67.138830
11
39.009388
21
67.512148
0
LINE
8
Layer 1
10
39.009388
20
67.512148
11
39.585918
21
68.525509
0
LINE
8
Layer 1
10
39.585918
20
68.525509
11
40.021848
21
69.750428
0
LINE
8
Layer 1
10
40.021848
20
69.750428
11
40.190318
21
71.949178
0
LINE
8
Layer 1
10
40.190318
20
71.949178
11
40.089640
21
73.259925
0
LINE
8
Layer 1
10
40.089640
20
73.259925
11
39.801298
21
74.180268
0
LINE
8
Layer 1
10
39.801298
20
74.180268
11
39.623670
21
74.584449
0
LINE
8
Layer 1
10
39.623670
20
74.584449
11
39.364870
21
75.053302
0
LINE
8
Layer 1
10
39.364870
20
75.053302
11
38.706788
21
75.834792
0
LINE
8
Layer 1
10
38.706788
20
75.834792
11
37.942048
21
76.445360
0
LINE
8
Layer 1
10
37.942048
20
76.445360
11
38.042607
21
76.081965
0
LINE
8
Layer 1
10
38.042607
20
76.081965
11
38.233361
21
74.902095
0
LINE
8
Layer 1
10
38.233361
20
74.902095
11
38.206437
21
74.466127
0
LINE
8
Layer 1
10
38.206437
20
74.466127
11
37.977933
21
74.580723
0
LINE
8
Layer 1
10
37.977933
20
74.580723
11
37.718817
21
74.818952
0
LINE
8
Layer 1
10
37.718817
20
74.818952
11
37.066100
21
75.780093
0
LINE
8
Layer 1
10
37.066100
20
75.780093
11
36.771743
21
76.704507
0
LINE
8
Layer 1
10
36.771743
20
76.704507
11
36.659277
21
77.599793
0
LINE
8
Layer 1
10
36.659277
20
77.599793
11
36.659300
21
77.892600
0
LINE
8
Layer 1
10
36.659300
20
77.892600
11
36.591440
21
77.831002
0
LINE
8
Layer 1
10
36.591440
20
77.831002
11
36.338987
21
77.491808
0
LINE
8
Layer 1
10
36.338987
20
77.491808
11
35.845062
21
76.337208
0
LINE
8
Layer 1
10
35.845062
20
76.337208
11
35.666154
21
76.409452
0
LINE
8
Layer 1
10
35.666154
20
76.409452
11
35.356460
21
76.799369
0
LINE
8
Layer 1
10
35.356460
20
76.799369
11
35.093994
21
77.187385
0
LINE
8
Layer 1
10
35.093994
20
77.187385
11
34.735357
21
77.889804
0
LINE
8
Layer 1
10
34.735357
20
77.889804
11
34.457626
21
78.917285
0
LINE
8
Layer 1
10
34.457626
20
78.917285
11
34.355468
21
79.846336
0
LINE
8
Layer 1
10
34.355468
20
79.846336
11
34.445010
21
80.723195
0
LINE
8
Layer 1
10
34.445010
20
80.723195
11
34.467757
21
80.831540
0
LINE
8
Layer 1
10
34.467757
20
80.831540
11
34.370524
21
80.780565
0
LINE
8
Layer 1
10
34.370524
20
80.780565
11
33.943277
21
80.440784
0
LINE
8
Layer 1
10
33.943277
20
80.440784
11
32.676837
21
79.046624
0
LINE
8
Layer 1
10
32.676837
20
79.046624
11
32.344707
21
78.610106
0
LINE
8
Layer 1
10
32.344707
20
78.610106
11
31.876707
21
77.757691
0
LINE
8
Layer 1
10
31.876707
20
77.757691
11
31.662447
21
76.977725
0
LINE
8
Layer 1
10
31.662447
20
76.977725
11
31.615200
21
76.101320
0
LINE
8
Layer 1
10
31.615200
20
76.101320
11
32.032849
21
73.776091
0
LINE
8
Layer 1
10
32.032849
20
73.776091
11
32.629921
21
72.296361
0
LINE
8
Layer 1
10
32.629921
20
72.296361
11
32.783134
21
72.021519
0
LINE
8
Layer 1
10
32.783134
20
72.021519
11
32.940673
21
71.740810
0
LINE
8
Layer 1
10
32.940673
20
71.740810
11
32.964153
21
71.413574
0
LINE
8
Layer 1
10
32.964153
20
71.413574
11
32.404758
21
71.363299
0
LINE
8
Layer 1
10
32.404758
20
71.363299
11
32.259591
21
71.415663
0
LINE
8
Layer 1
10
32.259591
20
71.415663
11
31.807432
21
71.665700
0
LINE
8
Layer 1
10
31.807432
20
71.665700
11
31.238887
21
72.185860
0
LINE
8
Layer 1
10
31.238887
20
72.185860
11
30.831951
21
72.786060
0
LINE
8
Layer 1
10
30.831951
20
72.786060
11
30.705812
21
73.040909
0
LINE
8
Layer 1
10
30.705812
20
73.040909
11
30.624425
21
72.899234
0
LINE
8
Layer 1
10
30.624425
20
72.899234
11
29.850341
21
70.930644
0
LINE
8
Layer 1
10
29.850341
20
70.930644
11
29.735067
21
69.570774
0
LINE
8
Layer 1
10
29.735067
20
69.570774
11
30.027705
21
68.384866
0
LINE
8
Layer 1
10
30.027705
20
68.384866
11
30.533369
21
67.291464
0
LINE
8
Layer 1
10
30.533369
20
67.291464
11
31.474593
21
66.206954
0
LINE
8
Layer 1
10
31.474593
20
66.206954
11
31.671096
21
66.057199
0
LINE
8
Layer 1
10
31.671096
20
66.057199
11
31.600106
21
66.299117
0
LINE
8
Layer 1
10
31.600106
20
66.299117
11
31.600070
21
66.299123
0
LINE
8
Layer 1
10
19.765700
20
64.416400
11
18.208190
21
64.893948
0
LINE
8
Layer 1
10
18.208190
20
64.893948
11
16.945440
21
65.860347
0
LINE
8
Layer 1
10
16.945440
20
65.860347
11
16.630630
21
66.215255
0
LINE
8
Layer 1
10
16.630630
20
66.215255
11
16.038966
21
67.003459
0
LINE
8
Layer 1
10
16.038966
20
67.003459
11
15.551380
21
68.081405
0
LINE
8
Layer 1
10
15.551380
20
68.081405
11
15.254511
21
69.272045
0
LINE
8
Layer 1
10
15.254511
20
69.272045
11
15.266987
21
70.360275
0
LINE
8
Layer 1
10
15.266987
20
70.360275
11
15.661523
21
71.787295
0
LINE
8
Layer 1
10
15.661523
20
71.787295
11
16.185219
21
72.867735
0
LINE
8
Layer 1
10
16.185219
20
72.867735
11
16.675833
21
73.330235
0
LINE
8
Layer 1
10
16.675833
20
73.330235
11
16.942948
21
72.975121
0
LINE
8
Layer 1
10
16.942948
20
72.975121
11
17.482762
21
72.159392
0
LINE
8
Layer 1
10
17.482762
20
72.159392
11
18.293078
21
71.577244
0
LINE
8
Layer 1
10
18.293078
20
71.577244
11
18.362039
21
71.628865
0
LINE
8
Layer 1
10
18.362039
20
71.628865
11
18.204009
21
71.913057
0
LINE
8
Layer 1
10
18.204009
20
71.913057
11
17.762794
21
72.773862
0
LINE
8
Layer 1
10
17.762794
20
72.773862
11
17.666776
21
73.032657
0
LINE
8
Layer 1
10
17.666776
20
73.032657
11
17.143903
21
75.211187
0
LINE
8
Layer 1
10
17.143903
20
75.211187
11
17.145879
21
77.021927
0
LINE
8
Layer 1
10
17.145879
20
77.021927
11
17.457465
21
77.980378
0
LINE
8
Layer 1
10
17.457465
20
77.980378
11
17.868681
21
78.690637
0
LINE
8
Layer 1
10
17.868681
20
78.690637
11
18.219949
21
79.150515
0
LINE
8
Layer 1
10
18.219949
20
79.150515
11
19.000200
21
80.104047
0
LINE
8
Layer 1
10
19.000200
20
80.104047
11
19.797066
21
80.808733
0
LINE
8
Layer 1
10
19.797066
20
80.808733
11
20.478020
21
81.229107
0
LINE
8
Layer 1
10
20.478020
20
81.229107
11
20.770089
21
81.232183
0
LINE
8
Layer 1
10
20.770089
20
81.232183
11
20.786034
21
81.046258
0
LINE
8
Layer 1
10
20.786034
20
81.046258
11
20.589012
21
79.980538
0
LINE
8
Layer 1
10
20.589012
20
79.980538
11
20.772628
21
78.534788
0
LINE
8
Layer 1
10
20.772628
20
78.534788
11
21.322444
21
77.209068
0
LINE
8
Layer 1
10
21.322444
20
77.209068
11
21.599431
21
76.843904
0
LINE
8
Layer 1
10
21.599431
20
76.843904
11
21.665373
21
77.013000
0
LINE
8
Layer 1
10
21.665373
20
77.013000
11
22.201665
21
77.875047
0
LINE
8
Layer 1
10
22.201665
20
77.875047
11
22.555592
21
78.121434
0
LINE
8
Layer 1
10
22.555592
20
78.121434
11
22.837257
21
78.114828
0
LINE
8
Layer 1
10
22.837257
20
78.114828
11
22.876353
21
77.864235
0
LINE
8
Layer 1
10
22.876353
20
77.864235
11
22.988697
21
76.776245
0
LINE
8
Layer 1
10
22.988697
20
76.776245
11
23.237805
21
75.935369
0
LINE
8
Layer 1
10
23.237805
20
75.935369
11
23.615489
21
75.247645
0
LINE
8
Layer 1
10
23.615489
20
75.247645
11
23.768606
21
75.034725
0
LINE
8
Layer 1
10
23.768606
20
75.034725
11
23.767195
21
75.195707
0
LINE
8
Layer 1
10
23.767195
20
75.195707
11
23.610979
21
76.015576
0
LINE
8
Layer 1
10
23.610979
20
76.015576
11
23.509924
21
76.415789
0
LINE
8
Layer 1
10
23.509924
20
76.415789
11
23.583112
21
76.500594
0
LINE
8
Layer 1
10
23.583112
20
76.500594
11
23.846448
21
76.665920
0
LINE
8
Layer 1
10
23.846448
20
76.665920
11
24.285258
21
76.487087
0
LINE
8
Layer 1
10
24.285258
20
76.487087
11
24.790960
21
76.063813
0
LINE
8
Layer 1
10
24.790960
20
76.063813
11
25.149529
21
75.699622
0
LINE
8
Layer 1
10
25.149529
20
75.699622
11
25.905184
21
74.565522
0
LINE
8
Layer 1
10
25.905184
20
74.565522
11
26.083876
21
74.170710
0
LINE
8
Layer 1
10
26.083876
20
74.170710
11
26.419612
21
73.080110
0
LINE
8
Layer 1
10
26.419612
20
73.080110
11
26.503458
21
71.798290
0
LINE
8
Layer 1
10
26.503458
20
71.798290
11
26.332587
21
69.523240
0
LINE
8
Layer 1
10
26.332587
20
69.523240
11
25.883294
21
68.227840
0
LINE
8
Layer 1
10
25.883294
20
68.227840
11
25.325067
21
67.205260
0
LINE
8
Layer 1
10
25.325067
20
67.205260
11
25.005010
21
66.801445
0
LINE
8
Layer 1
10
25.005010
20
66.801445
11
24.614254
21
66.384197
0
LINE
8
Layer 1
10
24.614254
20
66.384197
11
24.215630
21
66.011980
0
LINE
8
Layer 1
10
24.215630
20
66.011980
11
23.399780
21
65.211742
0
LINE
8
Layer 1
10
23.399780
20
65.211742
11
22.251260
21
64.561593
0
LINE
8
Layer 1
10
22.251260
20
64.561593
11
21.423269
21
64.396702
0
LINE
8
Layer 1
10
21.423269
20
64.396702
11
19.765699
21
64.416373
0
LINE
8
Layer 1
10
19.765699
20
64.416373
11
19.765700
21
64.416400
0
LINE
8
Layer 1
10
21.734650
20
64.876253
11
22.149293
21
64.977562
0
LINE
8
Layer 1
10
22.149293
20
64.977562
11
22.967706
21
65.400472
0
LINE
8
Layer 1
10
22.967706
20
65.400472
11
23.312087
21
66.497012
0
LINE
8
Layer 1
10
23.312087
20
66.497012
11
23.368252
21
67.434714
0
LINE
8
Layer 1
10
23.368252
20
67.434714
11
23.146555
21
69.213114
0
LINE
8
Layer 1
10
23.146555
20
69.213114
11
22.774775
21
70.302179
0
LINE
8
Layer 1
10
22.774775
20
70.302179
11
22.245407
21
71.301112
0
LINE
8
Layer 1
10
22.245407
20
71.301112
11
21.592101
21
72.157135
0
LINE
8
Layer 1
10
21.592101
20
72.157135
11
20.848505
21
72.817474
0
LINE
8
Layer 1
10
20.848505
20
72.817474
11
20.620166
21
72.936896
0
LINE
8
Layer 1
10
20.620166
20
72.936896
11
20.656800
21
72.649701
0
LINE
8
Layer 1
10
20.656800
20
72.649701
11
20.565343
21
70.975351
0
LINE
8
Layer 1
10
20.565343
20
70.975351
11
20.228432
21
69.633461
0
LINE
8
Layer 1
10
20.228432
20
69.633461
11
19.993508
21
68.032901
0
LINE
8
Layer 1
10
19.993508
20
68.032901
11
20.042932
21
67.301206
0
LINE
8
Layer 1
10
20.042932
20
67.301206
11
20.261918
21
66.589131
0
LINE
8
Layer 1
10
20.261918
20
66.589131
11
20.337215
21
66.047787
0
LINE
8
Layer 1
10
20.337215
20
66.047787
11
20.004351
21
66.102705
0
LINE
8
Layer 1
10
20.004351
20
66.102705
11
19.645300
21
66.285266
0
LINE
8
Layer 1
10
19.645300
20
66.285266
11
19.255630
21
66.519708
0
LINE
8
Layer 1
10
19.255630
20
66.519708
11
18.545557
21
67.436642
0
LINE
8
Layer 1
10
18.545557
20
67.436642
11
18.196417
21
68.922102
0
LINE
8
Layer 1
10
18.196417
20
68.922102
11
18.170932
21
69.148444
0
LINE
8
Layer 1
10
18.170932
20
69.148444
11
18.018538
21
68.906885
0
LINE
8
Layer 1
10
18.018538
20
68.906885
11
17.688810
21
67.991845
0
LINE
8
Layer 1
10
17.688810
20
67.991845
11
17.709554
21
66.642515
0
LINE
8
Layer 1
10
17.709554
20
66.642515
11
18.038331
21
65.640145
0
LINE
8
Layer 1
10
18.038331
20
65.640145
11
18.362296
21
65.320317
0
LINE
8
Layer 1
10
18.362296
20
65.320317
11
19.774296
21
64.865101
0
LINE
8
Layer 1
10
19.774296
20
64.865101
11
20.834196
21
64.815051
0
LINE
8
Layer 1
10
20.834196
20
64.815051
11
21.734642
21
64.876251
0
LINE
8
Layer 1
10
21.734642
20
64.876251
11
21.734650
21
64.876253
0
LINE
8
Layer 1
10
17.497370
20
66.149823
11
17.329694
21
67.267444
0
LINE
8
Layer 1
10
17.329694
20
67.267444
11
17.433111
21
68.380643
0
LINE
8
Layer 1
10
17.433111
20
68.380643
11
17.584622
21
68.817161
0
LINE
8
Layer 1
10
17.584622
20
68.817161
11
18.074853
21
69.529086
0
LINE
8
Layer 1
10
18.074853
20
69.529086
11
18.398294
21
69.481495
0
LINE
8
Layer 1
10
18.398294
20
69.481495
11
18.507824
21
69.033005
0
LINE
8
Layer 1
10
18.507824
20
69.033005
11
18.760492
21
67.845025
0
LINE
8
Layer 1
10
18.760492
20
67.845025
11
19.184800
21
67.138564
0
LINE
8
Layer 1
10
19.184800
20
67.138564
11
19.700562
21
66.656225
0
LINE
8
Layer 1
10
19.700562
20
66.656225
11
19.866794
21
66.588723
0
LINE
8
Layer 1
10
19.866794
20
66.588723
11
19.759203
21
66.951155
0
LINE
8
Layer 1
10
19.759203
20
66.951155
11
19.629635
21
67.952065
0
LINE
8
Layer 1
10
19.629635
20
67.952065
11
19.684843
21
68.982335
0
LINE
8
Layer 1
10
19.684843
20
68.982335
11
19.831508
21
69.629027
0
LINE
8
Layer 1
10
19.831508
20
69.629027
11
20.276626
21
71.395697
0
LINE
8
Layer 1
10
20.276626
20
71.395697
11
20.326026
21
72.139391
0
LINE
8
Layer 1
10
20.326026
20
72.139391
11
20.292133
21
72.793150
0
LINE
8
Layer 1
10
20.292133
20
72.793150
11
20.159967
21
73.097323
0
LINE
8
Layer 1
10
20.159967
20
73.097323
11
20.013353
21
73.297348
0
LINE
8
Layer 1
10
20.013353
20
73.297348
11
19.969888
21
73.519558
0
LINE
8
Layer 1
10
19.969888
20
73.519558
11
20.181789
21
73.587588
0
LINE
8
Layer 1
10
20.181789
20
73.587588
11
20.864972
21
73.307726
0
LINE
8
Layer 1
10
20.864972
20
73.307726
11
21.678469
21
72.685872
0
LINE
8
Layer 1
10
21.678469
20
72.685872
11
22.643710
21
71.473824
0
LINE
8
Layer 1
10
22.643710
20
71.473824
11
23.372069
21
69.989142
0
LINE
8
Layer 1
10
23.372069
20
69.989142
11
23.792618
21
68.085012
0
LINE
8
Layer 1
10
23.792618
20
68.085012
11
23.720091
21
66.305232
0
LINE
8
Layer 1
10
23.720091
20
66.305232
11
23.682197
21
66.072627
0
LINE
8
Layer 1
10
23.682197
20
66.072627
11
23.833245
21
66.242722
0
LINE
8
Layer 1
10
23.833245
20
66.242722
11
24.226208
21
66.616596
0
LINE
8
Layer 1
10
24.226208
20
66.616596
11
24.608955
21
66.989530
0
LINE
8
Layer 1
10
24.608955
20
66.989530
11
24.906688
21
67.362848
0
LINE
8
Layer 1
10
24.906688
20
67.362848
11
25.483218
21
68.376209
0
LINE
8
Layer 1
10
25.483218
20
68.376209
11
25.919148
21
69.601128
0
LINE
8
Layer 1
10
25.919148
20
69.601128
11
26.087618
21
71.799878
0
LINE
8
Layer 1
10
26.087618
20
71.799878
11
25.986940
21
73.110625
0
LINE
8
Layer 1
10
25.986940
20
73.110625
11
25.698598
21
74.030968
0
LINE
8
Layer 1
10
25.698598
20
74.030968
11
25.520970
21
74.435149
0
LINE
8
Layer 1
10
25.520970
20
74.435149
11
25.262170
21
74.904002
0
LINE
8
Layer 1
10
25.262170
20
74.904002
11
24.604088
21
75.685492
0
LINE
8
Layer 1
10
24.604088
20
75.685492
11
23.839348
21
76.296060
0
LINE
8
Layer 1
10
23.839348
20
76.296060
11
23.939907
21
75.932665
0
LINE
8
Layer 1
10
23.939907
20
75.932665
11
24.130661
21
74.752795
0
LINE
8
Layer 1
10
24.130661
20
74.752795
11
24.103737
21
74.316827
0
LINE
8
Layer 1
10
24.103737
20
74.316827
11
23.875233
21
74.431423
0
LINE
8
Layer 1
10
23.875233
20
74.431423
11
23.616117
21
74.669652
0
LINE
8
Layer 1
10
23.616117
20
74.669652
11
22.963400
21
75.630793
0
LINE
8
Layer 1
10
22.963400
20
75.630793
11
22.669043
21
76.555207
0
LINE
8
Layer 1
10
22.669043
20
76.555207
11
22.556577
21
77.450493
0
LINE
8
Layer 1
10
22.556577
20
77.450493
11
22.556600
21
77.743300
0
LINE
8
Layer 1
10
22.556600
20
77.743300
11
22.488740
21
77.681702
0
LINE
8
Layer 1
10
22.488740
20
77.681702
11
22.236287
21
77.342508
0
LINE
8
Layer 1
10
22.236287
20
77.342508
11
21.742362
21
76.187908
0
LINE
8
Layer 1
10
21.742362
20
76.187908
11
21.563454
21
76.260152
0
LINE
8
Layer 1
10
21.563454
20
76.260152
11
21.253760
21
76.650069
0
LINE
8
Layer 1
10
21.253760
20
76.650069
11
20.991294
21
77.038085
0
LINE
8
Layer 1
10
20.991294
20
77.038085
11
20.632657
21
77.740504
0
LINE
8
Layer 1
10
20.632657
20
77.740504
11
20.354926
21
78.767985
0
LINE
8
Layer 1
10
20.354926
20
78.767985
11
20.252768
21
79.697036
0
LINE
8
Layer 1
10
20.252768
20
79.697036
11
20.342310
21
80.573895
0
LINE
8
Layer 1
10
20.342310
20
80.573895
11
20.365057
21
80.682240
0
LINE
8
Layer 1
10
20.365057
20
80.682240
11
20.267824
21
80.631265
0
LINE
8
Layer 1
10
20.267824
20
80.631265
11
19.840577
21
80.291484
0
LINE
8
Layer 1
10
19.840577
20
80.291484
11
18.574137
21
78.897324
0
LINE
8
Layer 1
10
18.574137
20
78.897324
11
18.242007
21
78.460806
0
LINE
8
Layer 1
10
18.242007
20
78.460806
11
17.774007
21
77.608391
0
LINE
8
Layer 1
10
17.774007
20
77.608391
11
17.559747
21
76.828425
0
LINE
8
Layer 1
10
17.559747
20
76.828425
11
17.512500
21
75.952020
0
LINE
8
Layer 1
10
17.512500
20
75.952020
11
17.930149
21
73.626791
0
LINE
8
Layer 1
10
17.930149
20
73.626791
11
18.527221
21
72.147061
0
LINE
8
Layer 1
10
18.527221
20
72.147061
11
18.680434
21
71.872219
0
LINE
8
Layer 1
10
18.680434
20
71.872219
11
18.837973
21
71.591510
0
LINE
8
Layer 1
10
18.837973
20
71.591510
11
18.861453
21
71.264274
0
LINE
8
Layer 1
10
18.861453
20
71.264274
11
18.302059
21
71.213999
0
LINE
8
Layer 1
10
18.302059
20
71.213999
11
18.156892
21
71.266363
0
LINE
8
Layer 1
10
18.156892
20
71.266363
11
17.704732
21
71.516400
0
LINE
8
Layer 1
10
17.704732
20
71.516400
11
17.136187
21
72.036560
0
LINE
8
Layer 1
10
17.136187
20
72.036560
11
16.729252
21
72.636760
0
LINE
8
Layer 1
10
16.729252
20
72.636760
11
16.603113
21
72.891609
0
LINE
8
Layer 1
10
16.603113
20
72.891609
11
16.521725
21
72.749934
0
LINE
8
Layer 1
10
16.521725
20
72.749934
11
15.747641
21
70.781344
0
LINE
8
Layer 1
10
15.747641
20
70.781344
11
15.632367
21
69.421474
0
LINE
8
Layer 1
10
15.632367
20
69.421474
11
15.925005
21
68.235566
0
LINE
8
Layer 1
10
15.925005
20
68.235566
11
16.430669
21
67.142164
0
LINE
8
Layer 1
10
16.430669
20
67.142164
11
17.371893
21
66.057654
0
LINE
8
Layer 1
10
17.371893
20
66.057654
11
17.568396
21
65.907899
0
LINE
8
Layer 1
10
17.568396
20
65.907899
11
17.497406
21
66.149817
0
LINE
8
Layer 1
10
17.497406
20
66.149817
11
17.497370
21
66.149823
0
LINE
8
Layer 1
10
11.130000
20
44.997600
11
10.953129
21
45.206893
0
LINE
8
Layer 1
10
10.953129
20
45.206893
11
8.647519
21
49.812483
0
LINE
8
Layer 1
10
8.647519
20
49.812483
11
7.298059
21
52.572733
0
LINE
8
Layer 1
10
7.298059
20
52.572733
11
6.252119
21
54.728213
0
LINE
8
Layer 1
10
6.252119
20
54.728213
11
4.643889
21
58.062233
0
LINE
8
Layer 1
10
4.643889
20
58.062233
11
3.248569
21
61.037563
0
LINE
8
Layer 1
10
3.248569
20
61.037563
11
3.059668
21
61.563807
0
LINE
8
Layer 1
10
3.059668
20
61.563807
11
3.102878
21
61.811661
0
LINE
8
Layer 1
10
3.102878
20
61.811661
11
3.262610
21
61.878887
0
LINE
8
Layer 1
10
3.262610
20
61.878887
11
3.442100
21
61.765766
0
LINE
8
Layer 1
10
3.442100
20
61.765766
11
5.343880
21
58.093246
0
LINE
8
Layer 1
10
5.343880
20
58.093246
11
6.273581
21
56.216896
0
LINE
8
Layer 1
10
6.273581
20
56.216896
11
7.933171
21
52.836366
0
LINE
8
Layer 1
10
7.933171
20
52.836366
11
9.340451
21
49.952056
0
LINE
8
Layer 1
10
9.340451
20
49.952056
11
11.516761
21
45.273676
0
LINE
8
Layer 1
10
11.516761
20
45.273676
11
11.363232
21
44.991304
0
LINE
8
Layer 1
10
11.363232
20
44.991304
11
11.130009
21
44.997598
0
LINE
8
Layer 1
10
11.130009
20
44.997598
11
11.130000
21
44.997600
 0 
ENDSEC
 0 
EOF