0
SECTION
2
HEADER
9
$INSUNITS
70
4
9
$ACADVER
1
AC1014
9
$HANDSEED
5
FFFF
0
ENDSEC
0
SECTION
2
TABLES
0
TABLE
2
VPORT
5
8
100
AcDbSymbolTable
0
ENDTAB
0
TABLE
2
LTYPE
5
5
100
AcDbSymbolTable
0
LTYPE
5
14
100
AcDbSymbolTableRecord
100
AcDbLinetypeTableRecord
2
BYBLOCK
70
0
0
LTYPE
5
15
100
AcDbSymbolTableRecord
100
AcDbLinetypeTableRecord
2
BYLAYER
70
0
0
ENDTAB
0
TABLE
2
LAYER
5
2
100
AcDbSymbolTable
70
2
0
LAYER
5
50
100
AcDbSymbolTableRecord
100
AcDbLayerTableRecord
2
0
70
0
6
CONTINUOUS
0
ENDTAB
0
TABLE
2
STYLE
5
3
100
AcDbSymbolTable
70
1
0
STYLE
5
11
100
AcDbSymbolTableRecord
100
AcDbTextStyleTableRecord
2
STANDARD
70
0
0
ENDTAB
0
TABLE
2
VIEW
5
6
100
AcDbSymbolTable
70
0
0
ENDTAB
0
TABLE
2
UCS
5
7
100
AcDbSymbolTable
70
0
0
ENDTAB
0
TABLE
2
APPID
5
9
100
AcDbSymbolTable
70
2
0
APPID
5
12
100
AcDbSymbolTableRecord
100
AcDbRegAppTableRecord
2
ACAD
70
0
0
ENDTAB
0
TABLE
2
DIMSTYLE
5
A
100
AcDbSymbolTable
70
1
0
ENDTAB
0
TABLE
2
BLOCK_RECORD
5
1
100
AcDbSymbolTable
70
1
0
BLOCK_RECORD
5
1F
100
AcDbSymbolTableRecord
100
AcDbBlockTableRecord
2
*MODEL_SPACE
0
BLOCK_RECORD
5
1B
100
AcDbSymbolTableRecord
100
AcDbBlockTableRecord
2
*PAPER_SPACE
0
ENDTAB
0
ENDSEC
0
SECTION
2
BLOCKS
0
BLOCK
5
20
100
AcDbEntity
100
AcDbBlockBegin
2
*MODEL_SPACE
0
ENDBLK
5
21
100
AcDbEntity
100
AcDbBlockEnd
0
BLOCK
5
1C
100
AcDbEntity
100
AcDbBlockBegin
2
*PAPER_SPACE
0
ENDBLK
5
1D
100
AcDbEntity
100
AcDbBlockEnd
0
ENDSEC
0
SECTION
2
ENTITIES
0
CIRCLE
5
100
100
AcDbEntity
8
0
100
AcDbCircle
10
0
20
0
30
0
40
20
210
0
220
0
230
1
0
LINE
5
101
100
AcDbEntity
8
0
100
AcDbLine
10
-1.3264523071900027
20
19.955964629071438
30
0
11
-1.3264523071900027
21
0
31
0
0
LINE
5
102
100
AcDbEntity
8
0
100
AcDbLine
10
1.3235476928099974
20
0.0093597208796714071
30
0
11
1.3235476928099974
21
19.956157483465034
31
0
0
LINE
5
103
100
AcDbEntity
8
0
100
AcDbLine
10
-1.3264523071900027
20
0
30
0
11
1.3235476928099974
21
0.0093597208796714071
31
0
0
LINE
5
104
100
AcDbEntity
8
0
100
AcDbLine
10
14
20
0
30
0
11
14
21
-1.3250000000000002
31
0
0
LINE
5
105
100
AcDbEntity
8
0
100
AcDbLine
10
14
20
0
30
0
11
14
21
1.3250000000000002
31
0
0
LINE
5
106
100
AcDbEntity
8
0
100
AcDbLine
10
14
20
-1.3250000000000002
30
0
11
19.956061109347203
21
-1.3250000000000002
31
0
0
LINE
5
107
100
AcDbEntity
8
0
100
AcDbLine
10
14
20
1.3250000000000002
30
0
11
19.956061109347207
21
1.3250000000000002
31
0
0
LINE
5
108
100
AcDbEntity
8
0
100
AcDbLine
10
8.9625784515394873
20
10.83641142168384
30
0
11
13.174149651120368
21
15.047982621264723
31
0
0
LINE
5
109
100
AcDbEntity
8
0
100
AcDbLine
10
9.8994949366116636
20
9.8994949366116654
30
0
11
8.9625784515394873
21
10.83641142168384
31
0
0
LINE
5
110
100
AcDbEntity
8
0
100
AcDbLine
10
9.8994949366116636
20
9.8994949366116654
30
0
11
10.836411421683838
21
8.9625784515394908
31
0
0
LINE
5
111
100
AcDbEntity
8
0
100
AcDbLine
10
10.836411421683838
20
8.9625784515394908
30
0
11
15.047982621264717
21
13.17414965112037
31
0
0
LINE
5
112
100
AcDbEntity
8
0
100
AcDbLine
10
-1.3249999999999971
20
14
30
0
11
-1.3249999999999957
21
19.956061109347207
31
0
0
LINE
5
113
100
AcDbEntity
8
0
100
AcDbLine
10
3.1086244689504383e-15
20
14
30
0
11
-1.3249999999999971
21
14
31
0
0
LINE
5
114
100
AcDbEntity
8
0
100
AcDbLine
10
3.1086244689504383e-15
20
14
30
0
11
1.3250000000000031
21
14
31
0
0
LINE
5
115
100
AcDbEntity
8
0
100
AcDbLine
10
1.3250000000000031
20
14
30
0
11
1.3250000000000046
21
19.956061109347203
31
0
0
LINE
5
116
100
AcDbEntity
8
0
100
AcDbLine
10
-10.83641142168384
20
8.9625784515394908
30
0
11
-15.047982621264723
21
13.174149651120375
31
0
0
LINE
5
117
100
AcDbEntity
8
0
100
AcDbLine
10
-9.8994949366116636
20
9.8994949366116671
30
0
11
-10.83641142168384
21
8.9625784515394908
31
0
0
LINE
5
118
100
AcDbEntity
8
0
100
AcDbLine
10
-9.8994949366116636
20
9.8994949366116671
30
0
11
-8.9625784515394873
21
10.836411421683842
31
0
0
LINE
5
119
100
AcDbEntity
8
0
100
AcDbLine
10
-8.9625784515394873
20
10.836411421683842
30
0
11
-13.174149651120366
21
15.047982621264723
31
0
0
LINE
5
120
100
AcDbEntity
8
0
100
AcDbLine
10
-14
20
-1.3249999999999984
30
0
11
-19.956061109347207
21
-1.3249999999999975
31
0
0
LINE
5
121
100
AcDbEntity
8
0
100
AcDbLine
10
-14
20
1.7145055188062944e-15
30
0
11
-14
21
-1.3249999999999984
31
0
0
LINE
5
122
100
AcDbEntity
8
0
100
AcDbLine
10
-14
20
1.7145055188062944e-15
30
0
11
-14
21
1.3250000000000017
31
0
0
LINE
5
123
100
AcDbEntity
8
0
100
AcDbLine
10
-14
20
1.3250000000000017
30
0
11
-19.956061109347203
21
1.3250000000000026
31
0
0
LINE
5
124
100
AcDbEntity
8
0
100
AcDbLine
10
-8.9625784515394873
20
-10.836411421683838
30
0
11
-13.17414965112037
21
-15.047982621264719
31
0
0
LINE
5
125
100
AcDbEntity
8
0
100
AcDbLine
10
-9.8994949366116636
20
-9.8994949366116636
30
0
11
-8.9625784515394873
21
-10.836411421683838
31
0
0
LINE
5
126
100
AcDbEntity
8
0
100
AcDbLine
10
-9.8994949366116636
20
-9.8994949366116636
30
0
11
-10.836411421683838
21
-8.9625784515394873
31
0
0
LINE
5
127
100
AcDbEntity
8
0
100
AcDbLine
10
-10.836411421683838
20
-8.9625784515394873
30
0
11
-15.047982621264717
21
-13.174149651120368
31
0
0
LINE
5
128
100
AcDbEntity
8
0
100
AcDbLine
10
1.3249999999999971
20
-14
30
0
11
1.3249999999999957
21
-19.956061109347207
31
0
0
LINE
5
129
100
AcDbEntity
8
0
100
AcDbLine
10
-3.1086244689504383e-15
20
-14
30
0
11
1.3249999999999971
21
-14
31
0
0
LINE
5
130
100
AcDbEntity
8
0
100
AcDbLine
10
-3.1086244689504383e-15
20
-14
30
0
11
-1.3250000000000031
21
-14
31
0
0
LINE
5
131
100
AcDbEntity
8
0
100
AcDbLine
10
-1.3250000000000031
20
-14
30
0
11
-1.3250000000000046
21
-19.956061109347203
31
0
0
LINE
5
132
100
AcDbEntity
8
0
100
AcDbLine
10
10.83641142168384
20
-8.9625784515394908
30
0
11
15.047982621264723
21
-13.174149651120375
31
0
0
LINE
5
133
100
AcDbEntity
8
0
100
AcDbLine
10
9.8994949366116636
20
-9.8994949366116671
30
0
11
10.83641142168384
21
-8.9625784515394908
31
0
0
LINE
5
134
100
AcDbEntity
8
0
100
AcDbLine
10
9.8994949366116636
20
-9.8994949366116671
30
0
11
8.9625784515394873
21
-10.836411421683842
31
0
0
LINE
5
135
100
AcDbEntity
8
0
100
AcDbLine
10
8.9625784515394873
20
-10.836411421683842
30
0
11
13.174149651120366
21
-15.047982621264723
31
0
0
ENDSEC
0
SECTION
2
OBJECTS
0
DICTIONARY
5
C
100
AcDbDictionary
3
ACAD_GROUP
350
D
3
ACAD_MLINESTYLE
350
17
0
DICTIONARY
5
D
100
AcDbDictionary
0
DICTIONARY
5
1A
330
C
100
AcDbDictionary
0
DICTIONARY
5
17
100
AcDbDictionary
0
ENDSEC
0
EOF
