0
SECTION
2
HEADER
9
$INSUNITS
70
4
9
$ACADVER
1
AC1014
9
$HANDSEED
5
FFFF
0
ENDSEC
0
SECTION
2
TABLES
0
TABLE
2
VPORT
5
8
100
AcDbSymbolTable
0
ENDTAB
0
TABLE
2
LTYPE
5
5
100
AcDbSymbolTable
0
LTYPE
5
14
100
AcDbSymbolTableRecord
100
AcDbLinetypeTableRecord
2
BYBLOCK
70
0
0
LTYPE
5
15
100
AcDbSymbolTableRecord
100
AcDbLinetypeTableRecord
2
BYLAYER
70
0
0
ENDTAB
0
TABLE
2
LAYER
5
2
100
AcDbSymbolTable
70
2
0
LAYER
5
50
100
AcDbSymbolTableRecord
100
AcDbLayerTableRecord
2
0
70
0
6
CONTINUOUS
0
ENDTAB
0
TABLE
2
STYLE
5
3
100
AcDbSymbolTable
70
1
0
STYLE
5
11
100
AcDbSymbolTableRecord
100
AcDbTextStyleTableRecord
2
STANDARD
70
0
0
ENDTAB
0
TABLE
2
VIEW
5
6
100
AcDbSymbolTable
70
0
0
ENDTAB
0
TABLE
2
UCS
5
7
100
AcDbSymbolTable
70
0
0
ENDTAB
0
TABLE
2
APPID
5
9
100
AcDbSymbolTable
70
2
0
APPID
5
12
100
AcDbSymbolTableRecord
100
AcDbRegAppTableRecord
2
ACAD
70
0
0
ENDTAB
0
TABLE
2
DIMSTYLE
5
A
100
AcDbSymbolTable
70
1
0
ENDTAB
0
TABLE
2
BLOCK_RECORD
5
1
100
AcDbSymbolTable
70
1
0
BLOCK_RECORD
5
1F
100
AcDbSymbolTableRecord
100
AcDbBlockTableRecord
2
*MODEL_SPACE
0
BLOCK_RECORD
5
1B
100
AcDbSymbolTableRecord
100
AcDbBlockTableRecord
2
*PAPER_SPACE
0
ENDTAB
0
ENDSEC
0
SECTION
2
BLOCKS
0
BLOCK
5
20
100
AcDbEntity
100
AcDbBlockBegin
2
*MODEL_SPACE
0
ENDBLK
5
21
100
AcDbEntity
100
AcDbBlockEnd
0
BLOCK
5
1C
100
AcDbEntity
100
AcDbBlockBegin
2
*PAPER_SPACE
0
ENDBLK
5
1D
100
AcDbEntity
100
AcDbBlockEnd
0
ENDSEC
0
SECTION
2
ENTITIES
0
LINE
5
100
100
AcDbEntity
8
0
100
AcDbLine
10
-19.95559553345732
20
1.3250611859078152
30
0
11
-19.95559553345732
21
5.3250611859078045
31
0
0
LINE
5
101
100
AcDbEntity
8
0
100
AcDbLine
10
-19.95559553345732
20
5.3250611859078045
30
0
11
-13.955595533457338
21
5.3250611859078045
31
0
0
LINE
5
102
100
AcDbEntity
8
0
100
AcDbLine
10
-13.955595533457338
20
5.3250611859078045
30
0
11
-13.955595533457338
21
3.3250611859078743
31
0
0
LINE
5
103
100
AcDbEntity
8
0
100
AcDbLine
10
-19.95559553345732
20
1.3250611859078152
30
0
11
-13.95559553345732
21
1.3250611859078028
31
0
0
LINE
5
104
100
AcDbEntity
8
0
100
AcDbLine
10
-13.95559553345732
20
1.3250611859078028
30
0
11
-13.95559553345732
21
6.1185907715216256e-05
31
0
0
LINE
5
105
100
AcDbEntity
8
0
100
AcDbLine
10
-19.95559553345732
20
-1.3249388140923846
30
0
11
-19.95559553345732
21
-5.3249388140923877
31
0
0
LINE
5
106
100
AcDbEntity
8
0
100
AcDbLine
10
-19.95559553345732
20
-5.3249388140923877
30
0
11
-13.955595533457327
21
-5.3249388140923877
31
0
0
LINE
5
107
100
AcDbEntity
8
0
100
AcDbLine
10
-13.955595533457327
20
-5.3249388140923877
30
0
11
-13.955595533457327
21
-3.3249388140924871
31
0
0
LINE
5
108
100
AcDbEntity
8
0
100
AcDbLine
10
-19.95559553345732
20
-1.3249388140923846
30
0
11
-13.955595533457327
21
-1.3249388140923846
31
0
0
LINE
5
109
100
AcDbEntity
8
0
100
AcDbLine
10
-13.955595533457327
20
-1.3249388140923846
30
0
11
-13.955595533457327
21
6.1185907898252093e-05
31
0
0
LINE
5
110
100
AcDbEntity
8
0
100
AcDbLine
10
72.044481852466433
20
1.3268411669673541
30
0
11
72.044327071634982
21
5.3268411639727145
31
0
0
LINE
5
111
100
AcDbEntity
8
0
100
AcDbLine
10
72.044481852466433
20
1.3268411669673541
30
0
11
66.044481856958384
21
1.3266089957201854
31
0
0
LINE
5
112
100
AcDbEntity
8
0
100
AcDbLine
10
66.044481856958384
20
1.3266089957201854
30
0
11
66.04453312810881
21
0.001608996712266126
31
0
0
LINE
5
113
100
AcDbEntity
8
0
100
AcDbLine
10
66.044584399259236
20
-1.3233910022960558
30
0
11
66.044533128108824
21
0.0016089967122530052
31
0
0
LINE
5
114
100
AcDbEntity
8
0
100
AcDbLine
10
72.04458439476727
20
-1.3231588310488871
30
0
11
72.044739175598721
21
-5.323158828054253
31
0
0
LINE
5
115
100
AcDbEntity
8
0
100
AcDbLine
10
72.04458439476727
20
-1.3231588310488871
30
0
11
66.044584399259236
21
-1.3233910022960558
31
0
0
LINE
5
116
100
AcDbEntity
8
0
100
AcDbLine
10
72.044739175598721
20
-5.323158828054253
30
0
11
66.044739180090687
21
-5.3233909993014201
31
0
0
LINE
5
117
100
AcDbEntity
8
0
100
AcDbLine
10
66.044739180090687
20
-5.3233909993014201
30
0
11
66.044661789674961
21
-3.3233910007985354
31
0
0
LINE
5
118
100
AcDbEntity
8
0
100
AcDbLine
10
72.044327071634982
20
5.3268411639727145
30
0
11
66.044327076126962
21
5.3266089927255464
31
0
0
LINE
5
119
100
AcDbEntity
8
0
100
AcDbLine
10
66.044327076126962
20
5.3266089927255464
30
0
11
66.044404466542673
21
3.3266089942228785
31
0
0
LINE
5
120
100
AcDbEntity
8
0
100
AcDbLine
10
66.044404466542673
20
3.3266089942228785
30
0
11
-13.955595533457338
21
3.3250611859078743
31
0
0
LINE
5
121
100
AcDbEntity
8
0
100
AcDbLine
10
-13.955595533457327
20
-3.3249388140924871
30
0
11
66.044661789674961
21
-3.3233910007985354
31
0
0
ENDSEC
0
SECTION
2
OBJECTS
0
DICTIONARY
5
C
100
AcDbDictionary
3
ACAD_GROUP
350
D
3
ACAD_MLINESTYLE
350
17
0
DICTIONARY
5
D
100
AcDbDictionary
0
DICTIONARY
5
1A
330
C
100
AcDbDictionary
0
DICTIONARY
5
17
100
AcDbDictionary
0
ENDSEC
0
EOF
