0
SECTION
2
HEADER
9
$INSUNITS
70
4
9
$ACADVER
1
AC1014
9
$HANDSEED
5
FFFF
0
ENDSEC
0
SECTION
2
TABLES
0
TABLE
2
VPORT
5
8
100
AcDbSymbolTable
0
ENDTAB
0
TABLE
2
LTYPE
5
5
100
AcDbSymbolTable
0
LTYPE
5
14
100
AcDbSymbolTableRecord
100
AcDbLinetypeTableRecord
2
BYBLOCK
70
0
0
LTYPE
5
15
100
AcDbSymbolTableRecord
100
AcDbLinetypeTableRecord
2
BYLAYER
70
0
0
ENDTAB
0
TABLE
2
LAYER
5
2
100
AcDbSymbolTable
70
2
0
LAYER
5
50
100
AcDbSymbolTableRecord
100
AcDbLayerTableRecord
2
0
70
0
6
CONTINUOUS
0
ENDTAB
0
TABLE
2
STYLE
5
3
100
AcDbSymbolTable
70
1
0
STYLE
5
11
100
AcDbSymbolTableRecord
100
AcDbTextStyleTableRecord
2
STANDARD
70
0
0
ENDTAB
0
TABLE
2
VIEW
5
6
100
AcDbSymbolTable
70
0
0
ENDTAB
0
TABLE
2
UCS
5
7
100
AcDbSymbolTable
70
0
0
ENDTAB
0
TABLE
2
APPID
5
9
100
AcDbSymbolTable
70
2
0
APPID
5
12
100
AcDbSymbolTableRecord
100
AcDbRegAppTableRecord
2
ACAD
70
0
0
ENDTAB
0
TABLE
2
DIMSTYLE
5
A
100
AcDbSymbolTable
70
1
0
ENDTAB
0
TABLE
2
BLOCK_RECORD
5
1
100
AcDbSymbolTable
70
1
0
BLOCK_RECORD
5
1F
100
AcDbSymbolTableRecord
100
AcDbBlockTableRecord
2
*MODEL_SPACE
0
BLOCK_RECORD
5
1B
100
AcDbSymbolTableRecord
100
AcDbBlockTableRecord
2
*PAPER_SPACE
0
ENDTAB
0
ENDSEC
0
SECTION
2
BLOCKS
0
BLOCK
5
20
100
AcDbEntity
100
AcDbBlockBegin
2
*MODEL_SPACE
0
ENDBLK
5
21
100
AcDbEntity
100
AcDbBlockEnd
0
BLOCK
5
1C
100
AcDbEntity
100
AcDbBlockBegin
2
*PAPER_SPACE
0
ENDBLK
5
1D
100
AcDbEntity
100
AcDbBlockEnd
0
ENDSEC
0
SECTION
2
ENTITIES
0
ARC
5
100
100
AcDbEntity
8
0
100
AcDbCircle
10
-124.99999686341366
20
1.3430652391207743e-14
30
0
40
18.949200000000019
210
0
220
0
230
1
100
AcDbArc
50
176.29050844175649
51
183.70949161288917
0
ARC
5
101
100
AcDbEntity
8
0
100
AcDbCircle
10
-145.4936707141201
20
-1.3286756529982622
30
0
40
1.5875000000000004
210
-0
220
0
230
1
100
AcDbArc
50
-81.83273891413485
51
3.7094916128892996
0
LINE
5
102
100
AcDbEntity
8
0
100
AcDbLine
10
-145.26814514522127
20
-2.9000745418144853
30
0
11
-148.25527756669541
21
-3.328784746157698
31
0
0
SPLINE
5
103
100
AcDbEntity
8
0
100
AcDbSpline
70
4
71
5
72
81
73
75
74
0
42
0.000000001
43
0.0000000001
44
0.0000000001
40
0
40
0
40
0
40
0
40
0
40
0
40
0.014285714285714285
40
0.028571428571428571
40
0.042857142857142858
40
0.057142857142857141
40
0.071428571428571425
40
0.085714285714285715
40
0.10000000000000001
40
0.1142857142857143
40
0.12857142857142859
40
0.14285714285714288
40
0.15714285714285717
40
0.17142857142857146
40
0.18571428571428575
40
0.20000000000000004
40
0.21428571428571433
40
0.22857142857142862
40
0.24285714285714291
40
0.25714285714285717
40
0.27142857142857146
40
0.28571428571428575
40
0.30000000000000004
40
0.31428571428571433
40
0.32857142857142863
40
0.34285714285714292
40
0.35714285714285721
40
0.3714285714285715
40
0.38571428571428579
40
0.40000000000000008
40
0.41428571428571437
40
0.42857142857142866
40
0.44285714285714295
40
0.45714285714285724
40
0.47142857142857153
40
0.48571428571428582
40
0.50000000000000011
40
0.51428571428571435
40
0.52857142857142858
40
0.54285714285714282
40
0.55714285714285705
40
0.57142857142857129
40
0.58571428571428552
40
0.59999999999999976
40
0.61428571428571399
40
0.62857142857142823
40
0.64285714285714246
40
0.6571428571428567
40
0.67142857142857093
40
0.68571428571428517
40
0.6999999999999994
40
0.71428571428571364
40
0.72857142857142787
40
0.74285714285714211
40
0.75714285714285634
40
0.77142857142857058
40
0.78571428571428481
40
0.79999999999999905
40
0.81428571428571328
40
0.82857142857142752
40
0.84285714285714175
40
0.85714285714285599
40
0.87142857142857022
40
0.88571428571428445
40
0.89999999999999869
40
0.91428571428571292
40
0.92857142857142716
40
0.94285714285714139
40
0.95714285714285563
40
0.97142857142856986
40
0.9857142857142841
40
1
40
1
40
1
40
1
40
1
40
1
41
1
41
1
41
1
41
1
41
1
41
1
41
1
41
1
41
1
41
1
41
1
41
1
41
1
41
1
41
1
41
1
41
1
41
1
41
1
41
1
41
1
41
1
41
1
41
1
41
1
41
1
41
1
41
1
41
1
41
1
41
1
41
1
41
1
41
1
41
1
41
1
41
1
41
1
41
1
41
1
41
1
41
1
41
1
41
1
41
1
41
1
41
1
41
1
41
1
41
1
41
1
41
1
41
1
41
1
41
1
41
1
41
1
41
1
41
1
41
1
41
1
41
1
41
1
41
1
41
1
41
1
41
1
41
1
41
1
41
1
41
1
41
1
41
1
41
1
41
1
10
-148.25527756669541
20
-3.3287847461576976
30
0
10
-148.27473125372683
20
-3.3315767195173351
30
0
10
-148.31349150336712
20
-3.3378220659798257
30
0
10
-148.37119051516606
20
-3.3491742401761018
30
0
10
-148.4472861891831
20
-3.3680771973000265
30
0
10
-148.54127854624014
20
-3.3968194124565181
30
0
10
-148.63447741054495
20
-3.4292081057723065
30
0
10
-148.72720489900868
20
-3.4638104566156347
30
0
10
-148.81968175664807
20
-3.4996112996046458
30
0
10
-148.91196979361879
20
-3.536260906297866
30
0
10
-149.00403128486104
20
-3.5738295065969772
30
0
10
-149.09577157886037
20
-3.6126328677140078
30
0
10
-149.18708483687863
20
-3.6530440659839947
30
0
10
-149.27790645217078
20
-3.695278592492774
30
0
10
-149.36823401464056
20
-3.739307102859911
30
0
10
-149.45810003612195
20
-3.7849643650165965
30
0
10
-149.54755567128805
20
-3.8320134101266961
30
0
10
-149.63665163447732
20
-3.8802212766335309
30
0
10
-149.72541636637936
20
-3.9294454990378118
30
0
10
-149.81385234030211
20
-3.9796485812661455
30
0
10
-149.90194729053556
20
-4.0308531290574647
30
0
10
-149.98968135603894
20
-4.0831132313661271
30
0
10
-150.07703524392912
20
-4.1364817962107576
30
0
10
-150.16399960027567
20
-4.1909730654195938
30
0
10
-150.25057509139674
20
-4.2465621917669854
30
0
10
-150.33676798182083
20
-4.303202782091212
30
0
10
-150.42258706432656
20
-4.3608390495108988
30
0
10
-150.50804027143374
20
-4.4194192421426024
30
0
10
-150.59313081805246
20
-4.4789109378797356
30
0
10
-150.67785763222165
20
-4.5392992820364393
30
0
10
-150.76221713167376
20
-4.6005798731875576
30
0
10
-150.84620458283877
20
-4.6627533135807013
30
0
10
-150.92981554800761
20
-4.7258194128861328
30
0
10
-151.01304752430389
20
-4.7897706301928782
30
0
10
-151.0958996678348
20
-4.8545931527018036
30
0
10
-151.17837207890352
20
-4.920269727268475
30
0
10
-151.26046522839948
20
-4.9867819336516126
30
0
10
-151.34217936241237
20
-5.0541125465280512
30
0
10
-151.42351383020792
20
-5.1222482113525576
30
0
10
-151.50446721493469
20
-5.1911788900350375
30
0
10
-151.5850376307414
20
-5.2608966408255196
30
0
10
-151.66522297078535
20
-5.3313945992630272
30
0
10
-151.74502116259112
20
-5.4026659353652242
30
0
10
-151.82443046392305
20
-5.4747026474976943
30
0
10
-151.9034494193406
20
-5.547495756059444
30
0
10
-151.98207673934431
20
-5.6210358178730102
30
0
10
-152.06031120663286
20
-5.6953133379186855
30
0
10
-152.13815157981898
20
-5.7703191867436594
30
0
10
-152.21559648622934
20
-5.8460450915479889
30
0
10
-152.29264442034281
20
-5.9224835594528455
30
0
10
-152.36929377804722
20
-5.999627619758602
30
0
10
-152.44554288179083
20
-6.0774706133184431
30
0
10
-152.52139001168058
20
-6.1560059785363466
30
0
10
-152.59683343869875
20
-6.2352269807455416
30
0
10
-152.67187144994699
20
-6.3151267369846886
30
0
10
-152.74650236828643
20
-6.3956983811494448
30
0
10
-152.82072458003316
20
-6.4769351875580217
30
0
10
-152.89453655475768
20
-6.5588306900704199
30
0
10
-152.96793689042482
20
-6.6413788402339211
30
0
10
-153.04092427228187
20
-6.724573969185581
30
0
10
-153.11349736664437
20
-6.8084105921422999
30
0
10
-153.1856547293095
20
-6.8928832431500791
30
0
10
-153.25739472560122
20
-6.9779863165541034
30
0
10
-153.32871541270617
20
-7.0637138431775455
30
0
10
-153.39961456609583
20
-7.1500594922840595
30
0
10
-153.4700899252334
20
-7.2370169264290576
30
0
10
-153.54013939595987
20
-7.3245800734589128
30
0
10
-153.60976126078467
20
-7.4127434173321936
30
0
10
-153.67895441977615
20
-7.5015023016682179
30
0
10
-153.74771852904783
20
-7.590853148869078
30
0
10
-153.81605371904936
20
-7.6807933327397482
30
0
10
-153.87037904830217
20
-7.7532155483870158
30
0
10
-153.91093039376398
20
-7.8077961848215729
30
0
10
-153.93787902970692
20
-7.8443005589527033
30
0
10
-153.95133194908274
20
-7.8625820668089688
30
0
0
ARC
5
104
100
AcDbEntity
8
0
100
AcDbCircle
10
-124.99999686341366
20
1.3430652391207743e-14
30
0
40
30.000000000000021
210
0
220
0
230
1
100
AcDbArc
50
195.19387816929552
51
200.80612188535011
0
SPLINE
5
105
100
AcDbEntity
8
0
100
AcDbSpline
70
4
71
5
72
81
73
75
74
0
42
0.000000001
43
0.0000000001
44
0.0000000001
40
-1
40
-1
40
-1
40
-1
40
-1
40
-1
40
-0.9857142857142841
40
-0.97142857142856986
40
-0.95714285714285563
40
-0.94285714285714139
40
-0.92857142857142716
40
-0.91428571428571292
40
-0.89999999999999869
40
-0.88571428571428445
40
-0.87142857142857022
40
-0.85714285714285599
40
-0.84285714285714175
40
-0.82857142857142752
40
-0.81428571428571328
40
-0.79999999999999905
40
-0.78571428571428481
40
-0.77142857142857058
40
-0.75714285714285634
40
-0.74285714285714211
40
-0.72857142857142787
40
-0.71428571428571364
40
-0.6999999999999994
40
-0.68571428571428517
40
-0.67142857142857093
40
-0.6571428571428567
40
-0.64285714285714246
40
-0.62857142857142823
40
-0.61428571428571399
40
-0.59999999999999976
40
-0.58571428571428552
40
-0.57142857142857129
40
-0.55714285714285705
40
-0.54285714285714282
40
-0.52857142857142858
40
-0.51428571428571435
40
-0.50000000000000011
40
-0.48571428571428582
40
-0.47142857142857153
40
-0.45714285714285724
40
-0.44285714285714295
40
-0.42857142857142866
40
-0.41428571428571437
40
-0.40000000000000008
40
-0.38571428571428579
40
-0.3714285714285715
40
-0.35714285714285721
40
-0.34285714285714292
40
-0.32857142857142863
40
-0.31428571428571433
40
-0.30000000000000004
40
-0.28571428571428575
40
-0.27142857142857146
40
-0.25714285714285717
40
-0.24285714285714291
40
-0.22857142857142862
40
-0.21428571428571433
40
-0.20000000000000004
40
-0.18571428571428575
40
-0.17142857142857146
40
-0.15714285714285717
40
-0.14285714285714288
40
-0.12857142857142859
40
-0.1142857142857143
40
-0.10000000000000001
40
-0.085714285714285715
40
-0.071428571428571425
40
-0.057142857142857141
40
-0.042857142857142858
40
-0.028571428571428571
40
-0.014285714285714285
40
0
40
0
40
0
40
0
40
0
40
0
41
1
41
1
41
1
41
1
41
1
41
1
41
1
41
1
41
1
41
1
41
1
41
1
41
1
41
1
41
1
41
1
41
1
41
1
41
1
41
1
41
1
41
1
41
1
41
1
41
1
41
1
41
1
41
1
41
1
41
1
41
1
41
1
41
1
41
1
41
1
41
1
41
1
41
1
41
1
41
1
41
1
41
1
41
1
41
1
41
1
41
1
41
1
41
1
41
1
41
1
41
1
41
1
41
1
41
1
41
1
41
1
41
1
41
1
41
1
41
1
41
1
41
1
41
1
41
1
41
1
41
1
41
1
41
1
41
1
41
1
41
1
41
1
41
1
41
1
41
1
10
-153.04362873120988
20
-10.656205312564335
30
0
10
-153.02199949009673
20
-10.663087935472825
30
0
10
-152.97874085287216
20
-10.676780583696024
30
0
10
-152.91385243207245
20
-10.697101763250426
30
0
10
-152.82733360716068
20
-10.723760939036103
30
0
10
-152.71918376343686
20
-10.756357659266031
30
0
10
-152.61103332013809
20
-10.788225483693239
30
0
10
-152.50288371536715
20
-10.81936221100497
30
0
10
-152.39473733019332
20
-10.849765148995132
30
0
10
-152.28659779143189
20
-10.879431177096183
30
0
10
-152.1784697308097
20
-10.908356842252523
30
0
10
-152.07035841165936
20
-10.936538462904457
30
0
10
-151.96226938785003
20
-10.963972240661812
30
0
10
-151.85420818017656
20
-10.990654361396356
30
0
10
-151.74617986900199
20
-11.016581137899617
30
0
10
-151.63818907172839
20
-11.041748995940111
30
0
10
-151.53024016954748
20
-11.066154362349252
30
0
10
-151.42233746530727
20
-11.089793583764365
30
0
10
-151.31448535473905
20
-11.112662846771244
30
0
10
-151.20668852730449
20
-11.134758082164469
30
0
10
-151.09895202184876
20
-11.156074958290773
30
0
10
-150.99128109712612
20
-11.176608982458891
30
0
10
-150.88368114576531
20
-11.196355585671249
30
0
10
-150.77615759923333
20
-11.215310206311502
30
0
10
-150.66871581487283
20
-11.233468412210946
30
0
10
-150.56136104091581
20
-11.250825905854676
30
0
10
-150.45409854867845
20
-11.267378285919879
30
0
10
-150.34693373318919
20
-11.283120855865619
30
0
10
-150.23987221664387
20
-11.298048438748683
30
0
10
-150.1329199721884
20
-11.312155148570477
30
0
10
-150.02608337028389
20
-11.325434329117694
30
0
10
-149.91936897678036
20
-11.337879014269756
30
0
10
-149.8127833854652
20
-11.349482322284397
30
0
10
-149.70633305189162
20
-11.360237843998309
30
0
10
-149.60002408880058
20
-11.370140130013711
30
0
10
-149.49386218742282
20
-11.379184872929301
30
0
10
-149.38785308705883
20
-11.387367757650587
30
0
10
-149.28200298143784
20
-11.394683467642398
30
0
10
-149.17631891705807
20
-11.401124714723707
30
0
10
-149.07080926997932
20
-11.406681077332451
30
0
10
-148.9654839659018
20
-11.411338475241546
30
0
10
-148.86035345101416
20
-11.415081729380956
30
0
10
-148.75542778531334
20
-11.417896822706892
30
0
10
-148.65071577048252
20
-11.419773076457879
30
0
10
-148.54622386382755
20
-11.420705861062617
30
0
10
-148.44195576740344
20
-11.420697630961032
30
0
10
-148.33791495675655
20
-11.419751655704376
30
0
10
-148.234106917095
20
-11.417866480068902
30
0
10
-148.13054124701878
20
-11.415030716444241
30
0
10
-148.02723440284714
20
-11.411216245118435
30
0
10
-147.92421038603064
20
-11.406376535320151
30
0
10
-147.82149487376816
20
-11.400461286248749
30
0
10
-147.71911006716599
20
-11.3934292828505
30
0
10
-147.61707003199422
20
-11.385260031645643
30
0
10
-147.51537396460489
20
-11.375970552617575
30
0
10
-147.41400637471523
20
-11.365614989324687
30
0
10
-147.31295153755502
20
-11.354248774677123
30
0
10
-147.21220608897215
20
-11.341897406705277
30
0
10
-147.11179006765738
20
-11.328529096674655
30
0
10
-147.01176420372909
20
-11.314011870557339
30
0
10
-146.91222439979316
20
-11.298127449354833
30
0
10
-146.81326855763712
20
-11.280654053289236
30
0
10
-146.71496749560808
20
-11.261438896832336
30
0
10
-146.61734041170899
20
-11.240459656500789
30
0
10
-146.52031291141211
20
-11.217928643137025
30
0
10
-146.42375133128718
20
-11.194209892285539
30
0
10
-146.3275466427072
20
-11.169614499751336
30
0
10
-146.23168808578617
20
-11.144221456952186
30
0
10
-146.13633122027824
20
-11.117711496537723
30
0
10
-146.04189415895445
20
-11.089133581796959
30
0
10
-145.94895849459726
20
-11.057139200919559
30
0
10
-145.87628492172496
20
-11.027704099456985
30
0
10
-145.82293280007053
20
-11.00297357304671
30
0
10
-145.78790417687611
20
-10.985243461323474
30
0
10
-145.7705247327076
20
-10.976067624862909
30
0
0
LINE
5
106
100
AcDbEntity
8
0
100
AcDbLine
10
-145.7705247327076
20
-10.976067624862909
30
0
11
-143.10189430501021
21
-9.5671090793061264
31
0
0
ARC
5
107
100
AcDbEntity
8
0
100
AcDbCircle
10
-142.36070322926156
20
-10.970958088007055
30
0
40
1.5874999999999995
210
0
220
-0
230
1
100
AcDbArc
50
32.290508441756295
51
117.83273896878067
0
ARC
5
108
100
AcDbEntity
8
0
100
AcDbCircle
10
-124.99999686341366
20
1.3430652391207743e-14
30
0
40
18.949200000000005
210
0
220
0
230
1
100
AcDbArc
50
212.29050844175654
51
219.70949161288928
0
ARC
5
109
100
AcDbEntity
8
0
100
AcDbCircle
10
-140.79875133190018
20
-13.120800438024979
30
0
40
1.5875000000000015
210
-0
220
0
230
1
100
AcDbArc
50
-45.832738914134964
51
39.709491612889082
0
LINE
5
110
100
AcDbEntity
8
0
100
AcDbLine
10
-139.69265222167999
20
-14.25952824060561
30
0
11
-141.85730357948074
21
-16.362154465568423
31
0
0
SPLINE
5
111
100
AcDbEntity
8
0
100
AcDbSpline
70
4
71
5
72
81
73
75
74
0
42
0.000000001
43
0.0000000001
44
0.0000000001
40
0
40
0
40
0
40
0
40
0
40
0
40
0.014285714285714285
40
0.028571428571428571
40
0.042857142857142858
40
0.057142857142857141
40
0.071428571428571425
40
0.085714285714285715
40
0.10000000000000001
40
0.1142857142857143
40
0.12857142857142859
40
0.14285714285714288
40
0.15714285714285717
40
0.17142857142857146
40
0.18571428571428575
40
0.20000000000000004
40
0.21428571428571433
40
0.22857142857142862
40
0.24285714285714291
40
0.25714285714285717
40
0.27142857142857146
40
0.28571428571428575
40
0.30000000000000004
40
0.31428571428571433
40
0.32857142857142863
40
0.34285714285714292
40
0.35714285714285721
40
0.3714285714285715
40
0.38571428571428579
40
0.40000000000000008
40
0.41428571428571437
40
0.42857142857142866
40
0.44285714285714295
40
0.45714285714285724
40
0.47142857142857153
40
0.48571428571428582
40
0.50000000000000011
40
0.51428571428571435
40
0.52857142857142858
40
0.54285714285714282
40
0.55714285714285705
40
0.57142857142857129
40
0.58571428571428552
40
0.59999999999999976
40
0.61428571428571399
40
0.62857142857142823
40
0.64285714285714246
40
0.6571428571428567
40
0.67142857142857093
40
0.68571428571428517
40
0.6999999999999994
40
0.71428571428571364
40
0.72857142857142787
40
0.74285714285714211
40
0.75714285714285634
40
0.77142857142857058
40
0.78571428571428481
40
0.79999999999999905
40
0.81428571428571328
40
0.82857142857142752
40
0.84285714285714175
40
0.85714285714285599
40
0.87142857142857022
40
0.88571428571428445
40
0.89999999999999869
40
0.91428571428571292
40
0.92857142857142716
40
0.94285714285714139
40
0.95714285714285563
40
0.97142857142856986
40
0.9857142857142841
40
1
40
1
40
1
40
1
40
1
40
1
41
1
41
1
41
1
41
1
41
1
41
1
41
1
41
1
41
1
41
1
41
1
41
1
41
1
41
1
41
1
41
1
41
1
41
1
41
1
41
1
41
1
41
1
41
1
41
1
41
1
41
1
41
1
41
1
41
1
41
1
41
1
41
1
41
1
41
1
41
1
41
1
41
1
41
1
41
1
41
1
41
1
41
1
41
1
41
1
41
1
41
1
41
1
41
1
41
1
41
1
41
1
41
1
41
1
41
1
41
1
41
1
41
1
41
1
41
1
41
1
41
1
41
1
41
1
41
1
41
1
41
1
41
1
41
1
41
1
41
1
41
1
41
1
41
1
41
1
41
1
10
-141.85730357948071
20
-16.362154465568423
30
0
10
-141.87140086212682
20
-16.375847809803989
30
0
10
-141.89908764024591
20
-16.403683104341646
30
0
10
-141.93909448077588
20
-16.44678183439682
30
0
10
-141.98954629483191
20
-16.506802562904475
30
0
10
-142.04869345884521
20
-16.585302824728402
30
0
10
-142.10505532765222
20
-16.666286746015238
30
0
10
-142.15973469014469
20
-16.748784486093907
30
0
10
-142.21350683203278
20
-16.832104509583754
30
0
10
-142.26662732400303
20
-16.916000211330147
30
0
10
-142.3190243657404
20
-17.000506234283257
30
0
10
-142.37043577925084
20
-17.085822404719572
30
0
10
-142.42055665042878
20
-17.172188337284961
30
0
10
-142.46920804883732
20
-17.259740393038069
30
0
10
-142.51640527286162
20
-17.348453415257339
30
0
10
-142.56227174610117
20
-17.438212838367694
30
0
10
-142.60698814034299
20
-17.528857018515971
30
0
10
-142.65073241571611
20
-17.620227294983998
30
0
10
-142.69361132034123
20
-17.712225127779675
30
0
10
-142.73564889480537
20
-17.804821635716305
30
0
10
-142.77682192862082
20
-17.898027897617443
30
0
10
-142.81708256117832
20
-17.991875998339481
30
0
10
-142.8563840856545
20
-18.086397401296427
30
0
10
-142.89471056342407
20
-18.181598130267044
30
0
10
-142.93207713838254
20
-18.277458475075473
30
0
10
-142.96851614785626
20
-18.373944585062958
30
0
10
-143.00406749605858
20
-18.471016495959965
30
0
10
-143.03876801952674
20
-18.568637002231462
30
0
10
-143.07263937641378
20
-18.666781763518976
30
0
10
-143.10568943085025
20
-18.765438132046278
30
0
10
-143.13791787181356
20
-18.864600441381615
30
0
10
-143.16932051577291
20
-18.964266396430837
30
0
10
-143.19989388441923
20
-19.064433234794048
30
0
10
-143.22964038531927
20
-19.165093384592279
30
0
10
-143.25856745470907
20
-19.266235175008553
30
0
10
-143.28668531487938
20
-19.367844706912539
30
0
10
-143.31400517393394
20
-19.469907354797833
30
0
10
-143.34053735575438
20
-19.572409327733169
30
0
10
-143.36628918349047
20
-19.675339439172522
30
0
10
-143.39126541112648
20
-19.778688735325979
30
0
10
-143.41546918102034
20
-19.882449682707335
30
0
10
-143.43890282352933
20
-19.986615489479902
30
0
10
-143.46156867654852
20
-20.091179411901443
30
0
10
-143.48347003382241
20
-20.196133952453273
30
0
10
-143.50461099595185
20
-20.301470990999103
30
0
10
-143.5249960702703
20
-20.407182129899113
30
0
10
-143.5446298529929
20
-20.513258972009268
30
0
10
-143.563516705974
20
-20.619693401777933
30
0
10
-143.58166038132723
20
-20.726477919532229
30
0
10
-143.59906406526423
20
-20.833605578482754
30
0
10
-143.61573055730531
20
-20.941069796341523
30
0
10
-143.63166241443099
20
-21.048864199705463
30
0
10
-143.64686210202788
20
-21.156982469204117
30
0
10
-143.66133217982903
20
-21.265418140086439
30
0
10
-143.67507530777385
20
-21.374164637103405
30
0
10
-143.68809416482324
20
-21.483215419662383
30
0
10
-143.70039139873617
20
-21.592564098072927
30
0
10
-143.71196957207081
20
-21.702204541553989
30
0
10
-143.72283110574821
20
-21.81213103270894
30
0
10
-143.73297826818515
20
-21.92233821253906
30
0
10
-143.7424132042828
20
-22.03282085984155
30
0
10
-143.7511379584638
20
-22.143573703685654
30
0
10
-143.75915450316853
20
-22.254591248162839
30
0
10
-143.76646477522218
20
-22.36586752215058
30
0
10
-143.77307069605675
20
-22.477396096430549
30
0
10
-143.7789741619161
20
-22.589170515192166
30
0
10
-143.78417704771232
20
-22.701184635044189
30
0
10
-143.78868120621414
20
-22.813432983899698
30
0
10
-143.79248848451007
20
-22.925911148144024
30
0
10
-143.79560070724946
20
-23.038616031308262
30
0
10
-143.79801952360688
20
-23.151545585432345
30
0
10
-143.79940092790162
20
-23.242068016022003
30
0
10
-143.80012596236801
20
-23.310060161284429
30
0
10
-143.8004711340626
20
-23.355432831102185
30
0
10
-143.80060917375403
20
-23.378130309250093
30
0
0
ARC
5
112
100
AcDbEntity
8
0
100
AcDbCircle
10
-124.99999686341366
20
1.3430652391207743e-14
30
0
40
30.000000000000007
210
0
220
0
230
1
100
AcDbArc
50
231.19387816929557
51
236.80612188535005
0
SPLINE
5
113
100
AcDbEntity
8
0
100
AcDbSpline
70
4
71
5
72
81
73
75
74
0
42
0.000000001
43
0.0000000001
44
0.0000000001
40
-1
40
-1
40
-1
40
-1
40
-1
40
-1
40
-0.9857142857142841
40
-0.97142857142856986
40
-0.95714285714285563
40
-0.94285714285714139
40
-0.92857142857142716
40
-0.91428571428571292
40
-0.89999999999999869
40
-0.88571428571428445
40
-0.87142857142857022
40
-0.85714285714285599
40
-0.84285714285714175
40
-0.82857142857142752
40
-0.81428571428571328
40
-0.79999999999999905
40
-0.78571428571428481
40
-0.77142857142857058
40
-0.75714285714285634
40
-0.74285714285714211
40
-0.72857142857142787
40
-0.71428571428571364
40
-0.6999999999999994
40
-0.68571428571428517
40
-0.67142857142857093
40
-0.6571428571428567
40
-0.64285714285714246
40
-0.62857142857142823
40
-0.61428571428571399
40
-0.59999999999999976
40
-0.58571428571428552
40
-0.57142857142857129
40
-0.55714285714285705
40
-0.54285714285714282
40
-0.52857142857142858
40
-0.51428571428571435
40
-0.50000000000000011
40
-0.48571428571428582
40
-0.47142857142857153
40
-0.45714285714285724
40
-0.44285714285714295
40
-0.42857142857142866
40
-0.41428571428571437
40
-0.40000000000000008
40
-0.38571428571428579
40
-0.3714285714285715
40
-0.35714285714285721
40
-0.34285714285714292
40
-0.32857142857142863
40
-0.31428571428571433
40
-0.30000000000000004
40
-0.28571428571428575
40
-0.27142857142857146
40
-0.25714285714285717
40
-0.24285714285714291
40
-0.22857142857142862
40
-0.21428571428571433
40
-0.20000000000000004
40
-0.18571428571428575
40
-0.17142857142857146
40
-0.15714285714285717
40
-0.14285714285714288
40
-0.12857142857142859
40
-0.1142857142857143
40
-0.10000000000000001
40
-0.085714285714285715
40
-0.071428571428571425
40
-0.057142857142857141
40
-0.042857142857142858
40
-0.028571428571428571
40
-0.014285714285714285
40
0
40
0
40
0
40
0
40
0
40
0
41
1
41
1
41
1
41
1
41
1
41
1
41
1
41
1
41
1
41
1
41
1
41
1
41
1
41
1
41
1
41
1
41
1
41
1
41
1
41
1
41
1
41
1
41
1
41
1
41
1
41
1
41
1
41
1
41
1
41
1
41
1
41
1
41
1
41
1
41
1
41
1
41
1
41
1
41
1
41
1
41
1
41
1
41
1
41
1
41
1
41
1
41
1
41
1
41
1
41
1
41
1
41
1
41
1
41
1
41
1
41
1
41
1
41
1
41
1
41
1
41
1
41
1
41
1
41
1
41
1
41
1
41
1
41
1
41
1
41
1
41
1
41
1
41
1
41
1
41
1
10
-141.42421130032963
20
-25.104684426022995
30
0
10
-141.40266737245096
20
-25.097539235977248
30
0
10
-141.35962206309236
20
-25.083190032092951
30
0
10
-141.29518173827597
20
-25.061489754907583
30
0
10
-141.2095166682239
20
-25.032202991845409
30
0
10
-141.10286173528809
20
-24.995005409293711
30
0
10
-140.99663475148924
20
-24.957217785229165
30
0
10
-140.89083817417611
20
-24.918839184047954
30
0
10
-140.78547551211329
20
-24.879868827267011
30
0
10
-140.68055153367953
20
-24.840306322082675
30
0
10
-140.57607201567572
20
-24.800151597375049
30
0
10
-140.4720433801939
20
-24.759404768409045
30
0
10
-140.36847235304631
20
-24.718066026704836
30
0
10
-140.26536564253814
20
-24.676135531609656
30
0
10
-140.16272952605621
20
-24.633613286271689
30
0
10
-140.06056984003777
20
-24.590499113117737
30
0
10
-139.9588922291972
20
-24.546792696593581
30
0
10
-139.85770232200437
20
-24.502493610217321
30
0
10
-139.75700591614924
20
-24.457601352618109
30
0
10
-139.65680919730491
20
-24.412115388135987
30
0
10
-139.55711878806466
20
-24.366035174148742
30
0
10
-139.45794158358774
20
-24.319360167010995
30
0
10
-139.35928463219182
20
-24.272089840033711
30
0
10
-139.26115500927688
20
-24.224223695327925
30
0
10
-139.16355965418745
20
-24.175761296160832
30
0
10
-139.0665053388484
20
-24.126702250603241
30
0
10
-138.9699989148767
20
-24.07704609631207
30
0
10
-138.87404750749954
20
-24.026792204824083
30
0
10
-138.77865870809981
20
-23.975939692548032
30
0
10
-138.68384080875717
20
-23.924487308538069
30
0
10
-138.58960287570696
20
-23.872433412267636
30
0
10
-138.49595431541638
20
-23.819776227336575
30
0
10
-138.4029045073581
20
-23.766514062029465
30
0
10
-138.31046244139603
20
-23.71264552570323
30
0
10
-138.21863626591718
20
-23.658169802681432
30
0
10
-138.12743311705086
20
-23.603086753424726
30
0
10
-138.03686017433762
20
-23.547396260424517
30
0
10
-137.94692557359059
20
-23.491097663096177
30
0
10
-137.85763929943198
20
-23.434189207005154
30
0
10
-137.769014253877
20
-23.376667384255093
30
0
10
-137.68106674313552
20
-23.318526637883128
30
0
10
-137.59381414038532
20
-23.259760827879312
30
0
10
-137.50727282334643
20
-23.200364527334823
30
0
10
-137.42145618954865
20
-23.140334270449749
30
0
10
-137.33637218425594
20
-23.079670107331353
30
0
10
-137.25202235981001
20
-23.018376199676602
30
0
10
-137.16840760619303
20
-22.956457235482919
30
0
10
-137.08553321639059
20
-22.89391526157398
30
0
10
-137.00341364930267
20
-22.830746707095013
30
0
10
-136.92207874672317
20
-22.766938495502913
30
0
10
-136.84157527633465
20
-22.702467090311579
30
0
10
-136.7619535774962
20
-22.637306889997312
30
0
10
-136.68325583688079
20
-22.571437600364046
30
0
10
-136.60550547970072
20
-22.504850909490631
30
0
10
-136.52869185169584
20
-22.437560114460457
30
0
10
-136.45277059617902
20
-22.36959991337261
30
0
10
-136.37769640889684
20
-22.301005909605443
30
0
10
-136.30345158082685
20
-22.231796754099808
30
0
10
-136.23007100855975
20
-22.16195850767626
30
0
10
-136.15768139618066
20
-22.091420097371298
30
0
10
-136.08648863170379
20
-22.020061301903048
30
0
10
-136.01670227822171
20
-21.947760242889032
30
0
10
-135.94846943406097
20
-21.874434940220468
30
0
10
-135.8818187521465
20
-21.800078618122978
30
0
10
-135.81656525285905
20
-21.724819311669886
30
0
10
-135.75238682548758
20
-21.648872966410192
30
0
10
-135.68901240649379
20
-21.572427178718002
30
0
10
-135.62638686095659
20
-21.495539529490383
30
0
10
-135.56482370000083
20
-21.418043161744478
30
0
10
-135.50522018931693
20
-21.339414431139431
30
0
10
-135.44883948270439
20
-21.258904220363938
30
0
10
-135.40734684574821
20
-21.192374268683842
30
0
10
-135.37872031134918
20
-21.141007262251101
30
0
10
-135.36080305808778
20
-21.106073992433039
30
0
10
-135.35213621375163
20
-21.088435203823558
30
0
0
LINE
5
114
100
AcDbEntity
8
0
100
AcDbLine
10
-135.35213621375166
20
-21.088435203823551
30
0
11
-134.02133390020808
21
-18.379982186878824
31
0
0
ARC
5
115
100
AcDbEntity
8
0
100
AcDbCircle
10
-132.59653598008859
20
-19.08005870899845
30
0
40
1.5874999999999964
210
0
220
-0
230
1
100
AcDbArc
50
68.29050844175643
51
153.83273896878026
0
ARC
5
116
100
AcDbEntity
8
0
100
AcDbCircle
10
-124.99999686341366
20
1.3430652391207743e-14
30
0
40
18.949200000000019
210
0
220
0
230
1
100
AcDbArc
50
248.29050844175651
51
255.70949161288928
0
ARC
5
117
100
AcDbEntity
8
0
100
AcDbCircle
10
-130.0692447226327
20
-19.901225415330661
30
0
40
1.5874999999999937
210
-0
220
0
230
1
100
AcDbArc
50
-9.8327389141348096
51
75.709491612888584
0
LINE
5
118
100
AcDbEntity
8
0
100
AcDbLine
10
-128.50506433626924
20
-20.172326815024377
30
0
11
-129.0204113855103
21
-23.145737308307879
31
0
0
SPLINE
5
119
100
AcDbEntity
8
0
100
AcDbSpline
70
4
71
5
72
81
73
75
74
0
42
0.000000001
43
0.0000000001
44
0.0000000001
40
0
40
0
40
0
40
0
40
0
40
0
40
0.014285714285714285
40
0.028571428571428571
40
0.042857142857142858
40
0.057142857142857141
40
0.071428571428571425
40
0.085714285714285715
40
0.10000000000000001
40
0.1142857142857143
40
0.12857142857142859
40
0.14285714285714288
40
0.15714285714285717
40
0.17142857142857146
40
0.18571428571428575
40
0.20000000000000004
40
0.21428571428571433
40
0.22857142857142862
40
0.24285714285714291
40
0.25714285714285717
40
0.27142857142857146
40
0.28571428571428575
40
0.30000000000000004
40
0.31428571428571433
40
0.32857142857142863
40
0.34285714285714292
40
0.35714285714285721
40
0.3714285714285715
40
0.38571428571428579
40
0.40000000000000008
40
0.41428571428571437
40
0.42857142857142866
40
0.44285714285714295
40
0.45714285714285724
40
0.47142857142857153
40
0.48571428571428582
40
0.50000000000000011
40
0.51428571428571435
40
0.52857142857142858
40
0.54285714285714282
40
0.55714285714285705
40
0.57142857142857129
40
0.58571428571428552
40
0.59999999999999976
40
0.61428571428571399
40
0.62857142857142823
40
0.64285714285714246
40
0.6571428571428567
40
0.67142857142857093
40
0.68571428571428517
40
0.6999999999999994
40
0.71428571428571364
40
0.72857142857142787
40
0.74285714285714211
40
0.75714285714285634
40
0.77142857142857058
40
0.78571428571428481
40
0.79999999999999905
40
0.81428571428571328
40
0.82857142857142752
40
0.84285714285714175
40
0.85714285714285599
40
0.87142857142857022
40
0.88571428571428445
40
0.89999999999999869
40
0.91428571428571292
40
0.92857142857142716
40
0.94285714285714139
40
0.95714285714285563
40
0.97142857142856986
40
0.9857142857142841
40
1
40
1
40
1
40
1
40
1
40
1
41
1
41
1
41
1
41
1
41
1
41
1
41
1
41
1
41
1
41
1
41
1
41
1
41
1
41
1
41
1
41
1
41
1
41
1
41
1
41
1
41
1
41
1
41
1
41
1
41
1
41
1
41
1
41
1
41
1
41
1
41
1
41
1
41
1
41
1
41
1
41
1
41
1
41
1
41
1
41
1
41
1
41
1
41
1
41
1
41
1
41
1
41
1
41
1
41
1
41
1
41
1
41
1
41
1
41
1
41
1
41
1
41
1
41
1
41
1
41
1
41
1
41
1
41
1
41
1
41
1
41
1
41
1
41
1
41
1
41
1
41
1
41
1
41
1
41
1
41
1
10
-129.0204113855103
20
-23.145737308307876
30
0
10
-129.02376758094925
20
-23.165101631341038
30
0
10
-129.02980547934465
20
-23.203894737527339
30
0
10
-129.03683889530566
20
-23.262277773432292
30
0
10
-129.0423759712254
20
-23.340490395063288
30
0
10
-129.04408573588006
20
-23.438764271663675
30
0
10
-129.04208229097441
20
-23.537410315532235
30
0
10
-129.03782786950674
20
-23.636292112131247
30
0
10
-129.03235616509014
20
-23.735305899092243
30
0
10
-129.02601888962633
20
-23.834402389334709
30
0
10
-129.01873759282515
20
-23.933567406427816
30
0
10
-129.01018271329536
20
-24.032808508866722
30
0
10
-128.99996672838878
20
-24.132140324957618
30
0
10
-128.98786472932184
20
-24.231568000442284
30
0
10
-128.97390387949804
20
-24.331080175270653
30
0
10
-128.95825137066234
20
-24.430656710517106
30
0
10
-128.94114838123383
20
-24.53027302976929
30
0
10
-128.92283214241155
20
-24.629905376149196
30
0
10
-128.90344693559325
20
-24.72953677409965
30
0
10
-128.88302918595809
20
-24.829157988952328
30
0
10
-128.86155360385797
20
-24.928764340881372
30
0
10
-128.83896261024123
20
-25.02835365532059
30
0
10
-128.81519992476319
20
-25.127923933124627
30
0
10
-128.79024911211692
20
-25.22747067914402
30
0
10
-128.76413400932182
20
-25.32698684886995
30
0
10
-128.73690067474251
20
-25.426464063947737
30
0
10
-128.70860488197403
20
-25.525893447712299
30
0
10
-128.67929830126579
20
-25.625266552226854
30
0
10
-128.6490127613354
20
-25.724576416070668
30
0
10
-128.61776205857439
20
-25.823817429397767
30
0
10
-128.58554927200538
20
-25.922984825154156
30
0
10
-128.55237236610319
20
-26.022074287551874
30
0
10
-128.5182301505547
20
-26.121081537263745
30
0
10
-128.48312902376111
20
-26.22000186364318
30
0
10
-128.44708186169774
20
-26.31883019571081
30
0
10
-128.41010510407548
20
-26.41756129734576
30
0
10
-128.37221641509763
20
-26.516189924222836
30
0
10
-128.33343225306595
20
-26.614710987469692
30
0
10
-128.29376511781982
20
-26.713119741419874
30
0
10
-128.25322411831891
20
-26.811411736627075
30
0
10
-128.21181622485631
20
-26.909582725404508
30
0
10
-128.16954731487212
20
-27.007628582790574
30
0
10
-128.12642324363546
20
-27.105545227163418
30
0
10
-128.08245108277242
20
-27.203328528917446
30
0
10
-128.03763892263515
20
-27.300974328997114
30
0
10
-127.99199534574191
20
-27.39847848291322
30
0
10
-127.94552900622625
20
-27.495836898821025
30
0
10
-127.898248203104
20
-27.593045574934973
30
0
10
-127.85016038009609
20
-27.690100649329356
30
0
10
-127.80127219812212
20
-27.78699837474166
30
0
10
-127.75158979101343
20
-27.883735071505811
30
0
10
-127.70111897360306
20
-27.980307086385846
30
0
10
-127.64986545486344
20
-28.076710756021583
30
0
10
-127.59783510554746
20
-28.172942354892882
30
0
10
-127.54503394242562
20
-28.268998126984677
30
0
10
-127.49146797728682
20
-28.36487435550012
30
0
10
-127.43714310797876
20
-28.460567427384685
30
0
10
-127.38206501123733
20
-28.55607388896626
30
0
10
-127.32623900623018
20
-28.651390537755489
30
0
10
-127.26967007808547
20
-28.746514371573227
30
0
10
-127.21236303101067
20
-28.841442427119009
30
0
10
-127.15432261715381
20
-28.9361716418017
30
0
10
-127.09555366266672
20
-29.030698728709304
30
0
10
-127.03606124421155
20
-29.125019995539482
30
0
10
-126.97585069525927
20
-29.219131370334772
30
0
10
-126.91492734453354
20
-29.313028744818837
30
0
10
-126.85329631986494
20
-29.406708250929448
30
0
10
-126.79096233658683
20
-29.500166550685442
30
0
10
-126.72792948328281
20
-29.593401159088938
30
0
10
-126.66420105618397
20
-29.686410643545891
30
0
10
-126.59977959326127
20
-29.779194316582359
30
0
10
-126.54768942310955
20
-29.853240470373411
30
0
10
-126.50831120805739
20
-29.908673435941481
30
0
10
-126.4819210716483
20
-29.945583583735807
30
0
10
-126.46869150518498
20
-29.964027366981767
30
0
0
ARC
5
120
100
AcDbEntity
8
0
100
AcDbCircle
10
-124.99999686341366
20
1.3430652391207743e-14
30
0
40
30.000000000000018
210
0
220
0
230
1
100
AcDbArc
50
267.19387816929554
51
272.80612188535014
0
SPLINE
5
121
100
AcDbEntity
8
0
100
AcDbSpline
70
4
71
5
72
81
73
75
74
0
42
0.000000001
43
0.0000000001
44
0.0000000001
40
-1
40
-1
40
-1
40
-1
40
-1
40
-1
40
-0.9857142857142841
40
-0.97142857142856986
40
-0.95714285714285563
40
-0.94285714285714139
40
-0.92857142857142716
40
-0.91428571428571292
40
-0.89999999999999869
40
-0.88571428571428445
40
-0.87142857142857022
40
-0.85714285714285599
40
-0.84285714285714175
40
-0.82857142857142752
40
-0.81428571428571328
40
-0.79999999999999905
40
-0.78571428571428481
40
-0.77142857142857058
40
-0.75714285714285634
40
-0.74285714285714211
40
-0.72857142857142787
40
-0.71428571428571364
40
-0.6999999999999994
40
-0.68571428571428517
40
-0.67142857142857093
40
-0.6571428571428567
40
-0.64285714285714246
40
-0.62857142857142823
40
-0.61428571428571399
40
-0.59999999999999976
40
-0.58571428571428552
40
-0.57142857142857129
40
-0.55714285714285705
40
-0.54285714285714282
40
-0.52857142857142858
40
-0.51428571428571435
40
-0.50000000000000011
40
-0.48571428571428582
40
-0.47142857142857153
40
-0.45714285714285724
40
-0.44285714285714295
40
-0.42857142857142866
40
-0.41428571428571437
40
-0.40000000000000008
40
-0.38571428571428579
40
-0.3714285714285715
40
-0.35714285714285721
40
-0.34285714285714292
40
-0.32857142857142863
40
-0.31428571428571433
40
-0.30000000000000004
40
-0.28571428571428575
40
-0.27142857142857146
40
-0.25714285714285717
40
-0.24285714285714291
40
-0.22857142857142862
40
-0.21428571428571433
40
-0.20000000000000004
40
-0.18571428571428575
40
-0.17142857142857146
40
-0.15714285714285717
40
-0.14285714285714288
40
-0.12857142857142859
40
-0.1142857142857143
40
-0.10000000000000001
40
-0.085714285714285715
40
-0.071428571428571425
40
-0.057142857142857141
40
-0.042857142857142858
40
-0.028571428571428571
40
-0.014285714285714285
40
0
40
0
40
0
40
0
40
0
40
0
41
1
41
1
41
1
41
1
41
1
41
1
41
1
41
1
41
1
41
1
41
1
41
1
41
1
41
1
41
1
41
1
41
1
41
1
41
1
41
1
41
1
41
1
41
1
41
1
41
1
41
1
41
1
41
1
41
1
41
1
41
1
41
1
41
1
41
1
41
1
41
1
41
1
41
1
41
1
41
1
41
1
41
1
41
1
41
1
41
1
41
1
41
1
41
1
41
1
41
1
41
1
41
1
41
1
41
1
41
1
41
1
41
1
41
1
41
1
41
1
41
1
41
1
41
1
41
1
41
1
41
1
41
1
41
1
41
1
41
1
41
1
41
1
41
1
41
1
41
1
10
-123.53130219306419
20
-29.964027365581011
30
0
10
-123.51807262661845
20
-29.945583582322421
30
0
10
-123.49168249024456
20
-29.90867343450293
30
0
10
-123.45230427524527
20
-29.853240468897301
30
0
10
-123.40021410516415
20
-29.779194315056571
30
0
10
-123.33579264232998
20
-29.686410641958659
30
0
10
-123.27206421531983
20
-29.593401157440923
30
0
10
-123.20903136210475
20
-29.500166548977308
30
0
10
-123.14669737891577
20
-29.406708249161873
30
0
10
-123.0850663543365
20
-29.313028742992483
30
0
10
-123.02414300370033
20
-29.219131368450299
30
0
10
-122.96393245483782
20
-29.12501999359759
30
0
10
-122.90444003647261
20
-29.030698726710668
30
0
10
-122.84567108207565
20
-28.936171639747013
30
0
10
-122.78763066830912
20
-28.841442425008971
30
0
10
-122.7303236213249
20
-28.74651436940853
30
0
10
-122.67375469327089
20
-28.651390535536837
30
0
10
-122.61792868835465
20
-28.556073886694367
30
0
10
-122.56285059170432
20
-28.460567425060251
30
0
10
-122.50852572248753
20
-28.364874353123888
30
0
10
-122.45495975744015
20
-28.268998124557356
30
0
10
-122.40215859440995
20
-28.172942352415205
30
0
10
-122.35012824518574
20
-28.076710753494272
30
0
10
-122.29887472653807
20
-27.980307083809656
30
0
10
-122.24840390921982
20
-27.883735068881492
30
0
10
-122.1987215022034
20
-27.786998372069945
30
0
10
-122.14983332032183
20
-27.690100646611025
30
0
10
-122.10174549740645
20
-27.593045572170766
30
0
10
-122.05446469437695
20
-27.495836896011731
30
0
10
-122.00799835495415
20
-27.398478480059598
30
0
10
-121.96235477815389
20
-27.300974326099965
30
0
10
-121.91754261810978
20
-27.203328525977565
30
0
10
-121.87357045734001
20
-27.105545224181601
30
0
10
-121.8304463861967
20
-27.007628579767623
30
0
10
-121.78817747630602
20
-26.909582722341241
30
0
10
-121.74676958293705
20
-26.811411733524309
30
0
10
-121.70622858352992
20
-26.713119738278451
30
0
10
-121.66656144837759
20
-26.614710984290433
30
0
10
-121.62777728643988
20
-26.516189921006585
30
0
10
-121.58988859755611
20
-26.417561294093378
30
0
10
-121.552911840028
20
-26.31883019242316
30
0
10
-121.51686467805894
20
-26.220001860321155
30
0
10
-121.48176355135965
20
-26.121081533908228
30
0
10
-121.44762133590559
20
-26.022074284163811
30
0
10
-121.41444443009792
20
-25.922984821734442
30
0
10
-121.38223164362347
20
-25.82381742594734
30
0
10
-121.35098094095716
20
-25.724576412590423
30
0
10
-121.32069540112147
20
-25.625266548717725
30
0
10
-121.29138882050798
20
-25.525893444175225
30
0
10
-121.26309302783433
20
-25.426464060383669
30
0
10
-121.23585969334989
20
-25.326986845279905
30
0
10
-121.20974459064973
20
-25.227470675529077
30
0
10
-121.18479377809837
20
-25.127923929485888
30
0
10
-121.16103109271532
20
-25.028353651659184
30
0
10
-121.13844009919356
20
-24.928764337198423
30
0
10
-121.11696451718844
20
-24.829157985248894
30
0
10
-121.09654676764832
20
-24.729536770376743
30
0
10
-121.07716156092506
20
-24.629905372407798
30
0
10
-121.05884532219774
20
-24.53027302601043
30
0
10
-121.04174233286427
20
-24.430656706741928
30
0
10
-121.02608982412355
20
-24.331080171480547
30
0
10
-121.01212897439461
20
-24.231567996638859
30
0
10
-121.0000269754225
20
-24.132140321142643
30
0
10
-120.98981099061066
20
-24.032808505042013
30
0
10
-120.98125611117555
20
-23.933567402594939
30
0
10
-120.97397481446892
20
-23.834402385494901
30
0
10
-120.96763753909967
20
-23.735305895246391
30
0
10
-120.96216583477752
20
-23.636292108280173
30
0
10
-120.95791141340413
20
-23.537410311677107
30
0
10
-120.95590796859258
20
-23.438764267806622
30
0
10
-120.95761773334095
20
-23.340490391207872
30
0
10
-120.96315480933526
20
-23.262277769582159
30
0
10
-120.97018822535199
20
-23.203894733683921
30
0
10
-120.97622612378437
20
-23.165101627503372
30
0
10
-120.9795823192418
20
-23.145737304473414
30
0
0
LINE
5
122
100
AcDbEntity
8
0
100
AcDbLine
10
-120.97958231924179
20
-23.14573730447341
30
0
11
-121.49492937131873
21
-20.172326811681426
31
0
0
ARC
5
123
100
AcDbEntity
8
0
100
AcDbCircle
10
-119.93074898521384
20
-19.901225410495872
30
0
40
1.5874999999999972
210
0
220
0
230
1
100
AcDbArc
50
104.29050844175627
51
189.83273896878066
0
ARC
5
124
100
AcDbEntity
8
0
100
AcDbCircle
10
-124.99999686341366
20
1.3430652391207743e-14
30
0
40
18.949200000000015
210
-0
220
0
230
1
100
AcDbArc
50
284.29050844175657
51
291.70949161288928
0
ARC
5
125
100
AcDbEntity
8
0
100
AcDbCircle
10
-117.40345772854114
20
-19.080058701753263
30
0
40
1.5874999999999984
210
0
220
-0
230
1
100
AcDbArc
50
26.167261085865263
51
111.70949161288962
0
LINE
5
126
100
AcDbEntity
8
0
100
AcDbLine
10
-115.97865980908934
20
-18.379982178274737
30
0
11
-114.6478574929626
21
-21.088435193950218
31
0
0
SPLINE
5
127
100
AcDbEntity
8
0
100
AcDbSpline
70
4
71
5
72
81
73
75
74
0
42
0.000000001
43
0.0000000001
44
0.0000000001
40
0
40
0
40
0
40
0
40
0
40
0
40
0.014285714285714285
40
0.028571428571428571
40
0.042857142857142858
40
0.057142857142857141
40
0.071428571428571425
40
0.085714285714285715
40
0.10000000000000001
40
0.1142857142857143
40
0.12857142857142859
40
0.14285714285714288
40
0.15714285714285717
40
0.17142857142857146
40
0.18571428571428575
40
0.20000000000000004
40
0.21428571428571433
40
0.22857142857142862
40
0.24285714285714291
40
0.25714285714285717
40
0.27142857142857146
40
0.28571428571428575
40
0.30000000000000004
40
0.31428571428571433
40
0.32857142857142863
40
0.34285714285714292
40
0.35714285714285721
40
0.3714285714285715
40
0.38571428571428579
40
0.40000000000000008
40
0.41428571428571437
40
0.42857142857142866
40
0.44285714285714295
40
0.45714285714285724
40
0.47142857142857153
40
0.48571428571428582
40
0.50000000000000011
40
0.51428571428571435
40
0.52857142857142858
40
0.54285714285714282
40
0.55714285714285705
40
0.57142857142857129
40
0.58571428571428552
40
0.59999999999999976
40
0.61428571428571399
40
0.62857142857142823
40
0.64285714285714246
40
0.6571428571428567
40
0.67142857142857093
40
0.68571428571428517
40
0.6999999999999994
40
0.71428571428571364
40
0.72857142857142787
40
0.74285714285714211
40
0.75714285714285634
40
0.77142857142857058
40
0.78571428571428481
40
0.79999999999999905
40
0.81428571428571328
40
0.82857142857142752
40
0.84285714285714175
40
0.85714285714285599
40
0.87142857142857022
40
0.88571428571428445
40
0.89999999999999869
40
0.91428571428571292
40
0.92857142857142716
40
0.94285714285714139
40
0.95714285714285563
40
0.97142857142856986
40
0.9857142857142841
40
1
40
1
40
1
40
1
40
1
40
1
41
1
41
1
41
1
41
1
41
1
41
1
41
1
41
1
41
1
41
1
41
1
41
1
41
1
41
1
41
1
41
1
41
1
41
1
41
1
41
1
41
1
41
1
41
1
41
1
41
1
41
1
41
1
41
1
41
1
41
1
41
1
41
1
41
1
41
1
41
1
41
1
41
1
41
1
41
1
41
1
41
1
41
1
41
1
41
1
41
1
41
1
41
1
41
1
41
1
41
1
41
1
41
1
41
1
41
1
41
1
41
1
41
1
41
1
41
1
41
1
41
1
41
1
41
1
41
1
41
1
41
1
41
1
41
1
41
1
41
1
41
1
41
1
41
1
41
1
41
1
10
-114.6478574929626
20
-21.088435193950218
30
0
10
-114.63919064860963
20
-21.10607398255144
30
0
10
-114.62127339531489
20
-21.141007252352399
30
0
10
-114.59264686086686
20
-21.192374258757848
30
0
10
-114.55115422384723
20
-21.258904210398377
30
0
10
-114.49477351715792
20
-21.33941442112009
30
0
10
-114.43517000639902
20
-21.418043151668297
30
0
10
-114.37360684536938
20
-21.495539519355475
30
0
10
-114.31098129975882
20
-21.572427168523372
30
0
10
-114.24760688069213
20
-21.648872956155113
30
0
10
-114.18342845324821
20
-21.724819301353616
30
0
10
-114.11817495388897
20
-21.800078607744457
30
0
10
-114.05152427190362
20
-21.874434929778381
30
0
10
-113.98329142767294
20
-21.947760232381867
30
0
10
-113.91350507412187
20
-22.020061291329327
30
0
10
-113.84231230957695
20
-22.091420086729681
30
0
10
-113.7699226971306
20
-22.161958496965596
30
0
10
-113.69654212479689
20
-22.231796743319162
30
0
10
-113.62229729666086
20
-22.301005898753978
30
0
10
-113.54722310931329
20
-22.369599902449551
30
0
10
-113.47130185373166
20
-22.437560103464989
30
0
10
-113.3944882256626
20
-22.504850898421903
30
0
10
-113.31673786841901
20
-22.571437589221155
30
0
10
-113.23804012774079
20
-22.63730687877937
30
0
10
-113.15841842884019
20
-22.702467079017698
30
0
10
-113.07791495839018
20
-22.766938484132247
30
0
10
-112.99658005574982
20
-22.830746695646774
30
0
10
-112.91446048860165
20
-22.893915250047417
30
0
10
-112.83158609873956
20
-22.956457223877319
30
0
10
-112.74797134506352
20
-23.018376187991258
30
0
10
-112.66362152055918
20
-23.079670095565554
30
0
10
-112.57853751520857
20
-23.140334258602806
30
0
10
-112.49272088135356
20
-23.200364515406026
30
0
10
-112.40617956425801
20
-23.259760815867981
30
0
10
-112.31892696145175
20
-23.318526625788579
30
0
10
-112.23097945065487
20
-23.376667372076657
30
0
10
-112.14235440504498
20
-23.43418919474221
30
0
10
-112.0530681308321
20
-23.49109765074807
30
0
10
-111.96313353003137
20
-23.54739624799063
30
0
10
-111.87256058726503
20
-23.603086740904459
30
0
10
-111.78135743834616
20
-23.658169790074183
30
0
10
-111.68953126281535
20
-23.712645513008397
30
0
10
-111.59708919680192
20
-23.766514049246471
30
0
10
-111.50403938869283
20
-23.819776214464838
30
0
10
-111.41039082835201
20
-23.872433399306576
30
0
10
-111.3161528952522
20
-23.924487295487125
30
0
10
-111.22133499586047
20
-23.97593967940665
30
0
10
-111.12594619641223
20
-24.026792191591738
30
0
10
-111.02999478898712
20
-24.077046082988211
30
0
10
-110.93348836496807
20
-24.126702237187331
30
0
10
-110.83643404958224
20
-24.17576128265236
30
0
10
-110.73883869444659
20
-24.224223681726368
30
0
10
-110.64070907148597
20
-24.272089826338558
30
0
10
-110.54205212004499
20
-24.319360153221755
30
0
10
-110.44287491552355
20
-24.366035160264911
30
0
10
-110.34318450623935
20
-24.412115374157075
30
0
10
-110.24298778735164
20
-24.457601338543636
30
0
10
-110.1422913814537
20
-24.502493596046811
30
0
10
-110.04110147421862
20
-24.546792682326558
30
0
10
-109.93942386333637
20
-24.590499098753746
30
0
10
-109.83726417727682
20
-24.633613271810265
30
0
10
-109.73462806075433
20
-24.676135517050337
30
0
10
-109.63152135020616
20
-24.718066012047181
30
0
10
-109.52795032301914
20
-24.759404753652603
30
0
10
-109.42392168749845
20
-24.800151582519398
30
0
10
-109.31944216945635
20
-24.840306307127378
30
0
10
-109.21451819098486
20
-24.879868812211633
30
0
10
-109.10915552888486
20
-24.918839168892092
30
0
10
-109.00335895153516
20
-24.957217769972402
30
0
10
-108.89713196770026
20
-24.995005393935628
30
0
10
-108.79047703472898
20
-25.032202976385605
30
0
10
-108.70481196464897
20
-25.061489739366078
30
0
10
-108.64037163981187
20
-25.08319001648999
30
0
10
-108.59732633043961
20
-25.097539220333228
30
0
10
-108.5757824025541
20
-25.104684410358434
30
0
0
ARC
5
128
100
AcDbEntity
8
0
100
AcDbCircle
10
-124.99999686341366
20
1.3430652391207743e-14
30
0
40
30.00000000000005
210
-0
220
0
230
1
100
AcDbArc
50
303.1938781692956
51
308.80612188535014
0
SPLINE
5
129
100
AcDbEntity
8
0
100
AcDbSpline
70
4
71
5
72
81
73
75
74
0
42
0.000000001
43
0.0000000001
44
0.0000000001
40
-1
40
-1
40
-1
40
-1
40
-1
40
-1
40
-0.9857142857142841
40
-0.97142857142856986
40
-0.95714285714285563
40
-0.94285714285714139
40
-0.92857142857142716
40
-0.91428571428571292
40
-0.89999999999999869
40
-0.88571428571428445
40
-0.87142857142857022
40
-0.85714285714285599
40
-0.84285714285714175
40
-0.82857142857142752
40
-0.81428571428571328
40
-0.79999999999999905
40
-0.78571428571428481
40
-0.77142857142857058
40
-0.75714285714285634
40
-0.74285714285714211
40
-0.72857142857142787
40
-0.71428571428571364
40
-0.6999999999999994
40
-0.68571428571428517
40
-0.67142857142857093
40
-0.6571428571428567
40
-0.64285714285714246
40
-0.62857142857142823
40
-0.61428571428571399
40
-0.59999999999999976
40
-0.58571428571428552
40
-0.57142857142857129
40
-0.55714285714285705
40
-0.54285714285714282
40
-0.52857142857142858
40
-0.51428571428571435
40
-0.50000000000000011
40
-0.48571428571428582
40
-0.47142857142857153
40
-0.45714285714285724
40
-0.44285714285714295
40
-0.42857142857142866
40
-0.41428571428571437
40
-0.40000000000000008
40
-0.38571428571428579
40
-0.3714285714285715
40
-0.35714285714285721
40
-0.34285714285714292
40
-0.32857142857142863
40
-0.31428571428571433
40
-0.30000000000000004
40
-0.28571428571428575
40
-0.27142857142857146
40
-0.25714285714285717
40
-0.24285714285714291
40
-0.22857142857142862
40
-0.21428571428571433
40
-0.20000000000000004
40
-0.18571428571428575
40
-0.17142857142857146
40
-0.15714285714285717
40
-0.14285714285714288
40
-0.12857142857142859
40
-0.1142857142857143
40
-0.10000000000000001
40
-0.085714285714285715
40
-0.071428571428571425
40
-0.057142857142857141
40
-0.042857142857142858
40
-0.028571428571428571
40
-0.014285714285714285
40
0
40
0
40
0
40
0
40
0
40
0
41
1
41
1
41
1
41
1
41
1
41
1
41
1
41
1
41
1
41
1
41
1
41
1
41
1
41
1
41
1
41
1
41
1
41
1
41
1
41
1
41
1
41
1
41
1
41
1
41
1
41
1
41
1
41
1
41
1
41
1
41
1
41
1
41
1
41
1
41
1
41
1
41
1
41
1
41
1
41
1
41
1
41
1
41
1
41
1
41
1
41
1
41
1
41
1
41
1
41
1
41
1
41
1
41
1
41
1
41
1
41
1
41
1
41
1
41
1
41
1
41
1
41
1
41
1
41
1
41
1
41
1
41
1
41
1
41
1
41
1
41
1
41
1
41
1
41
1
41
1
10
-106.19938453077638
20
-23.378130291319046
30
0
10
-106.19952257048948
20
-23.355432813171262
30
0
10
-106.19986774222735
20
-23.310060143353837
30
0
10
-106.20059277675858
20
-23.242067998092107
30
0
10
-106.20197418113966
20
-23.15154556750376
30
0
10
-106.2043929976048
20
-23.038616013381983
30
0
10
-106.20750522045164
20
-22.925911130220715
30
0
10
-106.21131249885488
20
-22.813432965980024
30
0
10
-106.21581665746375
20
-22.70118461712881
30
0
10
-106.22101954336679
20
-22.589170497281749
30
0
10
-106.22692300933275
20
-22.477396078525761
30
0
10
-106.23352893027372
20
-22.365867504252101
30
0
10
-106.24083920243348
20
-22.254591230271323
30
0
10
-106.24885574724411
20
-22.14357368580179
30
0
10
-106.2575805015307
20
-22.032820841966
30
0
10
-106.26701543773376
20
-21.922338194672509
30
0
10
-106.27716260027577
20
-21.812131014852074
30
0
10
-106.28802413405805
20
-21.702204523707476
30
0
10
-106.29960230749725
20
-21.592564080237455
30
0
10
-106.31189954151444
20
-21.483215401838642
30
0
10
-106.32491839866786
20
-21.374164619292081
30
0
10
-106.33866152671636
20
-21.265418122288224
30
0
10
-106.35313160462096
20
-21.156982451419704
30
0
10
-106.368331292321
20
-21.048864181935546
30
0
10
-106.38426314954947
20
-20.941069778586797
30
0
10
-106.40092964169305
20
-20.833605560743926
30
0
10
-106.41833332573219
20
-20.72647790181
30
0
10
-106.43647700118731
20
-20.61969338407301
30
0
10
-106.45536385426988
20
-20.513258954322353
30
0
10
-106.47499763709365
20
-20.407182112230924
30
0
10
-106.49538271151293
20
-20.301470973350362
30
0
10
-106.51652367374284
20
-20.196133934824697
30
0
10
-106.53842503111682
20
-20.091179394293739
30
0
10
-106.56109088423578
20
-19.986615471893828
30
0
10
-106.58452452684412
20
-19.882449665143611
30
0
10
-106.6087282968369
20
-19.778688717785336
30
0
10
-106.63370452457151
20
-19.675339421655703
30
0
10
-106.65945635240574
20
-19.572409310240914
30
0
10
-106.68598853432397
20
-19.469907337330877
30
0
10
-106.71330839347587
20
-19.367844689471642
30
0
10
-106.7414262537431
20
-19.266235157594473
30
0
10
-106.77035332322932
20
-19.165093367205785
30
0
10
-106.80009982422538
20
-19.064433217435933
30
0
10
-106.83067319296724
20
-18.964266379101879
30
0
10
-106.86207583702164
20
-18.8646004240826
30
0
10
-106.89430427807956
20
-18.765438114778007
30
0
10
-106.92735433261007
20
-18.666781746282233
30
0
10
-106.96122568959072
20
-18.568636985027013
30
0
10
-106.99592621315202
20
-18.471016478788616
30
0
10
-107.03147756144693
20
-18.373944567925513
30
0
10
-107.06791657101263
20
-18.277458457972781
30
0
10
-107.10528314606252
20
-18.181598113199993
30
0
10
-107.14360962392291
20
-18.086397384265929
30
0
10
-107.18291114848923
20
-17.99187598134646
30
0
10
-107.22317178113626
20
-17.898027880662827
30
0
10
-107.2643448150406
20
-17.804821618800958
30
0
10
-107.30638238959308
20
-17.71222511090442
30
0
10
-107.3492612943059
20
-17.620227278149642
30
0
10
-107.39300556976616
20
-17.528857001723338
30
0
10
-107.43772196409445
20
-17.4382128216177
30
0
10
-107.48358843741961
20
-17.348453398551097
30
0
10
-107.5307856615285
20
-17.259740376376836
30
0
10
-107.57943706002054
20
-17.172188320670134
30
0
10
-107.62955793128087
20
-17.08582238815255
30
0
10
-107.68096934487266
20
-17.00050621776527
30
0
10
-107.73336638669066
20
-16.916000194862125
30
0
10
-107.7864868787409
20
-16.832104493166394
30
0
10
-107.84025902070846
20
-16.748784469727841
30
0
10
-107.89493838327965
20
-16.666286729701319
30
0
10
-107.95130025216386
20
-16.585302808468239
30
0
10
-108.01044741625203
20
-16.506802546700722
30
0
10
-108.06089923036529
20
-16.446781818241185
30
0
10
-108.10090607093639
20
-16.403683088224163
30
0
10
-108.12859284908205
20
-16.375847793712921
30
0
10
-108.14269013174118
20
-16.362154449490795
30
0
0
LINE
5
130
100
AcDbEntity
8
0
100
AcDbLine
10
-108.14269013174118
20
-16.362154449490795
30
0
11
-110.30734149154726
21
-14.259528226592517
31
0
0
ARC
5
131
100
AcDbEntity
8
0
100
AcDbCircle
10
-109.20124238241314
20
-13.120800422956941
30
0
40
1.5874999999999992
210
0
220
0
230
1
100
AcDbArc
50
140.29050844175657
51
225.83273896878094
0
ARC
5
132
100
AcDbEntity
8
0
100
AcDbCircle
10
-124.99999686341366
20
1.3430652391207743e-14
30
0
40
18.949200000000026
210
-0
220
0
230
1
100
AcDbArc
50
320.29050844175663
51
327.70949161288928
0
ARC
5
133
100
AcDbEntity
8
0
100
AcDbCircle
10
-107.63929048710217
20
-10.970958071449317
30
0
40
1.587500000000003
210
0
220
-0
230
1
100
AcDbArc
50
62.167261085865
51
147.70949161288931
0
LINE
5
134
100
AcDbEntity
8
0
100
AcDbLine
10
-106.89809941269245
20
-9.5671090620414816
30
0
11
-104.22946898365127
21
-10.976067605053061
31
0
0
SPLINE
5
135
100
AcDbEntity
8
0
100
AcDbSpline
70
4
71
5
72
81
73
75
74
0
42
0.000000001
43
0.0000000001
44
0.0000000001
40
0
40
0
40
0
40
0
40
0
40
0
40
0.014285714285714285
40
0.028571428571428571
40
0.042857142857142858
40
0.057142857142857141
40
0.071428571428571425
40
0.085714285714285715
40
0.10000000000000001
40
0.1142857142857143
40
0.12857142857142859
40
0.14285714285714288
40
0.15714285714285717
40
0.17142857142857146
40
0.18571428571428575
40
0.20000000000000004
40
0.21428571428571433
40
0.22857142857142862
40
0.24285714285714291
40
0.25714285714285717
40
0.27142857142857146
40
0.28571428571428575
40
0.30000000000000004
40
0.31428571428571433
40
0.32857142857142863
40
0.34285714285714292
40
0.35714285714285721
40
0.3714285714285715
40
0.38571428571428579
40
0.40000000000000008
40
0.41428571428571437
40
0.42857142857142866
40
0.44285714285714295
40
0.45714285714285724
40
0.47142857142857153
40
0.48571428571428582
40
0.50000000000000011
40
0.51428571428571435
40
0.52857142857142858
40
0.54285714285714282
40
0.55714285714285705
40
0.57142857142857129
40
0.58571428571428552
40
0.59999999999999976
40
0.61428571428571399
40
0.62857142857142823
40
0.64285714285714246
40
0.6571428571428567
40
0.67142857142857093
40
0.68571428571428517
40
0.6999999999999994
40
0.71428571428571364
40
0.72857142857142787
40
0.74285714285714211
40
0.75714285714285634
40
0.77142857142857058
40
0.78571428571428481
40
0.79999999999999905
40
0.81428571428571328
40
0.82857142857142752
40
0.84285714285714175
40
0.85714285714285599
40
0.87142857142857022
40
0.88571428571428445
40
0.89999999999999869
40
0.91428571428571292
40
0.92857142857142716
40
0.94285714285714139
40
0.95714285714285563
40
0.97142857142856986
40
0.9857142857142841
40
1
40
1
40
1
40
1
40
1
40
1
41
1
41
1
41
1
41
1
41
1
41
1
41
1
41
1
41
1
41
1
41
1
41
1
41
1
41
1
41
1
41
1
41
1
41
1
41
1
41
1
41
1
41
1
41
1
41
1
41
1
41
1
41
1
41
1
41
1
41
1
41
1
41
1
41
1
41
1
41
1
41
1
41
1
41
1
41
1
41
1
41
1
41
1
41
1
41
1
41
1
41
1
41
1
41
1
41
1
41
1
41
1
41
1
41
1
41
1
41
1
41
1
41
1
41
1
41
1
41
1
41
1
41
1
41
1
41
1
41
1
41
1
41
1
41
1
41
1
41
1
41
1
41
1
41
1
41
1
41
1
10
-104.22946898365126
20
-10.976067605053061
30
0
10
-104.21208953947402
20
-10.985243441497046
30
0
10
-104.1770609162627
20
-11.002973553186878
30
0
10
-104.12370879458466
20
-11.027704079546265
30
0
10
-104.05103522168432
20
-11.057139180939528
30
0
10
-103.95809955729661
20
-11.089133561728286
30
0
10
-103.86366249594552
20
-11.117711476378982
30
0
10
-103.76830563041231
20
-11.1442214367025
30
0
10
-103.67244707346707
20
-11.169614479410226
30
0
10
-103.57624238486366
20
-11.194209871852676
30
0
10
-103.47968080471608
20
-11.217928622612066
30
0
10
-103.38265330439771
20
-11.240459635883294
30
0
10
-103.28502622047863
20
-11.261438876121723
30
0
10
-103.18672515843126
20
-11.280654032484867
30
0
10
-103.08776931625856
20
-11.298127428456086
30
0
10
-102.9882295123075
20
-11.314011849563654
30
0
10
-102.88820364836533
20
-11.328529075585571
30
0
10
-102.78778762703782
20
-11.34189738552042
30
0
10
-102.68704217844314
20
-11.354248753396188
30
0
10
-102.5859873412721
20
-11.365614967947364
30
0
10
-102.48461975137255
20
-11.375970531143583
30
0
10
-102.38292368397438
20
-11.385260010074651
30
0
10
-102.28088364879484
20
-11.393429261182193
30
0
10
-102.17849884218596
20
-11.400461264482789
30
0
10
-102.07578332991784
20
-11.406376513456223
30
0
10
-101.97275931309673
20
-11.411216223156249
30
0
10
-101.86945246892144
20
-11.41503069438353
30
0
10
-101.76588679884253
20
-11.417866457909414
30
0
10
-101.66207875917917
20
-11.419751633445882
30
0
10
-101.55803794853139
20
-11.420697608603312
30
0
10
-101.45376985210724
20
-11.420705838605445
30
0
10
-101.34927794545317
20
-11.419773053901048
30
0
10
-101.24456593062413
20
-11.417896800050194
30
0
10
-101.13964026492597
20
-11.415081706624186
30
0
10
-101.03450975004193
20
-11.411338452384506
30
0
10
-100.92918444596887
20
-11.406681054374957
30
0
10
-100.82367479889542
20
-11.401124691665581
30
0
10
-100.71799073452181
20
-11.394683444483482
30
0
10
-100.61214062890775
20
-11.387367734390711
30
0
10
-100.50613152855156
20
-11.37918484956832
30
0
10
-100.39996962718246
20
-11.370140106551478
30
0
10
-100.29366066410086
20
-11.360237820434687
30
0
10
-100.18721033053752
20
-11.349482298619249
30
0
10
-100.08062473923344
20
-11.337878990502952
30
0
10
-99.973910345741771
20
-11.325434305249109
30
0
10
-99.867073743849943
20
-11.312155124599997
30
0
10
-99.760121499407916
20
-11.298048414676195
30
0
10
-99.65305998287684
20
-11.283120831691027
30
0
10
-99.54589516740262
20
-11.267378261643078
30
0
10
-99.438632675180997
20
-11.250825881475572
30
0
10
-99.331277901240554
20
-11.233468387729456
30
0
10
-99.223836116897331
20
-11.215310181727535
30
0
10
-99.116312570383457
20
-11.196355560984736
30
0
10
-99.008712619041503
20
-11.176608957669753
30
0
10
-98.901041694338431
20
-11.156074933398944
30
0
10
-98.79330518890302
20
-11.134758057169886
30
0
10
-98.685508361489539
20
-11.112662821673853
30
0
10
-98.57765625094315
20
-11.089793558564105
30
0
10
-98.469753546725485
20
-11.066154337046083
30
0
10
-98.361804644567826
20
-11.041748970533982
30
0
10
-98.253813847318241
20
-11.016581112390496
30
0
10
-98.145785536168418
20
-10.9906543357842
30
0
10
-98.037724328520397
20
-10.963972214946601
30
0
10
-97.929635304737204
20
-10.936538437086147
30
0
10
-97.821523985613766
20
-10.9083568163311
30
0
10
-97.713395925019171
20
-10.879431151071635
30
0
10
-97.605256386286015
20
-10.849765122867449
30
0
10
-97.497110001141195
20
-10.819362184774143
30
0
10
-97.388960396399952
20
-10.788225457359264
30
0
10
-97.280809953131566
20
-10.756357632828905
30
0
10
-97.172660109438823
20
-10.723760912495832
30
0
10
-97.086141284552497
20
-10.697101736627641
30
0
10
-97.021252863772162
20
-10.67678055701135
30
0
10
-96.977994226560639
20
-10.663087908746894
30
0
10
-96.956364985454087
20
-10.656205285817775
30
0
0
ARC
5
136
100
AcDbEntity
8
0
100
AcDbCircle
10
-124.99999686341366
20
1.3430652391207743e-14
30
0
40
30.000000000000036
210
-0
220
0
230
1
100
AcDbArc
50
339.1938781692956
51
344.80612188535008
0
SPLINE
5
137
100
AcDbEntity
8
0
100
AcDbSpline
70
4
71
5
72
81
73
75
74
0
42
0.000000001
43
0.0000000001
44
0.0000000001
40
-1
40
-1
40
-1
40
-1
40
-1
40
-1
40
-0.9857142857142841
40
-0.97142857142856986
40
-0.95714285714285563
40
-0.94285714285714139
40
-0.92857142857142716
40
-0.91428571428571292
40
-0.89999999999999869
40
-0.88571428571428445
40
-0.87142857142857022
40
-0.85714285714285599
40
-0.84285714285714175
40
-0.82857142857142752
40
-0.81428571428571328
40
-0.79999999999999905
40
-0.78571428571428481
40
-0.77142857142857058
40
-0.75714285714285634
40
-0.74285714285714211
40
-0.72857142857142787
40
-0.71428571428571364
40
-0.6999999999999994
40
-0.68571428571428517
40
-0.67142857142857093
40
-0.6571428571428567
40
-0.64285714285714246
40
-0.62857142857142823
40
-0.61428571428571399
40
-0.59999999999999976
40
-0.58571428571428552
40
-0.57142857142857129
40
-0.55714285714285705
40
-0.54285714285714282
40
-0.52857142857142858
40
-0.51428571428571435
40
-0.50000000000000011
40
-0.48571428571428582
40
-0.47142857142857153
40
-0.45714285714285724
40
-0.44285714285714295
40
-0.42857142857142866
40
-0.41428571428571437
40
-0.40000000000000008
40
-0.38571428571428579
40
-0.3714285714285715
40
-0.35714285714285721
40
-0.34285714285714292
40
-0.32857142857142863
40
-0.31428571428571433
40
-0.30000000000000004
40
-0.28571428571428575
40
-0.27142857142857146
40
-0.25714285714285717
40
-0.24285714285714291
40
-0.22857142857142862
40
-0.21428571428571433
40
-0.20000000000000004
40
-0.18571428571428575
40
-0.17142857142857146
40
-0.15714285714285717
40
-0.14285714285714288
40
-0.12857142857142859
40
-0.1142857142857143
40
-0.10000000000000001
40
-0.085714285714285715
40
-0.071428571428571425
40
-0.057142857142857141
40
-0.042857142857142858
40
-0.028571428571428571
40
-0.014285714285714285
40
0
40
0
40
0
40
0
40
0
40
0
41
1
41
1
41
1
41
1
41
1
41
1
41
1
41
1
41
1
41
1
41
1
41
1
41
1
41
1
41
1
41
1
41
1
41
1
41
1
41
1
41
1
41
1
41
1
41
1
41
1
41
1
41
1
41
1
41
1
41
1
41
1
41
1
41
1
41
1
41
1
41
1
41
1
41
1
41
1
41
1
41
1
41
1
41
1
41
1
41
1
41
1
41
1
41
1
41
1
41
1
41
1
41
1
41
1
41
1
41
1
41
1
41
1
41
1
41
1
41
1
41
1
41
1
41
1
41
1
41
1
41
1
41
1
41
1
41
1
41
1
41
1
41
1
41
1
41
1
41
1
10
-96.048661770245602
20
-7.8625820391966892
30
0
10
-96.062114689638889
20
-7.8443005313532517
30
0
10
-96.089063325616621
20
-7.8077961572478216
30
0
10
-96.129614671130469
20
-7.7532155208519393
30
0
10
-96.183940000452367
20
-7.6807933052564916
30
0
10
-96.252275190539663
20
-7.5908531214509898
30
0
10
-96.321039299896611
20
-7.501502274315718
30
0
10
-96.390232458972761
20
-7.4127433900456809
30
0
10
-96.459854323881601
20
-7.3245800462388058
30
0
10
-96.529903794691592
20
-7.2370168992757611
30
0
10
-96.600379153912087
20
-7.1500594651979785
30
0
10
-96.671278307384085
20
-7.0637138161590833
30
0
10
-96.742598994570812
20
-6.9779862896036606
30
0
10
-96.814338990943668
20
-6.8928832162680598
30
0
10
-96.886496353689409
20
-6.8084105653291003
30
0
10
-96.959069448131871
20
-6.7245739424415998
30
0
10
-97.032056830068257
20
-6.6413788135595517
30
0
10
-97.10545716581413
20
-6.558830663466054
30
0
10
-97.179269140616782
20
-6.4769351610240546
30
0
10
-97.25349135244096
20
-6.3956983546862665
30
0
10
-97.328122270857236
20
-6.3151267105926889
30
0
10
-97.403160282181688
20
-6.2352269544251149
30
0
10
-97.47860370927539
20
-6.1560059522878676
30
0
10
-97.55445083924009
20
-6.0774705871423045
30
0
10
-97.630699943057934
20
-5.9996275936551875
30
0
10
-97.707349300835887
20
-5.9224835334225325
30
0
10
-97.784397235022283
20
-5.8460450655911611
30
0
10
-97.861842141504837
20
-5.7703191608606961
30
0
10
-97.939682514762524
20
-5.6953133121099588
30
0
10
-98.017916982121932
20
-5.6210357921388994
30
0
10
-98.096544302195738
20
-5.5474957304003283
30
0
10
-98.175563257682725
20
-5.4747026219139441
30
0
10
-98.25497255908337
20
-5.4026659098572072
30
0
10
-98.334770750957148
20
-5.331394573831119
30
0
10
-98.414956091068319
20
-5.2608966154700862
30
0
10
-98.49552650694153
20
-5.1911788647564485
30
0
10
-98.576479891733996
20
-5.1222481861511788
30
0
10
-98.657814359594553
20
-5.0541125214042415
30
0
10
-98.739528493671642
20
-4.9867819086057406
30
0
10
-98.821621643231026
20
-4.9202697023008994
30
0
10
-98.904094054362432
20
-4.8545931278128869
30
0
10
-98.986946197955191
20
-4.7897706053829783
30
0
10
-99.07017817431246
20
-4.7258193881556174
30
0
10
-99.153789139541445
20
-4.6627532889299266
30
0
10
-99.237776590765719
20
-4.6005798486168876
30
0
10
-99.322136090276288
20
-4.5392992575462268
30
0
10
-99.406862904503043
20
-4.4789109134703322
30
0
10
-99.491953451178517
20
-4.4194192178143528
30
0
10
-99.577406658341587
20
-4.3608390252641547
30
0
10
-99.663225740902277
20
-4.3032027579263126
30
0
10
-99.749418631380422
20
-4.2465621676842966
30
0
10
-99.835994122554467
20
-4.1909730414194737
30
0
10
-99.922958478953007
20
-4.1364817722935809
30
0
10
-100.01031236689406
20
-4.0831132075322643
30
0
10
-100.09804643244728
20
-4.0308531053072736
30
0
10
-100.1861413827296
20
-3.9796485575999774
30
0
10
-100.27457735670021
20
-3.9294454754559869
30
0
10
-100.3633420886492
20
-3.8802212531363667
30
0
10
-100.45243805188443
20
-3.8320133867145096
30
0
10
-100.54189368709542
20
-3.7849643416897258
30
0
10
-100.63175970862036
20
-3.7393070796187504
30
0
10
-100.7220872711321
20
-3.6952785693377632
30
0
10
-100.81290888646458
20
-3.6530440429156057
30
0
10
-100.90422214452138
20
-3.6126328447327065
30
0
10
-100.9959624385577
20
-3.5738294837031721
30
0
10
-101.08802392983578
20
-3.5362608834918703
30
0
10
-101.18031196684149
20
-3.4996112768866663
30
0
10
-101.272788824515
20
-3.463810433985854
30
0
10
-101.36551631301174
20
-3.4292080832309626
30
0
10
-101.45871517734741
20
-3.396819390004064
30
0
10
-101.55270753443189
20
-3.3680771749372171
30
0
10
-101.62880320846693
20
-3.3491742178858703
30
0
10
-101.68650222027672
20
-3.3378220437446244
30
0
10
-101.72526246992298
20
-3.3315766973191012
30
0
10
-101.74471615695705
20
-3.3287847239780195
30
0
0
LINE
5
138
100
AcDbEntity
8
0
100
AcDbLine
10
-101.74471615695705
20
-3.3287847239780195
30
0
11
-104.73184857884006
21
-2.9000745224837776
31
0
0
ARC
5
139
100
AcDbEntity
8
0
100
AcDbCircle
10
-104.50632301143995
20
-1.3286756334524594
30
0
40
1.5874999999999948
210
0
220
0
230
1
100
AcDbArc
50
176.29050844175649
51
261.83273896878063
0
ARC
5
140
100
AcDbEntity
8
0
100
AcDbCircle
10
-124.99999686341366
20
1.3430652391207743e-14
30
0
40
18.949200000000037
210
-0
220
0
230
1
100
AcDbArc
50
-3.7094915582434984
51
3.7094916128892015
0
ARC
5
141
100
AcDbEntity
8
0
100
AcDbCircle
10
-104.50632301270717
20
1.328675652998291
30
0
40
1.5875000000000004
210
0
220
0
230
1
100
AcDbArc
50
98.167261085865135
51
183.70949161288911
0
LINE
5
142
100
AcDbEntity
8
0
100
AcDbLine
10
-104.731848581606
20
2.9000745418145142
30
0
11
-101.74471616013187
21
3.328784746157722
31
0
0
SPLINE
5
143
100
AcDbEntity
8
0
100
AcDbSpline
70
4
71
5
72
81
73
75
74
0
42
0.000000001
43
0.0000000001
44
0.0000000001
40
0
40
0
40
0
40
0
40
0
40
0
40
0.014285714285714285
40
0.028571428571428571
40
0.042857142857142858
40
0.057142857142857141
40
0.071428571428571425
40
0.085714285714285715
40
0.10000000000000001
40
0.1142857142857143
40
0.12857142857142859
40
0.14285714285714288
40
0.15714285714285717
40
0.17142857142857146
40
0.18571428571428575
40
0.20000000000000004
40
0.21428571428571433
40
0.22857142857142862
40
0.24285714285714291
40
0.25714285714285717
40
0.27142857142857146
40
0.28571428571428575
40
0.30000000000000004
40
0.31428571428571433
40
0.32857142857142863
40
0.34285714285714292
40
0.35714285714285721
40
0.3714285714285715
40
0.38571428571428579
40
0.40000000000000008
40
0.41428571428571437
40
0.42857142857142866
40
0.44285714285714295
40
0.45714285714285724
40
0.47142857142857153
40
0.48571428571428582
40
0.50000000000000011
40
0.51428571428571435
40
0.52857142857142858
40
0.54285714285714282
40
0.55714285714285705
40
0.57142857142857129
40
0.58571428571428552
40
0.59999999999999976
40
0.61428571428571399
40
0.62857142857142823
40
0.64285714285714246
40
0.6571428571428567
40
0.67142857142857093
40
0.68571428571428517
40
0.6999999999999994
40
0.71428571428571364
40
0.72857142857142787
40
0.74285714285714211
40
0.75714285714285634
40
0.77142857142857058
40
0.78571428571428481
40
0.79999999999999905
40
0.81428571428571328
40
0.82857142857142752
40
0.84285714285714175
40
0.85714285714285599
40
0.87142857142857022
40
0.88571428571428445
40
0.89999999999999869
40
0.91428571428571292
40
0.92857142857142716
40
0.94285714285714139
40
0.95714285714285563
40
0.97142857142856986
40
0.9857142857142841
40
1
40
1
40
1
40
1
40
1
40
1
41
1
41
1
41
1
41
1
41
1
41
1
41
1
41
1
41
1
41
1
41
1
41
1
41
1
41
1
41
1
41
1
41
1
41
1
41
1
41
1
41
1
41
1
41
1
41
1
41
1
41
1
41
1
41
1
41
1
41
1
41
1
41
1
41
1
41
1
41
1
41
1
41
1
41
1
41
1
41
1
41
1
41
1
41
1
41
1
41
1
41
1
41
1
41
1
41
1
41
1
41
1
41
1
41
1
41
1
41
1
41
1
41
1
41
1
41
1
41
1
41
1
41
1
41
1
41
1
41
1
41
1
41
1
41
1
41
1
41
1
41
1
41
1
41
1
41
1
41
1
10
-101.74471616013187
20
3.3287847461577211
30
0
10
-101.72526247310046
20
3.3315767195173591
30
0
10
-101.68650222346017
20
3.3378220659798501
30
0
10
-101.62880321166121
20
3.3491742401761257
30
0
10
-101.55270753764418
20
3.3680771973000487
30
0
10
-101.45871518058713
20
3.3968194124565425
30
0
10
-101.36551631628234
20
3.4292081057723305
30
0
10
-101.2727888278186
20
3.4638104566156569
30
0
10
-101.18031197017922
20
3.4996112996046684
30
0
10
-101.08802393320849
20
3.53626090629789
30
0
10
-100.99596244196624
20
3.5738295065969998
30
0
10
-100.90422214796692
20
3.6126328677140291
30
0
10
-100.81290888994866
20
3.6530440659840191
30
0
10
-100.72208727465649
20
3.6952785924927993
30
0
10
-100.63175971218672
20
3.7393071028599367
30
0
10
-100.54189369070534
20
3.7849643650166205
30
0
10
-100.45243805553923
20
3.8320134101267191
30
0
10
-100.36334209234997
20
3.8802212766335527
30
0
10
-100.27457736044792
20
3.9294454990378345
30
0
10
-100.18614138652518
20
3.9796485812661726
30
0
10
-100.0980464362917
20
4.0308531290574914
30
0
10
-100.01031237078833
20
4.0831132313661502
30
0
10
-99.922958482898153
20
4.1364817962107834
30
0
10
-99.835994126551611
20
4.1909730654196178
30
0
10
-99.749418635430544
20
4.2465621917670084
30
0
10
-99.663225745006443
20
4.3032027820912386
30
0
10
-99.577406662500721
20
4.3608390495109211
30
0
10
-99.491953455393528
20
4.4194192421426264
30
0
10
-99.406862908774812
20
4.4789109378797614
30
0
10
-99.322136094605625
20
4.5392992820364633
30
0
10
-99.23777659515352
20
4.6005798731875789
30
0
10
-99.153789143988519
20
4.6627533135807262
30
0
10
-99.070178178819674
20
4.7258194128861568
30
0
10
-98.986946202523413
20
4.7897706301928986
30
0
10
-98.904094058992484
20
4.8545931527018276
30
0
10
-98.821621647923749
20
4.9202697272684963
30
0
10
-98.739528498427788
20
4.9867819336516357
30
0
10
-98.657814364414918
20
5.0541125465280761
30
0
10
-98.576479896619347
20
5.1222482113525816
30
0
10
-98.495526511892592
20
5.1911788900350562
30
0
10
-98.414956096085888
20
5.2608966408255418
30
0
10
-98.334770756041948
20
5.3313945992630494
30
0
10
-98.254972564236169
20
5.4026659353652429
30
0
10
-98.17556326290422
20
5.474702647497721
30
0
10
-98.096544307486667
20
5.5474957560594662
30
0
10
-98.017916987482977
20
5.6210358178730289
30
0
10
-97.93968252019441
20
5.6953133379187069
30
0
10
-97.861842147008275
20
5.7703191867436798
30
0
10
-97.78439724059794
20
5.8460450915480111
30
0
10
-97.707349306484446
20
5.9224835594528678
30
0
10
-97.630699948780077
20
5.9996276197586234
30
0
10
-97.55445084503647
20
6.0774706133184617
30
0
10
-97.47860371514669
20
6.1560059785363688
30
0
10
-97.403160288128532
20
6.235226980745562
30
0
10
-97.328122276880279
20
6.3151267369847117
30
0
10
-97.253491358540828
20
6.3956983811494688
30
0
10
-97.179269146794127
20
6.4769351875580448
30
0
10
-97.105457172069606
20
6.5588306900704429
30
0
10
-97.032056836402475
20
6.6413788402339433
30
0
10
-96.959069454545414
20
6.7245739691856024
30
0
10
-96.886496360182917
20
6.8084105921423212
30
0
10
-96.814338997517751
20
6.8928832431501021
30
0
10
-96.742599001226054
20
6.9779863165541247
30
0
10
-96.67127831412111
20
7.0637138431775659
30
0
10
-96.60037916073145
20
7.1500594922840799
30
0
10
-96.529903801593889
20
7.2370169264290807
30
0
10
-96.459854330867415
20
7.3245800734589359
30
0
10
-96.390232466042647
20
7.4127434173322113
30
0
10
-96.321039307051137
20
7.5015023016682383
30
0
10
-96.25227519777944
20
7.590853148869102
30
0
10
-96.183940007777906
20
7.6807933327397713
30
0
10
-96.129614678525115
20
7.7532155483870371
30
0
10
-96.089063333063294
20
7.8077961848215889
30
0
10
-96.062114697120364
20
7.8443005589527193
30
0
10
-96.048661777744542
20
7.862582066808991
30
0
0
ARC
5
144
100
AcDbEntity
8
0
100
AcDbCircle
10
-124.99999686341366
20
1.3430652391207743e-14
30
0
40
30.000000000000036
210
0
220
-0
230
1
100
AcDbArc
50
15.193878169295532
51
20.806121885350102
0
SPLINE
5
145
100
AcDbEntity
8
0
100
AcDbSpline
70
4
71
5
72
81
73
75
74
0
42
0.000000001
43
0.0000000001
44
0.0000000001
40
-1
40
-1
40
-1
40
-1
40
-1
40
-1
40
-0.9857142857142841
40
-0.97142857142856986
40
-0.95714285714285563
40
-0.94285714285714139
40
-0.92857142857142716
40
-0.91428571428571292
40
-0.89999999999999869
40
-0.88571428571428445
40
-0.87142857142857022
40
-0.85714285714285599
40
-0.84285714285714175
40
-0.82857142857142752
40
-0.81428571428571328
40
-0.79999999999999905
40
-0.78571428571428481
40
-0.77142857142857058
40
-0.75714285714285634
40
-0.74285714285714211
40
-0.72857142857142787
40
-0.71428571428571364
40
-0.6999999999999994
40
-0.68571428571428517
40
-0.67142857142857093
40
-0.6571428571428567
40
-0.64285714285714246
40
-0.62857142857142823
40
-0.61428571428571399
40
-0.59999999999999976
40
-0.58571428571428552
40
-0.57142857142857129
40
-0.55714285714285705
40
-0.54285714285714282
40
-0.52857142857142858
40
-0.51428571428571435
40
-0.50000000000000011
40
-0.48571428571428582
40
-0.47142857142857153
40
-0.45714285714285724
40
-0.44285714285714295
40
-0.42857142857142866
40
-0.41428571428571437
40
-0.40000000000000008
40
-0.38571428571428579
40
-0.3714285714285715
40
-0.35714285714285721
40
-0.34285714285714292
40
-0.32857142857142863
40
-0.31428571428571433
40
-0.30000000000000004
40
-0.28571428571428575
40
-0.27142857142857146
40
-0.25714285714285717
40
-0.24285714285714291
40
-0.22857142857142862
40
-0.21428571428571433
40
-0.20000000000000004
40
-0.18571428571428575
40
-0.17142857142857146
40
-0.15714285714285717
40
-0.14285714285714288
40
-0.12857142857142859
40
-0.1142857142857143
40
-0.10000000000000001
40
-0.085714285714285715
40
-0.071428571428571425
40
-0.057142857142857141
40
-0.042857142857142858
40
-0.028571428571428571
40
-0.014285714285714285
40
0
40
0
40
0
40
0
40
0
40
0
41
1
41
1
41
1
41
1
41
1
41
1
41
1
41
1
41
1
41
1
41
1
41
1
41
1
41
1
41
1
41
1
41
1
41
1
41
1
41
1
41
1
41
1
41
1
41
1
41
1
41
1
41
1
41
1
41
1
41
1
41
1
41
1
41
1
41
1
41
1
41
1
41
1
41
1
41
1
41
1
41
1
41
1
41
1
41
1
41
1
41
1
41
1
41
1
41
1
41
1
41
1
41
1
41
1
41
1
41
1
41
1
41
1
41
1
41
1
41
1
41
1
41
1
41
1
41
1
41
1
41
1
41
1
41
1
41
1
41
1
41
1
41
1
41
1
41
1
41
1
10
-96.956364995617406
20
10.65620531256436
30
0
10
-96.977994236730552
20
10.66308793547285
30
0
10
-97.021252873955106
20
10.676780583696049
30
0
10
-97.086141294754839
20
10.697101763250451
30
0
10
-97.172660119666602
20
10.723760939036126
30
0
10
-97.280809963390425
20
10.756357659266058
30
0
10
-97.388960406689179
20
10.788225483693264
30
0
10
-97.497110011460123
20
10.819362211004997
30
0
10
-97.605256396633962
20
10.849765148995154
30
0
10
-97.713395935395397
20
10.879431177096206
30
0
10
-97.821523996017575
20
10.908356842252548
30
0
10
-97.929635315167914
20
10.936538462904482
30
0
10
-98.037724338977256
20
10.963972240661832
30
0
10
-98.145785546650743
20
10.990654361396381
30
0
10
-98.253813857825293
20
11.016581137899642
30
0
10
-98.361804655098865
20
11.04174899594013
30
0
10
-98.469753557279788
20
11.066154362349277
30
0
10
-98.577656261520019
20
11.089793583764386
30
0
10
-98.685508372088208
20
11.11266284677127
30
0
10
-98.793305199522777
20
11.134758082164492
30
0
10
-98.90104170497851
20
11.156074958290798
30
0
10
-99.008712629701165
20
11.176608982458912
30
0
10
-99.116312581061976
20
11.196355585671274
30
0
10
-99.223836127593927
20
11.215310206311521
30
0
10
-99.331277911954459
20
11.233468412210971
30
0
10
-99.438632685911458
20
11.250825905854702
30
0
10
-99.545895178148839
20
11.267378285919902
30
0
10
-99.653059993638095
20
11.28312085586564
30
0
10
-99.76012151018341
20
11.298048438748703
30
0
10
-99.867073754638866
20
11.312155148570502
30
0
10
-99.973910356543385
20
11.325434329117716
30
0
10
-100.08062475004692
20
11.337879014269777
30
0
10
-100.18721034136209
20
11.349482322284421
30
0
10
-100.29366067493567
20
11.360237843998336
30
0
10
-100.3999696380267
20
11.370140130013732
30
0
10
-100.50613153940445
20
11.379184872929324
30
0
10
-100.61214063976846
20
11.38736775765061
30
0
10
-100.71799074538944
20
11.394683467642421
30
0
10
-100.82367480976922
20
11.401124714723732
30
0
10
-100.92918445684795
20
11.406681077332477
30
0
10
-101.03450976092547
20
11.411338475241571
30
0
10
-101.13964027581311
20
11.415081729380978
30
0
10
-101.24456594151394
20
11.417896822706922
30
0
10
-101.34927795634475
20
11.419773076457904
30
0
10
-101.45376986299974
20
11.420705861062636
30
0
10
-101.55803795942384
20
11.420697630961056
30
0
10
-101.66207877007074
20
11.419751655704403
30
0
10
-101.76588680973228
20
11.417866480068927
30
0
10
-101.8694524798085
20
11.415030716444265
30
0
10
-101.97275932398014
20
11.411216245118464
30
0
10
-102.07578334079665
20
11.406376535320177
30
0
10
-102.17849885305911
20
11.400461286248776
30
0
10
-102.2808836596613
20
11.393429282850523
30
0
10
-102.38292369483305
20
11.385260031645668
30
0
10
-102.48461976222238
20
11.375970552617602
30
0
10
-102.58598735211203
20
11.365614989324712
30
0
10
-102.68704218927225
20
11.354248774677147
30
0
10
-102.78778763785513
20
11.341897406705302
30
0
10
-102.8882036591699
20
11.328529096674679
30
0
10
-102.9882295230982
20
11.314011870557367
30
0
10
-103.08776932703412
20
11.298127449354855
30
0
10
-103.18672516919015
20
11.280654053289261
30
0
10
-103.28502623121921
20
11.261438896832361
30
0
10
-103.38265331511828
20
11.240459656500818
30
0
10
-103.47968081541516
20
11.217928643137046
30
0
10
-103.57624239554011
20
11.194209892285567
30
0
10
-103.67244708412008
20
11.169614499751363
30
0
10
-103.7683056410411
20
11.144221456952208
30
0
10
-103.86366250654903
20
11.117711496537748
30
0
10
-103.95809956787284
20
11.089133581796986
30
0
10
-104.05103523223003
20
11.057139200919581
30
0
10
-104.12370880510231
20
11.02770409945701
30
0
10
-104.17706092675674
20
11.002973573046738
30
0
10
-104.21208954995116
20
10.985243461323499
30
0
10
-104.22946899411967
20
10.976067624862935
30
0
0
LINE
5
146
100
AcDbEntity
8
0
100
AcDbLine
10
-104.22946899411967
20
10.976067624862935
30
0
11
-106.89809942181708
21
9.5671090793061513
31
0
0
ARC
5
147
100
AcDbEntity
8
0
100
AcDbCircle
10
-107.63929049756571
20
10.970958088007084
30
0
40
1.5875000000000019
210
0
220
0
230
1
100
AcDbArc
50
212.2905084417564
51
297.83273896878018
0
ARC
5
148
100
AcDbEntity
8
0
100
AcDbCircle
10
-124.99999686341366
20
1.3430652391207743e-14
30
0
40
18.949200000000019
210
0
220
-0
230
1
100
AcDbArc
50
32.290508441756501
51
39.709491612889181
0
ARC
5
149
100
AcDbEntity
8
0
100
AcDbCircle
10
-109.20124239492709
20
13.120800438025007
30
0
40
1.587500000000003
210
0
220
0
230
1
100
AcDbArc
50
134.16726108586536
51
219.70949161288937
0
LINE
5
150
100
AcDbEntity
8
0
100
AcDbLine
10
-110.30734150514729
20
14.25952824060564
30
0
11
-108.14269014734654
21
16.362154465568448
31
0
0
SPLINE
5
151
100
AcDbEntity
8
0
100
AcDbSpline
70
4
71
5
72
81
73
75
74
0
42
0.000000001
43
0.0000000001
44
0.0000000001
40
0
40
0
40
0
40
0
40
0
40
0
40
0.014285714285714285
40
0.028571428571428571
40
0.042857142857142858
40
0.057142857142857141
40
0.071428571428571425
40
0.085714285714285715
40
0.10000000000000001
40
0.1142857142857143
40
0.12857142857142859
40
0.14285714285714288
40
0.15714285714285717
40
0.17142857142857146
40
0.18571428571428575
40
0.20000000000000004
40
0.21428571428571433
40
0.22857142857142862
40
0.24285714285714291
40
0.25714285714285717
40
0.27142857142857146
40
0.28571428571428575
40
0.30000000000000004
40
0.31428571428571433
40
0.32857142857142863
40
0.34285714285714292
40
0.35714285714285721
40
0.3714285714285715
40
0.38571428571428579
40
0.40000000000000008
40
0.41428571428571437
40
0.42857142857142866
40
0.44285714285714295
40
0.45714285714285724
40
0.47142857142857153
40
0.48571428571428582
40
0.50000000000000011
40
0.51428571428571435
40
0.52857142857142858
40
0.54285714285714282
40
0.55714285714285705
40
0.57142857142857129
40
0.58571428571428552
40
0.59999999999999976
40
0.61428571428571399
40
0.62857142857142823
40
0.64285714285714246
40
0.6571428571428567
40
0.67142857142857093
40
0.68571428571428517
40
0.6999999999999994
40
0.71428571428571364
40
0.72857142857142787
40
0.74285714285714211
40
0.75714285714285634
40
0.77142857142857058
40
0.78571428571428481
40
0.79999999999999905
40
0.81428571428571328
40
0.82857142857142752
40
0.84285714285714175
40
0.85714285714285599
40
0.87142857142857022
40
0.88571428571428445
40
0.89999999999999869
40
0.91428571428571292
40
0.92857142857142716
40
0.94285714285714139
40
0.95714285714285563
40
0.97142857142856986
40
0.9857142857142841
40
1
40
1
40
1
40
1
40
1
40
1
41
1
41
1
41
1
41
1
41
1
41
1
41
1
41
1
41
1
41
1
41
1
41
1
41
1
41
1
41
1
41
1
41
1
41
1
41
1
41
1
41
1
41
1
41
1
41
1
41
1
41
1
41
1
41
1
41
1
41
1
41
1
41
1
41
1
41
1
41
1
41
1
41
1
41
1
41
1
41
1
41
1
41
1
41
1
41
1
41
1
41
1
41
1
41
1
41
1
41
1
41
1
41
1
41
1
41
1
41
1
41
1
41
1
41
1
41
1
41
1
41
1
41
1
41
1
41
1
41
1
41
1
41
1
41
1
41
1
41
1
41
1
41
1
41
1
41
1
41
1
10
-108.14269014734656
20
16.362154465568452
30
0
10
-108.12859286470047
20
16.375847809804018
30
0
10
-108.10090608658138
20
16.403683104341674
30
0
10
-108.06089924605141
20
16.446781834396848
30
0
10
-108.01044743199537
20
16.5068025629045
30
0
10
-107.95130026798205
20
16.585302824728434
30
0
10
-107.89493839917506
20
16.666286746015267
30
0
10
-107.84025903668258
20
16.748784486093939
30
0
10
-107.78648689479451
20
16.832104509583782
30
0
10
-107.73336640282426
20
16.916000211330175
30
0
10
-107.68096936108688
20
17.000506234283286
30
0
10
-107.62955794757644
20
17.0858224047196
30
0
10
-107.57943707639851
20
17.17218833728499
30
0
10
-107.53078567798995
20
17.259740393038097
30
0
10
-107.48358845396567
20
17.348453415257367
30
0
10
-107.43772198072611
20
17.438212838367722
30
0
10
-107.39300558648429
20
17.528857018516003
30
0
10
-107.34926131111116
20
17.620227294984026
30
0
10
-107.30638240648605
20
17.712225127779703
30
0
10
-107.26434483202192
20
17.804821635716333
30
0
10
-107.22317179820647
20
17.898027897617464
30
0
10
-107.18291116564896
20
17.991875998339502
30
0
10
-107.14360964117277
20
18.086397401296455
30
0
10
-107.10528316340319
20
18.181598130267073
30
0
10
-107.06791658844473
20
18.277458475075498
30
0
10
-107.03147757897102
20
18.373944585062983
30
0
10
-106.9959262307687
20
18.47101649595999
30
0
10
-106.96122570730053
20
18.56863700223149
30
0
10
-106.92735435041349
20
18.666781763519005
30
0
10
-106.89430429597705
20
18.765438132046306
30
0
10
-106.8620758550137
20
18.86460044138164
30
0
10
-106.83067321105437
20
18.964266396430865
30
0
10
-106.80009984240804
20
19.064433234794077
30
0
10
-106.770353341508
20
19.165093384592311
30
0
10
-106.74142627211822
20
19.266235175008578
30
0
10
-106.71330841194789
20
19.367844706912571
30
0
10
-106.68598855289335
20
19.469907354797858
30
0
10
-106.65945637107291
20
19.572409327733197
30
0
10
-106.63370454333682
20
19.67533943917255
30
0
10
-106.6087283157008
20
19.778688735326007
30
0
10
-106.58452454580696
20
19.88244968270736
30
0
10
-106.56109090329795
20
19.986615489479938
30
0
10
-106.53842505027875
20
20.091179411901464
30
0
10
-106.51652369300486
20
20.196133952453298
30
0
10
-106.49538273087543
20
20.301470990999132
30
0
10
-106.47499765655698
20
20.407182129899137
30
0
10
-106.45536387383437
20
20.513258972009286
30
0
10
-106.4364770208533
20
20.619693401777951
30
0
10
-106.41833334550003
20
20.726477919532257
30
0
10
-106.40092966156304
20
20.833605578482771
30
0
10
-106.38426316952194
20
20.941069796341548
30
0
10
-106.36833131239629
20
21.048864199705484
30
0
10
-106.3531316247994
20
21.156982469204138
30
0
10
-106.33866154699822
20
21.265418140086467
30
0
10
-106.32491841905342
20
21.37416463710343
30
0
10
-106.31189956200403
20
21.483215419662404
30
0
10
-106.29960232809111
20
21.592564098072948
30
0
10
-106.28802415475647
20
21.702204541554014
30
0
10
-106.27716262107907
20
21.812131032708962
30
0
10
-106.26701545864213
20
21.922338212539078
30
0
10
-106.25758052254447
20
22.032820859841578
30
0
10
-106.24885576836348
20
22.143573703685679
30
0
10
-106.24083922365875
20
22.254591248162857
30
0
10
-106.23352895160511
20
22.365867522150605
30
0
10
-106.22692303077052
20
22.477396096430571
30
0
10
-106.22101956491119
20
22.589170515192194
30
0
10
-106.21581667911497
20
22.701184635044211
30
0
10
-106.21131252061315
20
22.81343298389972
30
0
10
-106.20750524231721
20
22.925911148144049
30
0
10
-106.20439301957782
20
23.038616031308283
30
0
10
-106.2019742032204
20
23.151545585432366
30
0
10
-106.20059279892567
20
23.242068016022024
30
0
10
-106.19986776445927
20
23.310060161284451
30
0
10
-106.19952259276467
20
23.355432831102206
30
0
10
-106.19938455307326
20
23.378130309250121
30
0
0
ARC
5
152
100
AcDbEntity
8
0
100
AcDbCircle
10
-124.99999686341366
20
1.3430652391207743e-14
30
0
40
30.000000000000021
210
0
220
-0
230
1
100
AcDbArc
50
51.193878169295552
51
56.806121885350073
0
SPLINE
5
153
100
AcDbEntity
8
0
100
AcDbSpline
70
4
71
5
72
81
73
75
74
0
42
0.000000001
43
0.0000000001
44
0.0000000001
40
-1
40
-1
40
-1
40
-1
40
-1
40
-1
40
-0.9857142857142841
40
-0.97142857142856986
40
-0.95714285714285563
40
-0.94285714285714139
40
-0.92857142857142716
40
-0.91428571428571292
40
-0.89999999999999869
40
-0.88571428571428445
40
-0.87142857142857022
40
-0.85714285714285599
40
-0.84285714285714175
40
-0.82857142857142752
40
-0.81428571428571328
40
-0.79999999999999905
40
-0.78571428571428481
40
-0.77142857142857058
40
-0.75714285714285634
40
-0.74285714285714211
40
-0.72857142857142787
40
-0.71428571428571364
40
-0.6999999999999994
40
-0.68571428571428517
40
-0.67142857142857093
40
-0.6571428571428567
40
-0.64285714285714246
40
-0.62857142857142823
40
-0.61428571428571399
40
-0.59999999999999976
40
-0.58571428571428552
40
-0.57142857142857129
40
-0.55714285714285705
40
-0.54285714285714282
40
-0.52857142857142858
40
-0.51428571428571435
40
-0.50000000000000011
40
-0.48571428571428582
40
-0.47142857142857153
40
-0.45714285714285724
40
-0.44285714285714295
40
-0.42857142857142866
40
-0.41428571428571437
40
-0.40000000000000008
40
-0.38571428571428579
40
-0.3714285714285715
40
-0.35714285714285721
40
-0.34285714285714292
40
-0.32857142857142863
40
-0.31428571428571433
40
-0.30000000000000004
40
-0.28571428571428575
40
-0.27142857142857146
40
-0.25714285714285717
40
-0.24285714285714291
40
-0.22857142857142862
40
-0.21428571428571433
40
-0.20000000000000004
40
-0.18571428571428575
40
-0.17142857142857146
40
-0.15714285714285717
40
-0.14285714285714288
40
-0.12857142857142859
40
-0.1142857142857143
40
-0.10000000000000001
40
-0.085714285714285715
40
-0.071428571428571425
40
-0.057142857142857141
40
-0.042857142857142858
40
-0.028571428571428571
40
-0.014285714285714285
40
0
40
0
40
0
40
0
40
0
40
0
41
1
41
1
41
1
41
1
41
1
41
1
41
1
41
1
41
1
41
1
41
1
41
1
41
1
41
1
41
1
41
1
41
1
41
1
41
1
41
1
41
1
41
1
41
1
41
1
41
1
41
1
41
1
41
1
41
1
41
1
41
1
41
1
41
1
41
1
41
1
41
1
41
1
41
1
41
1
41
1
41
1
41
1
41
1
41
1
41
1
41
1
41
1
41
1
41
1
41
1
41
1
41
1
41
1
41
1
41
1
41
1
41
1
41
1
41
1
41
1
41
1
41
1
41
1
41
1
41
1
41
1
41
1
41
1
41
1
41
1
41
1
41
1
41
1
41
1
41
1
10
-108.57578242649765
20
25.10468442602302
30
0
10
-108.59732635437632
20
25.097539235977273
30
0
10
-108.64037166373492
20
25.083190032092975
30
0
10
-108.70481198855131
20
25.061489754907605
30
0
10
-108.79047705860339
20
25.032202991845431
30
0
10
-108.8971319915392
20
24.995005409293732
30
0
10
-109.00335897533805
20
24.957217785229187
30
0
10
-109.10915555265117
20
24.918839184047982
30
0
10
-109.21451821471399
20
24.879868827267035
30
0
10
-109.31944219314775
20
24.840306322082704
30
0
10
-109.42392171115156
20
24.80015159737507
30
0
10
-109.52795034663338
20
24.759404768409073
30
0
10
-109.63152137378096
20
24.718066026704861
30
0
10
-109.73462808428914
20
24.676135531609674
30
0
10
-109.83726420077107
20
24.633613286271718
30
0
10
-109.93942388678951
20
24.590499113117765
30
0
10
-110.04110149763008
20
24.546792696593599
30
0
10
-110.14229140482291
20
24.502493610217343
30
0
10
-110.24298781067804
20
24.457601352618134
30
0
10
-110.34318452952236
20
24.412115388136009
30
0
10
-110.44287493876263
20
24.366035174148767
30
0
10
-110.54205214323956
20
24.319360167011013
30
0
10
-110.64070909463545
20
24.272089840033729
30
0
10
-110.73883871755042
20
24.22422369532795
30
0
10
-110.83643407263983
20
24.175761296160857
30
0
10
-110.93348838797888
20
24.126702250603266
30
0
10
-111.02999481195059
20
24.077046096312099
30
0
10
-111.12594621932773
20
24.026792204824105
30
0
10
-111.22133501872747
20
23.975939692548053
30
0
10
-111.31615291807012
20
23.924487308538094
30
0
10
-111.41039085112033
20
23.872433412267661
30
0
10
-111.50403941141091
20
23.819776227336597
30
0
10
-111.59708921946918
20
23.76651406202949
30
0
10
-111.68953128543124
20
23.712645525703252
30
0
10
-111.7813574609101
20
23.658169802681456
30
0
10
-111.87256060977643
20
23.603086753424751
30
0
10
-111.96313355248967
20
23.547396260424541
30
0
10
-112.05306815323668
20
23.491097663096202
30
0
10
-112.1423544273953
20
23.434189207005183
30
0
10
-112.2309794729503
20
23.376667384255111
30
0
10
-112.31892698369177
20
23.318526637883149
30
0
10
-112.40617958644195
20
23.259760827879337
30
0
10
-112.49272090348086
20
23.200364527334848
30
0
10
-112.57853753727863
20
23.14033427044977
30
0
10
-112.66362154257136
20
23.079670107331381
30
0
10
-112.74797136701727
20
23.018376199676624
30
0
10
-112.83158612063426
20
22.95645723548294
30
0
10
-112.91446051043667
20
22.893915261574001
30
0
10
-112.99658007752461
20
22.830746707095035
30
0
10
-113.07791498010411
20
22.766938495502934
30
0
10
-113.15841845049263
20
22.7024670903116
30
0
10
-113.23804014933108
20
22.637306889997333
30
0
10
-113.31673788994648
20
22.571437600364067
30
0
10
-113.39448824712656
20
22.50485090949066
30
0
10
-113.47130187513145
20
22.437560114460481
30
0
10
-113.54722313064826
20
22.369599913372635
30
0
10
-113.62229731793042
20
22.301005909605465
30
0
10
-113.69654214600045
20
22.231796754099832
30
0
10
-113.76992271826752
20
22.161958507676289
30
0
10
-113.84231233064661
20
22.091420097371319
30
0
10
-113.91350509512348
20
22.02006130190307
30
0
10
-113.98329144860557
20
21.947760242889061
30
0
10
-114.05152429276632
20
21.874434940220496
30
0
10
-114.11817497468077
20
21.800078618122996
30
0
10
-114.18342847396823
20
21.724819311669915
30
0
10
-114.24760690133971
20
21.648872966410213
30
0
10
-114.3109813203335
20
21.572427178718026
30
0
10
-114.37360686587068
20
21.495539529490411
30
0
10
-114.43517002682646
20
21.418043161744503
30
0
10
-114.49477353751035
20
21.339414431139453
30
0
10
-114.5511542441229
20
21.258904220363959
30
0
10
-114.59264688107908
20
21.192374268683871
30
0
10
-114.6212734154781
20
21.141007262251122
30
0
10
-114.6391906687395
20
21.106073992433068
30
0
10
-114.64785751307565
20
21.088435203823582
30
0
0
LINE
5
154
100
AcDbEntity
8
0
100
AcDbLine
10
-114.64785751307562
20
21.088435203823579
30
0
11
-115.97865982661921
21
18.379982186878848
31
0
0
ARC
5
155
100
AcDbEntity
8
0
100
AcDbCircle
10
-117.4034577467387
20
19.080058708998479
30
0
40
1.5874999999999964
210
0
220
0
230
1
100
AcDbArc
50
248.2905084417564
51
333.83273896878012
0
ARC
5
156
100
AcDbEntity
8
0
100
AcDbCircle
10
-124.99999686341366
20
1.3430652391207743e-14
30
0
40
18.949200000000026
210
0
220
-0
230
1
100
AcDbArc
50
68.290508441756401
51
75.709491612889181
0
ARC
5
157
100
AcDbEntity
8
0
100
AcDbCircle
10
-119.93074900419458
20
19.901225415330689
30
0
40
1.5874999999999941
210
0
220
0
230
1
100
AcDbArc
50
170.16726108586514
51
255.70949161288866
0
LINE
5
158
100
AcDbEntity
8
0
100
AcDbLine
10
-121.49492939055803
20
20.172326815024405
30
0
11
-120.97958234131701
21
23.145737308307904
31
0
0
SPLINE
5
159
100
AcDbEntity
8
0
100
AcDbSpline
70
4
71
5
72
81
73
75
74
0
42
0.000000001
43
0.0000000001
44
0.0000000001
40
0
40
0
40
0
40
0
40
0
40
0
40
0.014285714285714285
40
0.028571428571428571
40
0.042857142857142858
40
0.057142857142857141
40
0.071428571428571425
40
0.085714285714285715
40
0.10000000000000001
40
0.1142857142857143
40
0.12857142857142859
40
0.14285714285714288
40
0.15714285714285717
40
0.17142857142857146
40
0.18571428571428575
40
0.20000000000000004
40
0.21428571428571433
40
0.22857142857142862
40
0.24285714285714291
40
0.25714285714285717
40
0.27142857142857146
40
0.28571428571428575
40
0.30000000000000004
40
0.31428571428571433
40
0.32857142857142863
40
0.34285714285714292
40
0.35714285714285721
40
0.3714285714285715
40
0.38571428571428579
40
0.40000000000000008
40
0.41428571428571437
40
0.42857142857142866
40
0.44285714285714295
40
0.45714285714285724
40
0.47142857142857153
40
0.48571428571428582
40
0.50000000000000011
40
0.51428571428571435
40
0.52857142857142858
40
0.54285714285714282
40
0.55714285714285705
40
0.57142857142857129
40
0.58571428571428552
40
0.59999999999999976
40
0.61428571428571399
40
0.62857142857142823
40
0.64285714285714246
40
0.6571428571428567
40
0.67142857142857093
40
0.68571428571428517
40
0.6999999999999994
40
0.71428571428571364
40
0.72857142857142787
40
0.74285714285714211
40
0.75714285714285634
40
0.77142857142857058
40
0.78571428571428481
40
0.79999999999999905
40
0.81428571428571328
40
0.82857142857142752
40
0.84285714285714175
40
0.85714285714285599
40
0.87142857142857022
40
0.88571428571428445
40
0.89999999999999869
40
0.91428571428571292
40
0.92857142857142716
40
0.94285714285714139
40
0.95714285714285563
40
0.97142857142856986
40
0.9857142857142841
40
1
40
1
40
1
40
1
40
1
40
1
41
1
41
1
41
1
41
1
41
1
41
1
41
1
41
1
41
1
41
1
41
1
41
1
41
1
41
1
41
1
41
1
41
1
41
1
41
1
41
1
41
1
41
1
41
1
41
1
41
1
41
1
41
1
41
1
41
1
41
1
41
1
41
1
41
1
41
1
41
1
41
1
41
1
41
1
41
1
41
1
41
1
41
1
41
1
41
1
41
1
41
1
41
1
41
1
41
1
41
1
41
1
41
1
41
1
41
1
41
1
41
1
41
1
41
1
41
1
41
1
41
1
41
1
41
1
41
1
41
1
41
1
41
1
41
1
41
1
41
1
41
1
41
1
41
1
41
1
41
1
10
-120.97958234131701
20
23.145737308307904
30
0
10
-120.97622614587806
20
23.165101631341063
30
0
10
-120.97018824748264
20
23.203894737527367
30
0
10
-120.96315483152162
20
23.262277773432313
30
0
10
-120.9576177556019
20
23.340490395063309
30
0
10
-120.95590799094724
20
23.438764271663707
30
0
10
-120.95791143585289
20
23.537410315532256
30
0
10
-120.96216585732057
20
23.636292112131272
30
0
10
-120.96763756173716
20
23.735305899092268
30
0
10
-120.97397483720096
20
23.834402389334734
30
0
10
-120.98125613400215
20
23.933567406427841
30
0
10
-120.98981101353191
20
24.032808508866744
30
0
10
-121.0000269984385
20
24.132140324957639
30
0
10
-121.01212899750544
20
24.231568000442305
30
0
10
-121.02608984732926
20
24.331080175270678
30
0
10
-121.04174235616496
20
24.430656710517127
30
0
10
-121.05884534559345
20
24.530273029769326
30
0
10
-121.07716158441576
20
24.629905376149225
30
0
10
-121.09654679123406
20
24.729536774099671
30
0
10
-121.11696454086919
20
24.82915798895236
30
0
10
-121.1384401229693
20
24.928764340881401
30
0
10
-121.16103111658606
20
25.028353655320611
30
0
10
-121.18479380206409
20
25.127923933124656
30
0
10
-121.20974461471037
20
25.227470679144048
30
0
10
-121.23585971750546
20
25.326986848869982
30
0
10
-121.26309305208477
20
25.426464063947762
30
0
10
-121.29138884485327
20
25.525893447712328
30
0
10
-121.32069542556151
20
25.625266552226883
30
0
10
-121.35098096549191
20
25.7245764160707
30
0
10
-121.38223166825291
20
25.823817429397799
30
0
10
-121.41444445482193
20
25.922984825154181
30
0
10
-121.4476213607241
20
26.022074287551902
30
0
10
-121.48176357627258
20
26.121081537263766
30
0
10
-121.5168647030662
20
26.220001863643219
30
0
10
-121.55291186512956
20
26.318830195710838
30
0
10
-121.58988862275181
20
26.417561297345781
30
0
10
-121.62777731172966
20
26.516189924222861
30
0
10
-121.66656147376133
20
26.614710987469721
30
0
10
-121.7062286090075
20
26.713119741419895
30
0
10
-121.74676960850839
20
26.8114117366271
30
0
10
-121.78817750197099
20
26.90958272540453
30
0
10
-121.83044641195519
20
27.007628582790602
30
0
10
-121.87357048319184
20
27.105545227163446
30
0
10
-121.91754264405489
20
27.203328528917474
30
0
10
-121.96235480419216
20
27.300974328997146
30
0
10
-122.00799838108539
20
27.398478482913244
30
0
10
-122.05446472060105
20
27.495836898821043
30
0
10
-122.1017455237233
20
27.593045574935001
30
0
10
-122.14983334673121
20
27.690100649329388
30
0
10
-122.19872152870519
20
27.786998374741682
30
0
10
-122.24840393581387
20
27.883735071505843
30
0
10
-122.29887475322425
20
27.980307086385878
30
0
10
-122.35012827196385
20
28.076710756021612
30
0
10
-122.40215862127984
20
28.172942354892918
30
0
10
-122.45495978440167
20
28.268998126984705
30
0
10
-122.5085257495405
20
28.364874355500149
30
0
10
-122.56285061884854
20
28.460567427384706
30
0
10
-122.61792871558997
20
28.556073888966289
30
0
10
-122.67375472059712
20
28.651390537755518
30
0
10
-122.73032364874183
20
28.746514371573259
30
0
10
-122.78763069581663
20
28.841442427119041
30
0
10
-122.84567110967348
20
28.936171641801725
30
0
10
-122.90444006416058
20
29.030698728709332
30
0
10
-122.96393248261573
20
29.12501999553951
30
0
10
-123.02414303156803
20
29.2191313703348
30
0
10
-123.08506638229376
20
29.313028744818862
30
0
10
-123.14669740696235
20
29.406708250929473
30
0
10
-123.20903139024047
20
29.500166550685471
30
0
10
-123.27206424354446
20
29.593401159088963
30
0
10
-123.33579267064334
20
29.686410643545919
30
0
10
-123.40021413356601
20
29.779194316582391
30
0
10
-123.45230430371774
20
29.853240470373446
30
0
10
-123.49168251876991
20
29.908673435941509
30
0
10
-123.518072655179
20
29.945583583735832
30
0
10
-123.53130222164232
20
29.964027366981799
30
0
0
ARC
5
160
100
AcDbEntity
8
0
100
AcDbCircle
10
-124.99999686341366
20
1.3430652391207743e-14
30
0
40
30.000000000000021
210
0
220
-0
230
1
100
AcDbArc
50
87.193878169295516
51
92.806121885350095
0
SPLINE
5
161
100
AcDbEntity
8
0
100
AcDbSpline
70
4
71
5
72
81
73
75
74
0
42
0.000000001
43
0.0000000001
44
0.0000000001
40
-1
40
-1
40
-1
40
-1
40
-1
40
-1
40
-0.9857142857142841
40
-0.97142857142856986
40
-0.95714285714285563
40
-0.94285714285714139
40
-0.92857142857142716
40
-0.91428571428571292
40
-0.89999999999999869
40
-0.88571428571428445
40
-0.87142857142857022
40
-0.85714285714285599
40
-0.84285714285714175
40
-0.82857142857142752
40
-0.81428571428571328
40
-0.79999999999999905
40
-0.78571428571428481
40
-0.77142857142857058
40
-0.75714285714285634
40
-0.74285714285714211
40
-0.72857142857142787
40
-0.71428571428571364
40
-0.6999999999999994
40
-0.68571428571428517
40
-0.67142857142857093
40
-0.6571428571428567
40
-0.64285714285714246
40
-0.62857142857142823
40
-0.61428571428571399
40
-0.59999999999999976
40
-0.58571428571428552
40
-0.57142857142857129
40
-0.55714285714285705
40
-0.54285714285714282
40
-0.52857142857142858
40
-0.51428571428571435
40
-0.50000000000000011
40
-0.48571428571428582
40
-0.47142857142857153
40
-0.45714285714285724
40
-0.44285714285714295
40
-0.42857142857142866
40
-0.41428571428571437
40
-0.40000000000000008
40
-0.38571428571428579
40
-0.3714285714285715
40
-0.35714285714285721
40
-0.34285714285714292
40
-0.32857142857142863
40
-0.31428571428571433
40
-0.30000000000000004
40
-0.28571428571428575
40
-0.27142857142857146
40
-0.25714285714285717
40
-0.24285714285714291
40
-0.22857142857142862
40
-0.21428571428571433
40
-0.20000000000000004
40
-0.18571428571428575
40
-0.17142857142857146
40
-0.15714285714285717
40
-0.14285714285714288
40
-0.12857142857142859
40
-0.1142857142857143
40
-0.10000000000000001
40
-0.085714285714285715
40
-0.071428571428571425
40
-0.057142857142857141
40
-0.042857142857142858
40
-0.028571428571428571
40
-0.014285714285714285
40
0
40
0
40
0
40
0
40
0
40
0
41
1
41
1
41
1
41
1
41
1
41
1
41
1
41
1
41
1
41
1
41
1
41
1
41
1
41
1
41
1
41
1
41
1
41
1
41
1
41
1
41
1
41
1
41
1
41
1
41
1
41
1
41
1
41
1
41
1
41
1
41
1
41
1
41
1
41
1
41
1
41
1
41
1
41
1
41
1
41
1
41
1
41
1
41
1
41
1
41
1
41
1
41
1
41
1
41
1
41
1
41
1
41
1
41
1
41
1
41
1
41
1
41
1
41
1
41
1
41
1
41
1
41
1
41
1
41
1
41
1
41
1
41
1
41
1
41
1
41
1
41
1
41
1
41
1
41
1
41
1
10
-126.46869153376312
20
29.964027365581039
30
0
10
-126.48192110020885
20
29.945583582322442
30
0
10
-126.50831123658273
20
29.908673434502955
30
0
10
-126.54768945158203
20
29.853240468897333
30
0
10
-126.59977962166315
20
29.779194315056596
30
0
10
-126.66420108449731
20
29.686410641958684
30
0
10
-126.72792951150745
20
29.593401157440944
30
0
10
-126.79096236472255
20
29.500166548977337
30
0
10
-126.85329634791152
20
29.406708249161898
30
0
10
-126.91492737249079
20
29.313028742992504
30
0
10
-126.97585072312697
20
29.219131368450331
30
0
10
-127.03606127198947
20
29.125019993597618
30
0
10
-127.09555369035469
20
29.030698726710696
30
0
10
-127.15432264475166
20
28.936171639747037
30
0
10
-127.21236305851816
20
28.841442425008999
30
0
10
-127.2696701055024
20
28.746514369408565
30
0
10
-127.32623903355642
20
28.651390535536866
30
0
10
-127.38206503847265
20
28.556073886694392
30
0
10
-127.43714313512298
20
28.460567425060272
30
0
10
-127.49146800433977
20
28.364874353123916
30
0
10
-127.54503396938713
20
28.268998124557385
30
0
10
-127.59783513241734
20
28.172942352415241
30
0
10
-127.64986548164157
20
28.076710753494297
30
0
10
-127.70111900028922
20
27.980307083809684
30
0
10
-127.75158981760748
20
27.883735068881514
30
0
10
-127.8012722246239
20
27.786998372069974
30
0
10
-127.85016040650547
20
27.69010064661105
30
0
10
-127.89824822942083
20
27.593045572170801
30
0
10
-127.94552903245035
20
27.495836896011753
30
0
10
-127.99199537187314
20
27.39847848005963
30
0
10
-128.03763894867342
20
27.3009743261
30
0
10
-128.08245110871749
20
27.203328525977586
30
0
10
-128.1264232694873
20
27.105545224181625
30
0
10
-128.1695473406306
20
27.007628579767655
30
0
10
-128.21181625052128
20
26.909582722341266
30
0
10
-128.25322414389024
20
26.811411733524334
30
0
10
-128.29376514329738
20
26.713119738278476
30
0
10
-128.33343227844972
20
26.614710984290468
30
0
10
-128.37221644038743
20
26.516189921006614
30
0
10
-128.41010512927119
20
26.417561294093407
30
0
10
-128.44708188679928
20
26.318830192423185
30
0
10
-128.48312904876838
20
26.22000186032119
30
0
10
-128.51823017546766
20
26.121081533908249
30
0
10
-128.5523723909217
20
26.022074284163832
30
0
10
-128.58554929672937
20
25.92298482173447
30
0
10
-128.61776208320381
20
25.823817425947372
30
0
10
-128.64901278587016
20
25.724576412590455
30
0
10
-128.67929832570584
20
25.62526654871775
30
0
10
-128.70860490631932
20
25.525893444175249
30
0
10
-128.73690069899297
20
25.42646406038369
30
0
10
-128.7641340334774
20
25.326986845279933
30
0
10
-128.79024913617755
20
25.227470675529098
30
0
10
-128.81519994872892
20
25.127923929485917
30
0
10
-128.83896263411199
20
25.028353651659209
30
0
10
-128.86155362763373
20
24.928764337198448
30
0
10
-128.88302920963886
20
24.829157985248926
30
0
10
-128.90344695917898
20
24.729536770376765
30
0
10
-128.92283216590224
20
24.629905372407826
30
0
10
-128.94114840462956
20
24.530273026010455
30
0
10
-128.95825139396302
20
24.430656706741949
30
0
10
-128.97390390270377
20
24.331080171480576
30
0
10
-128.98786475243267
20
24.231567996638891
30
0
10
-128.9999667514048
20
24.132140321142668
30
0
10
-129.01018273621662
20
24.032808505042034
30
0
10
-129.01873761565176
20
23.933567402594974
30
0
10
-129.02601891235838
20
23.834402385494929
30
0
10
-129.03235618772763
20
23.735305895246412
30
0
10
-129.03782789204979
20
23.636292108280198
30
0
10
-129.04208231342318
20
23.537410311677128
30
0
10
-129.0440857582347
20
23.438764267806654
30
0
10
-129.04237599348636
20
23.340490391207894
30
0
10
-129.03683891749205
20
23.262277769582184
30
0
10
-129.02980550147529
20
23.203894733683946
30
0
10
-129.02376760304293
20
23.165101627503404
30
0
10
-129.0204114075855
20
23.145737304473435
30
0
0
LINE
5
162
100
AcDbEntity
8
0
100
AcDbLine
10
-129.02041140758553
20
23.145737304473432
30
0
11
-128.50506435550858
21
20.172326811681451
31
0
0
ARC
5
163
100
AcDbEntity
8
0
100
AcDbCircle
10
-130.06924474161343
20
19.901225410495901
30
0
40
1.5874999999999995
210
-0
220
0
230
1
100
AcDbArc
50
-75.709491558244267
51
9.8327389687807827
0
ARC
5
164
100
AcDbEntity
8
0
100
AcDbCircle
10
-124.99999686341366
20
1.3430652391207743e-14
30
0
40
18.949200000000012
210
0
220
0
230
1
100
AcDbArc
50
104.29050844175651
51
111.70949161288921
0
ARC
5
165
100
AcDbEntity
8
0
100
AcDbCircle
10
-132.59653599828613
20
19.080058701753295
30
0
40
1.5874999999999972
210
0
220
0
230
1
100
AcDbArc
50
206.16726108586528
51
291.70949161288905
0
LINE
5
166
100
AcDbEntity
8
0
100
AcDbLine
10
-134.02133391773793
20
18.379982178274769
30
0
11
-135.35213623386468
21
21.08843519395025
31
0
0
SPLINE
5
167
100
AcDbEntity
8
0
100
AcDbSpline
70
4
71
5
72
81
73
75
74
0
42
0.000000001
43
0.0000000001
44
0.0000000001
40
0
40
0
40
0
40
0
40
0
40
0
40
0.014285714285714285
40
0.028571428571428571
40
0.042857142857142858
40
0.057142857142857141
40
0.071428571428571425
40
0.085714285714285715
40
0.10000000000000001
40
0.1142857142857143
40
0.12857142857142859
40
0.14285714285714288
40
0.15714285714285717
40
0.17142857142857146
40
0.18571428571428575
40
0.20000000000000004
40
0.21428571428571433
40
0.22857142857142862
40
0.24285714285714291
40
0.25714285714285717
40
0.27142857142857146
40
0.28571428571428575
40
0.30000000000000004
40
0.31428571428571433
40
0.32857142857142863
40
0.34285714285714292
40
0.35714285714285721
40
0.3714285714285715
40
0.38571428571428579
40
0.40000000000000008
40
0.41428571428571437
40
0.42857142857142866
40
0.44285714285714295
40
0.45714285714285724
40
0.47142857142857153
40
0.48571428571428582
40
0.50000000000000011
40
0.51428571428571435
40
0.52857142857142858
40
0.54285714285714282
40
0.55714285714285705
40
0.57142857142857129
40
0.58571428571428552
40
0.59999999999999976
40
0.61428571428571399
40
0.62857142857142823
40
0.64285714285714246
40
0.6571428571428567
40
0.67142857142857093
40
0.68571428571428517
40
0.6999999999999994
40
0.71428571428571364
40
0.72857142857142787
40
0.74285714285714211
40
0.75714285714285634
40
0.77142857142857058
40
0.78571428571428481
40
0.79999999999999905
40
0.81428571428571328
40
0.82857142857142752
40
0.84285714285714175
40
0.85714285714285599
40
0.87142857142857022
40
0.88571428571428445
40
0.89999999999999869
40
0.91428571428571292
40
0.92857142857142716
40
0.94285714285714139
40
0.95714285714285563
40
0.97142857142856986
40
0.9857142857142841
40
1
40
1
40
1
40
1
40
1
40
1
41
1
41
1
41
1
41
1
41
1
41
1
41
1
41
1
41
1
41
1
41
1
41
1
41
1
41
1
41
1
41
1
41
1
41
1
41
1
41
1
41
1
41
1
41
1
41
1
41
1
41
1
41
1
41
1
41
1
41
1
41
1
41
1
41
1
41
1
41
1
41
1
41
1
41
1
41
1
41
1
41
1
41
1
41
1
41
1
41
1
41
1
41
1
41
1
41
1
41
1
41
1
41
1
41
1
41
1
41
1
41
1
41
1
41
1
41
1
41
1
41
1
41
1
41
1
41
1
41
1
41
1
41
1
41
1
41
1
41
1
41
1
41
1
41
1
41
1
41
1
10
-135.35213623386468
20
21.088435193950247
30
0
10
-135.36080307821766
20
21.106073982551464
30
0
10
-135.3787203315124
20
21.141007252352434
30
0
10
-135.40734686596042
20
21.192374258757877
30
0
10
-135.44883950298004
20
21.258904210398399
30
0
10
-135.50522020966935
20
21.339414421120111
30
0
10
-135.56482372042825
20
21.418043151668321
30
0
10
-135.6263868814579
20
21.495539519355511
30
0
10
-135.68901242706846
20
21.572427168523394
30
0
10
-135.75238684613515
20
21.648872956155142
30
0
10
-135.81656527357907
20
21.724819301353637
30
0
10
-135.88181877293832
20
21.800078607744481
30
0
10
-135.94846945492367
20
21.874434929778413
30
0
10
-136.01670229915436
20
21.947760232381892
30
0
10
-136.08648865270541
20
22.020061291329355
30
0
10
-136.15768141725033
20
22.091420086729702
30
0
10
-136.23007102969669
20
22.161958496965624
30
0
10
-136.30345160203038
20
22.231796743319183
30
0
10
-136.37769643016642
20
22.301005898753999
30
0
10
-136.45277061751398
20
22.369599902449579
30
0
10
-136.52869187309562
20
22.437560103465014
30
0
10
-136.60550550116469
20
22.504850898421932
30
0
10
-136.68325585840827
20
22.571437589221183
30
0
10
-136.7619535990865
20
22.637306878779391
30
0
10
-136.84157529798708
20
22.702467079017723
30
0
10
-136.9220787684371
20
22.766938484132272
30
0
10
-137.00341367107745
20
22.830746695646798
30
0
10
-137.08553323822565
20
22.893915250047442
30
0
10
-137.16840762808772
20
22.956457223877344
30
0
10
-137.25202238176377
20
23.018376187991279
30
0
10
-137.33637220626809
20
23.079670095565579
30
0
10
-137.4214562116187
20
23.140334258602827
30
0
10
-137.50727284547372
20
23.200364515406054
30
0
10
-137.59381416256926
20
23.259760815868006
30
0
10
-137.68106676537553
20
23.318526625788603
30
0
10
-137.76901427617241
20
23.376667372076682
30
0
10
-137.8576393217823
20
23.434189194742238
30
0
10
-137.9469255959952
20
23.491097650748092
30
0
10
-138.03686019679591
20
23.547396247990658
30
0
10
-138.12743313956224
20
23.603086740904487
30
0
10
-138.21863628848112
20
23.658169790074204
30
0
10
-138.31046246401195
20
23.712645513008418
30
0
10
-138.40290453002535
20
23.766514049246496
30
0
10
-138.49595433813445
20
23.819776214464859
30
0
10
-138.58960289847528
20
23.872433399306601
30
0
10
-138.68384083157508
20
23.924487295487147
30
0
10
-138.77865873096681
20
23.975939679406672
30
0
10
-138.87404753041506
20
24.02679219159176
30
0
10
-138.96999893784016
20
24.077046082988236
30
0
10
-139.06650536185921
20
24.126702237187359
30
0
10
-139.16355967724505
20
24.175761282652388
30
0
10
-139.26115503238069
20
24.2242236817264
30
0
10
-139.3592846553413
20
24.272089826338579
30
0
10
-139.4579416067823
20
24.319360153221776
30
0
10
-139.55711881130372
20
24.366035160264943
30
0
10
-139.65680922058792
20
24.412115374157104
30
0
10
-139.75700593947565
20
24.457601338543657
30
0
10
-139.85770234537358
20
24.502493596046833
30
0
10
-139.95889225260865
20
24.546792682326583
30
0
10
-140.06056986349091
20
24.590499098753771
30
0
10
-140.16272954955045
20
24.633613271810294
30
0
10
-140.26536566607294
20
24.676135517050358
30
0
10
-140.36847237662113
20
24.718066012047203
30
0
10
-140.47204340380813
20
24.759404753652635
30
0
10
-140.57607203932884
20
24.800151582519419
30
0
10
-140.68055155737093
20
24.84030630712741
30
0
10
-140.78547553584241
20
24.879868812211665
30
0
10
-140.89083819794243
20
24.91883916889212
30
0
10
-140.99663477529214
20
24.957217769972427
30
0
10
-141.10286175912702
20
24.995005393935653
30
0
10
-141.2095166920983
20
25.032202976385634
30
0
10
-141.29518176217832
20
25.061489739366102
30
0
10
-141.3596220870154
20
25.083190016490011
30
0
10
-141.40266739638767
20
25.097539220333253
30
0
10
-141.42421132427319
20
25.104684410358459
30
0
0
ARC
5
168
100
AcDbEntity
8
0
100
AcDbCircle
10
-124.99999686341366
20
1.3430652391207743e-14
30
0
40
30.000000000000039
210
0
220
0
230
1
100
AcDbArc
50
123.19387816929557
51
128.80612188535011
0
SPLINE
5
169
100
AcDbEntity
8
0
100
AcDbSpline
70
4
71
5
72
81
73
75
74
0
42
0.000000001
43
0.0000000001
44
0.0000000001
40
-1
40
-1
40
-1
40
-1
40
-1
40
-1
40
-0.9857142857142841
40
-0.97142857142856986
40
-0.95714285714285563
40
-0.94285714285714139
40
-0.92857142857142716
40
-0.91428571428571292
40
-0.89999999999999869
40
-0.88571428571428445
40
-0.87142857142857022
40
-0.85714285714285599
40
-0.84285714285714175
40
-0.82857142857142752
40
-0.81428571428571328
40
-0.79999999999999905
40
-0.78571428571428481
40
-0.77142857142857058
40
-0.75714285714285634
40
-0.74285714285714211
40
-0.72857142857142787
40
-0.71428571428571364
40
-0.6999999999999994
40
-0.68571428571428517
40
-0.67142857142857093
40
-0.6571428571428567
40
-0.64285714285714246
40
-0.62857142857142823
40
-0.61428571428571399
40
-0.59999999999999976
40
-0.58571428571428552
40
-0.57142857142857129
40
-0.55714285714285705
40
-0.54285714285714282
40
-0.52857142857142858
40
-0.51428571428571435
40
-0.50000000000000011
40
-0.48571428571428582
40
-0.47142857142857153
40
-0.45714285714285724
40
-0.44285714285714295
40
-0.42857142857142866
40
-0.41428571428571437
40
-0.40000000000000008
40
-0.38571428571428579
40
-0.3714285714285715
40
-0.35714285714285721
40
-0.34285714285714292
40
-0.32857142857142863
40
-0.31428571428571433
40
-0.30000000000000004
40
-0.28571428571428575
40
-0.27142857142857146
40
-0.25714285714285717
40
-0.24285714285714291
40
-0.22857142857142862
40
-0.21428571428571433
40
-0.20000000000000004
40
-0.18571428571428575
40
-0.17142857142857146
40
-0.15714285714285717
40
-0.14285714285714288
40
-0.12857142857142859
40
-0.1142857142857143
40
-0.10000000000000001
40
-0.085714285714285715
40
-0.071428571428571425
40
-0.057142857142857141
40
-0.042857142857142858
40
-0.028571428571428571
40
-0.014285714285714285
40
0
40
0
40
0
40
0
40
0
40
0
41
1
41
1
41
1
41
1
41
1
41
1
41
1
41
1
41
1
41
1
41
1
41
1
41
1
41
1
41
1
41
1
41
1
41
1
41
1
41
1
41
1
41
1
41
1
41
1
41
1
41
1
41
1
41
1
41
1
41
1
41
1
41
1
41
1
41
1
41
1
41
1
41
1
41
1
41
1
41
1
41
1
41
1
41
1
41
1
41
1
41
1
41
1
41
1
41
1
41
1
41
1
41
1
41
1
41
1
41
1
41
1
41
1
41
1
41
1
41
1
41
1
41
1
41
1
41
1
41
1
41
1
41
1
41
1
41
1
41
1
41
1
41
1
41
1
41
1
41
1
10
-143.80060919605089
20
23.378130291319074
30
0
10
-143.80047115633778
20
23.355432813171287
30
0
10
-143.80012598459993
20
23.310060143353866
30
0
10
-143.7994009500687
20
23.242067998092129
30
0
10
-143.79801954568762
20
23.151545567503788
30
0
10
-143.79560072922249
20
23.038616013382004
30
0
10
-143.79248850637563
20
22.92591113022074
30
0
10
-143.7886812279724
20
22.813432965980045
30
0
10
-143.78417706936352
20
22.701184617128831
30
0
10
-143.77897418346049
20
22.589170497281774
30
0
10
-143.77307071749453
20
22.477396078525786
30
0
10
-143.76646479655358
20
22.365867504252122
30
0
10
-143.75915452439381
20
22.254591230271345
30
0
10
-143.75113797958318
20
22.143573685801815
30
0
10
-143.74241322529659
20
22.032820841966032
30
0
10
-143.73297828909352
20
21.92233819467253
30
0
10
-143.72283112655151
20
21.812131014852099
30
0
10
-143.71196959276924
20
21.702204523707501
30
0
10
-143.70039141933003
20
21.592564080237477
30
0
10
-143.68809418531285
20
21.483215401838667
30
0
10
-143.67507532815944
20
21.37416461929211
30
0
10
-143.66133220011091
20
21.265418122288246
30
0
10
-143.64686212220633
20
21.156982451419726
30
0
10
-143.63166243450627
20
21.048864181935567
30
0
10
-143.61573057727782
20
20.941069778586826
30
0
10
-143.59906408513422
20
20.833605560743955
30
0
10
-143.58166040109509
20
20.726477901810028
30
0
10
-143.56351672563997
20
20.619693384073035
30
0
10
-143.54462987255741
20
20.513258954322374
30
0
10
-143.52499608973361
20
20.407182112230949
30
0
10
-143.50461101531434
20
20.301470973350394
30
0
10
-143.48347005308443
20
20.196133934824726
30
0
10
-143.46156869571047
20
20.091179394293768
30
0
10
-143.43890284259149
20
19.98661547189386
30
0
10
-143.41546919998316
20
19.882449665143639
30
0
10
-143.39126542999037
20
19.778688717785371
30
0
10
-143.36628920225576
20
19.675339421655732
30
0
10
-143.34053737442156
20
19.572409310240943
30
0
10
-143.31400519250332
20
19.469907337330906
30
0
10
-143.28668533335141
20
19.367844689471674
30
0
10
-143.25856747308418
20
19.266235157594501
30
0
10
-143.22964040359795
20
19.165093367205813
30
0
10
-143.1998939026019
20
19.064433217435958
30
0
10
-143.16932053386006
20
18.964266379101907
30
0
10
-143.13791788980564
20
18.864600424082628
30
0
10
-143.10568944874771
20
18.765438114778036
30
0
10
-143.07263939421722
20
18.666781746282261
30
0
10
-143.03876803723657
20
18.568636985027045
30
0
10
-143.00406751367527
20
18.471016478788645
30
0
10
-142.96851616538035
20
18.373944567925541
30
0
10
-142.93207715581465
20
18.277458457972809
30
0
10
-142.89471058076475
20
18.181598113200021
30
0
10
-142.85638410290437
20
18.086397384265961
30
0
10
-142.81708257833805
20
17.991875981346489
30
0
10
-142.77682194569104
20
17.898027880662852
30
0
10
-142.73564891178668
20
17.804821618800993
30
0
10
-142.69361133723419
20
17.712225110904448
30
0
10
-142.65073243252138
20
17.620227278149674
30
0
10
-142.60698815706112
20
17.528857001723367
30
0
10
-142.56227176273282
20
17.438212821617729
30
0
10
-142.51640528940766
20
17.348453398551126
30
0
10
-142.4692080652988
20
17.259740376376868
30
0
10
-142.42055666680673
20
17.172188320670163
30
0
10
-142.3704357955464
20
17.085822388152579
30
0
10
-142.31902438195462
20
17.000506217765299
30
0
10
-142.26662734013661
20
16.916000194862157
30
0
10
-142.21350684808638
20
16.832104493166426
30
0
10
-142.15973470611883
20
16.74878446972787
30
0
10
-142.10505534354763
20
16.666286729701348
30
0
10
-142.04869347466342
20
16.585302808468267
30
0
10
-141.98954631057524
20
16.506802546700751
30
0
10
-141.93909449646199
20
16.446781818241217
30
0
10
-141.8990876558909
20
16.403683088224192
30
0
10
-141.87140087774523
20
16.37584779371295
30
0
10
-141.85730359508611
20
16.362154449490824
30
0
0
LINE
5
170
100
AcDbEntity
8
0
100
AcDbLine
10
-141.85730359508611
20
16.362154449490824
30
0
11
-139.69265223528001
21
14.259528226592549
31
0
0
ARC
5
171
100
AcDbEntity
8
0
100
AcDbCircle
10
-140.79875134441414
20
13.120800422956975
30
0
40
1.5874999999999992
210
-0
220
0
230
1
100
AcDbArc
50
-39.70949155824345
51
45.832738968780532
0
ARC
5
172
100
AcDbEntity
8
0
100
AcDbCircle
10
-124.99999686341366
20
1.3430652391207743e-14
30
0
40
18.949200000000019
210
0
220
0
230
1
100
AcDbArc
50
140.29050844175651
51
147.7094916128892
0
ARC
5
173
100
AcDbEntity
8
0
100
AcDbCircle
10
-142.3607032397251
20
10.970958071449344
30
0
40
1.5875000000000021
210
0
220
0
230
1
100
AcDbArc
50
242.16726108586496
51
327.70949161288939
0
LINE
5
174
100
AcDbEntity
8
0
100
AcDbLine
10
-143.10189431413482
20
9.56710906204151
30
0
11
-145.770524743176
21
10.976067605053089
31
0
0
SPLINE
5
175
100
AcDbEntity
8
0
100
AcDbSpline
70
4
71
5
72
81
73
75
74
0
42
0.000000001
43
0.0000000001
44
0.0000000001
40
0
40
0
40
0
40
0
40
0
40
0
40
0.014285714285714285
40
0.028571428571428571
40
0.042857142857142858
40
0.057142857142857141
40
0.071428571428571425
40
0.085714285714285715
40
0.10000000000000001
40
0.1142857142857143
40
0.12857142857142859
40
0.14285714285714288
40
0.15714285714285717
40
0.17142857142857146
40
0.18571428571428575
40
0.20000000000000004
40
0.21428571428571433
40
0.22857142857142862
40
0.24285714285714291
40
0.25714285714285717
40
0.27142857142857146
40
0.28571428571428575
40
0.30000000000000004
40
0.31428571428571433
40
0.32857142857142863
40
0.34285714285714292
40
0.35714285714285721
40
0.3714285714285715
40
0.38571428571428579
40
0.40000000000000008
40
0.41428571428571437
40
0.42857142857142866
40
0.44285714285714295
40
0.45714285714285724
40
0.47142857142857153
40
0.48571428571428582
40
0.50000000000000011
40
0.51428571428571435
40
0.52857142857142858
40
0.54285714285714282
40
0.55714285714285705
40
0.57142857142857129
40
0.58571428571428552
40
0.59999999999999976
40
0.61428571428571399
40
0.62857142857142823
40
0.64285714285714246
40
0.6571428571428567
40
0.67142857142857093
40
0.68571428571428517
40
0.6999999999999994
40
0.71428571428571364
40
0.72857142857142787
40
0.74285714285714211
40
0.75714285714285634
40
0.77142857142857058
40
0.78571428571428481
40
0.79999999999999905
40
0.81428571428571328
40
0.82857142857142752
40
0.84285714285714175
40
0.85714285714285599
40
0.87142857142857022
40
0.88571428571428445
40
0.89999999999999869
40
0.91428571428571292
40
0.92857142857142716
40
0.94285714285714139
40
0.95714285714285563
40
0.97142857142856986
40
0.9857142857142841
40
1
40
1
40
1
40
1
40
1
40
1
41
1
41
1
41
1
41
1
41
1
41
1
41
1
41
1
41
1
41
1
41
1
41
1
41
1
41
1
41
1
41
1
41
1
41
1
41
1
41
1
41
1
41
1
41
1
41
1
41
1
41
1
41
1
41
1
41
1
41
1
41
1
41
1
41
1
41
1
41
1
41
1
41
1
41
1
41
1
41
1
41
1
41
1
41
1
41
1
41
1
41
1
41
1
41
1
41
1
41
1
41
1
41
1
41
1
41
1
41
1
41
1
41
1
41
1
41
1
41
1
41
1
41
1
41
1
41
1
41
1
41
1
41
1
41
1
41
1
41
1
41
1
41
1
41
1
41
1
41
1
10
-145.77052474317603
20
10.976067605053091
30
0
10
-145.78790418735326
20
10.985243441497074
30
0
10
-145.82293281056457
20
11.002973553186905
30
0
10
-145.87628493224261
20
11.027704079546295
30
0
10
-145.94895850514297
20
11.057139180939554
30
0
10
-146.04189416953068
20
11.089133561728314
30
0
10
-146.13633123088175
20
11.117711476379009
30
0
10
-146.23168809641496
20
11.144221436702528
30
0
10
-146.3275466533602
20
11.169614479410255
30
0
10
-146.42375134196362
20
11.194209871852705
30
0
10
-146.5203129221112
20
11.217928622612094
30
0
10
-146.61734042242958
20
11.240459635883322
30
0
10
-146.71496750634867
20
11.261438876121751
30
0
10
-146.81326856839601
20
11.280654032484897
30
0
10
-146.91222441056874
20
11.298127428456116
30
0
10
-147.01176421451979
20
11.314011849563684
30
0
10
-147.11179007846195
20
11.3285290755856
30
0
10
-147.21220609978946
20
11.341897385520447
30
0
10
-147.31295154838415
20
11.354248753396217
30
0
10
-147.41400638555518
20
11.365614967947392
30
0
10
-147.51537397545474
20
11.375970531143611
30
0
10
-147.6170700428529
20
11.385260010074681
30
0
10
-147.71911007803243
20
11.39342926118222
30
0
10
-147.82149488464131
20
11.400461264482818
30
0
10
-147.92421039690944
20
11.406376513456252
30
0
10
-148.02723441373055
20
11.411216223156277
30
0
10
-148.13054125790583
20
11.415030694383557
30
0
10
-148.23410692798475
20
11.417866457909442
30
0
10
-148.33791496764812
20
11.419751633445912
30
0
10
-148.44195577829589
20
11.420697608603341
30
0
10
-148.54622387472003
20
11.420705838605471
30
0
10
-148.65071578137412
20
11.419773053901077
30
0
10
-148.75542779620315
20
11.417896800050222
30
0
10
-148.8603534619013
20
11.415081706624212
30
0
10
-148.96548397678535
20
11.411338452384534
30
0
10
-149.07080928085841
20
11.406681054374985
30
0
10
-149.17631892793185
20
11.401124691665609
30
0
10
-149.28200299230548
20
11.394683444483512
30
0
10
-149.38785309791953
20
11.387367734390741
30
0
10
-149.49386219827571
20
11.379184849568349
30
0
10
-149.60002409964483
20
11.370140106551505
30
0
10
-149.70633306272643
20
11.360237820434715
30
0
10
-149.81278339628975
20
11.349482298619279
30
0
10
-149.91936898759383
20
11.337878990502979
30
0
10
-150.02608338108553
20
11.325434305249138
30
0
10
-150.13291998297734
20
11.312155124600025
30
0
10
-150.23987222741937
20
11.298048414676224
30
0
10
-150.34693374395044
20
11.283120831691054
30
0
10
-150.45409855942466
20
11.267378261643106
30
0
10
-150.56136105164629
20
11.250825881475601
30
0
10
-150.66871582558673
20
11.233468387729484
30
0
10
-150.77615760992995
20
11.215310181727563
30
0
10
-150.88368115644383
20
11.196355560984765
30
0
10
-150.99128110778577
20
11.17660895766978
30
0
10
-151.09895203248885
20
11.156074933398973
30
0
10
-151.20668853792426
20
11.134758057169913
30
0
10
-151.31448536533776
20
11.112662821673879
30
0
10
-151.42233747588415
20
11.089793558564134
30
0
10
-151.5302401801018
20
11.066154337046113
30
0
10
-151.63818908225946
20
11.041748970534009
30
0
10
-151.74617987950904
20
11.016581112390524
30
0
10
-151.85420819065885
20
10.990654335784228
30
0
10
-151.96226939830689
20
10.963972214946626
30
0
10
-152.07035842209007
20
10.936538437086176
30
0
10
-152.17846974121352
20
10.908356816331128
30
0
10
-152.28659780180811
20
10.879431151071664
30
0
10
-152.39473734054127
20
10.849765122867476
30
0
10
-152.50288372568608
20
10.819362184774167
30
0
10
-152.61103333042735
20
10.788225457359292
30
0
10
-152.7191837736957
20
10.756357632828934
30
0
10
-152.82733361738846
20
10.723760912495861
30
0
10
-152.91385244227479
20
10.697101736627669
30
0
10
-152.97874086305512
20
10.676780557011378
30
0
10
-153.02199950026665
20
10.663087908746922
30
0
10
-153.0436287413732
20
10.656205285817801
30
0
0
ARC
5
176
100
AcDbEntity
8
0
100
AcDbCircle
10
-124.99999686341366
20
1.3430652391207743e-14
30
0
40
30.000000000000021
210
0
220
0
230
1
100
AcDbArc
50
159.19387816929554
51
164.80612188535008
0
SPLINE
5
177
100
AcDbEntity
8
0
100
AcDbSpline
70
4
71
5
72
81
73
75
74
0
42
0.000000001
43
0.0000000001
44
0.0000000001
40
-1
40
-1
40
-1
40
-1
40
-1
40
-1
40
-0.9857142857142841
40
-0.97142857142856986
40
-0.95714285714285563
40
-0.94285714285714139
40
-0.92857142857142716
40
-0.91428571428571292
40
-0.89999999999999869
40
-0.88571428571428445
40
-0.87142857142857022
40
-0.85714285714285599
40
-0.84285714285714175
40
-0.82857142857142752
40
-0.81428571428571328
40
-0.79999999999999905
40
-0.78571428571428481
40
-0.77142857142857058
40
-0.75714285714285634
40
-0.74285714285714211
40
-0.72857142857142787
40
-0.71428571428571364
40
-0.6999999999999994
40
-0.68571428571428517
40
-0.67142857142857093
40
-0.6571428571428567
40
-0.64285714285714246
40
-0.62857142857142823
40
-0.61428571428571399
40
-0.59999999999999976
40
-0.58571428571428552
40
-0.57142857142857129
40
-0.55714285714285705
40
-0.54285714285714282
40
-0.52857142857142858
40
-0.51428571428571435
40
-0.50000000000000011
40
-0.48571428571428582
40
-0.47142857142857153
40
-0.45714285714285724
40
-0.44285714285714295
40
-0.42857142857142866
40
-0.41428571428571437
40
-0.40000000000000008
40
-0.38571428571428579
40
-0.3714285714285715
40
-0.35714285714285721
40
-0.34285714285714292
40
-0.32857142857142863
40
-0.31428571428571433
40
-0.30000000000000004
40
-0.28571428571428575
40
-0.27142857142857146
40
-0.25714285714285717
40
-0.24285714285714291
40
-0.22857142857142862
40
-0.21428571428571433
40
-0.20000000000000004
40
-0.18571428571428575
40
-0.17142857142857146
40
-0.15714285714285717
40
-0.14285714285714288
40
-0.12857142857142859
40
-0.1142857142857143
40
-0.10000000000000001
40
-0.085714285714285715
40
-0.071428571428571425
40
-0.057142857142857141
40
-0.042857142857142858
40
-0.028571428571428571
40
-0.014285714285714285
40
0
40
0
40
0
40
0
40
0
40
0
41
1
41
1
41
1
41
1
41
1
41
1
41
1
41
1
41
1
41
1
41
1
41
1
41
1
41
1
41
1
41
1
41
1
41
1
41
1
41
1
41
1
41
1
41
1
41
1
41
1
41
1
41
1
41
1
41
1
41
1
41
1
41
1
41
1
41
1
41
1
41
1
41
1
41
1
41
1
41
1
41
1
41
1
41
1
41
1
41
1
41
1
41
1
41
1
41
1
41
1
41
1
41
1
41
1
41
1
41
1
41
1
41
1
41
1
41
1
41
1
41
1
41
1
41
1
41
1
41
1
41
1
41
1
41
1
41
1
41
1
41
1
41
1
41
1
41
1
41
1
10
-153.95133195658167
20
7.8625820391967158
30
0
10
-153.9378790371884
20
7.8443005313532774
30
0
10
-153.91093040121066
20
7.8077961572478474
30
0
10
-153.87037905569682
20
7.7532155208519651
30
0
10
-153.81605372637492
20
7.6807933052565183
30
0
10
-153.74771853628761
20
7.5908531214510164
30
0
10
-153.67895442693066
20
7.5015022743157447
30
0
10
-153.60976126785454
20
7.4127433900457067
30
0
10
-153.54013940294567
20
7.3245800462388306
30
0
10
-153.47008993213569
20
7.2370168992757868
30
0
10
-153.3996145729152
20
7.1500594651980052
30
0
10
-153.3287154194432
20
7.06371381615911
30
0
10
-153.25739473225647
20
6.9779862896036864
30
0
10
-153.18565473588362
20
6.8928832162680864
30
0
10
-153.11349737313788
20
6.808410565329126
30
0
10
-153.0409242786954
20
6.7245739424416264
30
0
10
-152.96793689675903
20
6.6413788135595784
30
0
10
-152.89453656101315
20
6.5588306634660798
30
0
10
-152.8207245862105
20
6.4769351610240813
30
0
10
-152.74650237438632
20
6.3956983546862922
30
0
10
-152.67187145597003
20
6.3151267105927156
30
0
10
-152.5968334446456
20
6.2352269544251415
30
0
10
-152.52139001755188
20
6.1560059522878943
30
0
10
-152.44554288758718
20
6.0774705871423294
30
0
10
-152.36929378376936
20
5.9996275936552141
30
0
10
-152.2926444259914
20
5.9224835334225592
30
0
10
-152.215596491805
20
5.8460450655911869
30
0
10
-152.13815158532245
20
5.7703191608607218
30
0
10
-152.06031121206476
20
5.6953133121099855
30
0
10
-151.98207674470535
20
5.621035792138926
30
0
10
-151.90344942463153
20
5.5474957304003549
30
0
10
-151.82443046914454
20
5.4747026219139707
30
0
10
-151.74502116774391
20
5.4026659098572329
30
0
10
-151.66522297587014
20
5.3313945738311457
30
0
10
-151.58503763575897
20
5.2608966154701129
30
0
10
-151.50446721988575
20
5.1911788647564734
30
0
10
-151.42351383509327
20
5.1222481861512046
30
0
10
-151.34217936723272
20
5.0541125214042681
30
0
10
-151.26046523315563
20
4.9867819086057681
30
0
10
-151.17837208359626
20
4.920269702300927
30
0
10
-151.09589967246484
20
4.8545931278129144
30
0
10
-151.01304752887211
20
4.7897706053830058
30
0
10
-150.92981555251481
20
4.725819388155645
30
0
10
-150.84620458728583
20
4.6627532889299541
30
0
10
-150.76221713606157
20
4.6005798486169152
30
0
10
-150.67785763655098
20
4.5392992575462543
30
0
10
-150.59313082232424
20
4.4789109134703589
30
0
10
-150.50804027564877
20
4.4194192178143803
30
0
10
-150.42258706848568
20
4.3608390252641813
30
0
10
-150.33676798592501
20
4.3032027579263401
30
0
10
-150.25057509544686
20
4.2465621676843242
30
0
10
-150.16399960427282
20
4.1909730414195012
30
0
10
-150.07703524787428
20
4.1364817722936085
30
0
10
-149.98968135993323
20
4.0831132075322918
30
0
10
-149.90194729437999
20
4.0308531053073002
30
0
10
-149.81385234409768
20
3.9796485576000045
30
0
10
-149.72541637012708
20
3.9294454754560144
30
0
10
-149.63665163817808
20
3.8802212531363938
30
0
10
-149.54755567494286
20
3.8320133867145367
30
0
10
-149.45810003973185
20
3.7849643416897534
30
0
10
-149.36823401820692
20
3.7393070796187775
30
0
10
-149.27790645569519
20
3.6952785693377903
30
0
10
-149.1870848403627
20
3.6530440429156332
30
0
10
-149.0957715823059
20
3.612632844732734
30
0
10
-149.00403128826957
20
3.5738294837031992
30
0
10
-148.91196979699149
20
3.5362608834918974
30
0
10
-148.8196817599858
20
3.4996112768866934
30
0
10
-148.72720490231228
20
3.4638104339858811
30
0
10
-148.63447741381555
20
3.4292080832309897
30
0
10
-148.54127854947987
20
3.3968193900040911
30
0
10
-148.44728619239538
20
3.3680771749372447
30
0
10
-148.37119051836035
20
3.3491742178858974
30
0
10
-148.31349150655055
20
3.3378220437446515
30
0
10
-148.27473125690429
20
3.3315766973191288
30
0
10
-148.25527756987023
20
3.3287847239780466
30
0
0
LINE
5
178
100
AcDbEntity
8
0
100
AcDbLine
10
-148.25527756987023
20
3.3287847239780466
30
0
11
-145.26814514798724
21
2.9000745224838047
31
0
0
ARC
5
179
100
AcDbEntity
8
0
100
AcDbCircle
10
-145.49367071538734
20
1.3286756334524872
30
0
40
1.5874999999999946
210
-0
220
0
230
1
100
AcDbArc
50
-3.7094915582433963
51
81.832738968781143
0
LWPOLYLINE
5
180
100
AcDbEntity
8
0
100
AcDbPolyline
90
4
70
1
43
0.0
10
-119.89999686341365
20
5.1000000000000147
10
-130.09999686341365
20
5.1000000000000147
10
-130.09999686341365
20
-5.0999999999999881
10
-119.89999686341365
20
-5.0999999999999881
0
ENDSEC
0
SECTION
2
OBJECTS
0
DICTIONARY
5
C
100
AcDbDictionary
3
ACAD_GROUP
350
D
3
ACAD_MLINESTYLE
350
17
0
DICTIONARY
5
D
100
AcDbDictionary
0
DICTIONARY
5
1A
330
C
100
AcDbDictionary
0
DICTIONARY
5
17
100
AcDbDictionary
0
ENDSEC
0
EOF
