0
SECTION
2
HEADER
9
$INSUNITS
70
4
9
$ACADVER
1
AC1014
9
$HANDSEED
5
FFFF
0
ENDSEC
0
SECTION
2
TABLES
0
TABLE
2
VPORT
5
8
100
AcDbSymbolTable
0
ENDTAB
0
TABLE
2
LTYPE
5
5
100
AcDbSymbolTable
0
LTYPE
5
14
100
AcDbSymbolTableRecord
100
AcDbLinetypeTableRecord
2
BYBLOCK
70
0
0
LTYPE
5
15
100
AcDbSymbolTableRecord
100
AcDbLinetypeTableRecord
2
BYLAYER
70
0
0
ENDTAB
0
TABLE
2
LAYER
5
2
100
AcDbSymbolTable
70
2
0
LAYER
5
50
100
AcDbSymbolTableRecord
100
AcDbLayerTableRecord
2
0
70
0
6
CONTINUOUS
0
ENDTAB
0
TABLE
2
STYLE
5
3
100
AcDbSymbolTable
70
1
0
STYLE
5
11
100
AcDbSymbolTableRecord
100
AcDbTextStyleTableRecord
2
STANDARD
70
0
0
ENDTAB
0
TABLE
2
VIEW
5
6
100
AcDbSymbolTable
70
0
0
ENDTAB
0
TABLE
2
UCS
5
7
100
AcDbSymbolTable
70
0
0
ENDTAB
0
TABLE
2
APPID
5
9
100
AcDbSymbolTable
70
2
0
APPID
5
12
100
AcDbSymbolTableRecord
100
AcDbRegAppTableRecord
2
ACAD
70
0
0
ENDTAB
0
TABLE
2
DIMSTYLE
5
A
100
AcDbSymbolTable
70
1
0
ENDTAB
0
TABLE
2
BLOCK_RECORD
5
1
100
AcDbSymbolTable
70
1
0
BLOCK_RECORD
5
1F
100
AcDbSymbolTableRecord
100
AcDbBlockTableRecord
2
*MODEL_SPACE
0
BLOCK_RECORD
5
1B
100
AcDbSymbolTableRecord
100
AcDbBlockTableRecord
2
*PAPER_SPACE
0
ENDTAB
0
ENDSEC
0
SECTION
2
BLOCKS
0
BLOCK
5
20
100
AcDbEntity
100
AcDbBlockBegin
2
*MODEL_SPACE
0
ENDBLK
5
21
100
AcDbEntity
100
AcDbBlockEnd
0
BLOCK
5
1C
100
AcDbEntity
100
AcDbBlockBegin
2
*PAPER_SPACE
0
ENDBLK
5
1D
100
AcDbEntity
100
AcDbBlockEnd
0
ENDSEC
0
SECTION
2
ENTITIES
0
ARC
5
100
100
AcDbEntity
8
0
100
AcDbCircle
10
-5.5256453821491185
20
-37.831247810560427
30
0
40
78.212497405591861
210
0
220
0
230
1
100
AcDbArc
50
-10.966372450711146
51
23.634282453762633
0
SPLINE
5
101
100
AcDbEntity
8
0
100
AcDbSpline
70
0
71
3
72
11
73
7
74
0
42
0.000000001
43
0.0000000001
44
0.0000000001
40
-1
40
-1
40
-1
40
-1
40
-0.75
40
-0.5
40
-0.25
40
0
40
0
40
0
40
0
10
-24.630350351536006
20
-92.027255446394093
30
0
10
-24.554541181297679
20
-91.859514122506525
30
0
10
-24.344002536617118
20
-91.55071761908556
30
0
10
-23.889188797502293
20
-91.222888417715893
30
0
10
-23.349860136080494
20
-91.069747575589332
30
0
10
-22.977066062775901
20
-91.096325392240033
30
0
10
-22.798491670012801
20
-91.140994937582121
30
0
0
ARC
5
102
100
AcDbEntity
8
0
100
AcDbCircle
10
-5.5256453821491185
20
-37.831247810560427
30
0
40
78.212497405591861
210
0
220
0
230
1
100
AcDbArc
50
-10.966372450711146
51
23.634282453762633
0
SPLINE
5
103
100
AcDbEntity
8
0
100
AcDbSpline
70
0
71
3
72
14
73
10
74
0
42
0.000000001
43
0.0000000001
44
0.0000000001
40
0
40
0
40
0
40
0
40
0.062014810150175355
40
0.062014810150175355
40
0.12402962030035025
40
0.12402962030035025
40
0.1727502458343079
40
0.1727502458343079
40
0.22147087136826685
40
0.22147087136826685
40
0.22147087136826685
40
0.22147087136826685
10
-19.833696833503595
20
-93.178830070740958
30
0
10
-19.824031822697261
20
-92.972340104374211
30
0
10
-19.854791296747585
20
-92.765936503103305
30
0
10
-19.993696497441974
20
-92.376537710352039
30
0
10
-20.100514214658212
20
-92.197265383569103
30
0
10
-20.347235243938961
20
-91.922716809641472
30
0
10
-20.473681867939383
20
-91.81929211135315
30
0
10
-20.753525767552901
20
-91.654412940911413
30
0
10
-20.905273230361011
20
-91.593930509838955
30
0
10
-21.063541018836894
20
-91.557519736981646
30
0
0
ARC
5
104
100
AcDbEntity
8
0
100
AcDbCircle
10
-5.5256453821491185
20
-37.831247810560427
30
0
40
73.112497405591853
210
0
220
0
230
1
100
AcDbArc
50
-10.966372450711146
51
23.634282453762633
0
ARC
5
105
100
AcDbEntity
8
0
100
AcDbCircle
10
0
20
0
30
0
40
99.99999998867284
210
0
220
0
230
1
100
AcDbArc
50
-96.750003000372374
51
186.75000300036672
0
CIRCLE
5
106
100
AcDbEntity
8
0
100
AcDbCircle
10
-5.1407574918084352e-11
20
-2.6193467717555445e-11
30
0
40
55
210
0
220
0
230
1
0
CIRCLE
5
107
100
AcDbEntity
8
0
100
AcDbCircle
10
-7.4983600001210418
20
-63.790510243581373
30
0
40
2.5500000000000349
210
0
220
0
230
1
0
SPLINE
5
108
100
AcDbEntity
8
0
100
AcDbSpline
70
0
71
3
72
11
73
7
74
0
42
0.000000001
43
0.0000000001
44
0.0000000001
40
-1
40
-1
40
-1
40
-1
40
-0.75
40
-0.5
40
-0.25
40
0
40
0
40
0
40
0
10
-38.723344341862884
20
-87.041211540377944
30
0
10
-38.622227984040833
20
-86.88739455752949
30
0
10
-38.365975003626204
20
-86.615335351734757
30
0
10
-37.865476990619101
20
-86.362690815806516
30
0
10
-37.308831854269968
20
-86.295804982199456
30
0
10
-36.944785181153627
20
-86.380373423251427
30
0
10
-36.775397191921783
20
-86.452428201967294
30
0
0
LINE
5
109
100
AcDbEntity
8
0
100
AcDbLine
10
-22.798491670012801
20
-91.14099493758215
30
0
11
-21.063541018836894
21
-91.557519736981646
31
0
0
ARC
5
110
100
AcDbEntity
8
0
100
AcDbCircle
10
-5.5256453821491185
20
-37.831247810560427
30
0
40
73.112497405591853
210
0
220
0
230
1
100
AcDbArc
50
-10.966372450711146
51
23.634282453762633
0
SPLINE
5
111
100
AcDbEntity
8
0
100
AcDbSpline
70
0
71
3
72
14
73
10
74
0
42
0.000000001
43
0.0000000001
44
0.0000000001
40
0
40
0
40
0
40
0
40
0.062014810150174925
40
0.062014810150174925
40
0.12402962030034999
40
0.12402962030034999
40
0.1727502458342996
40
0.1727502458342996
40
0.2214708713682505
40
0.2214708713682505
40
0.2214708713682505
40
0.2214708713682505
10
-34.165891548541104
20
-88.928970297247076
30
0
10
-34.124043382631228
20
-88.726534505811856
30
0
10
-34.122135519566399
20
-88.517860233511755
30
0
10
-34.198415174908952
20
-88.111526025307555
30
0
10
-34.275873418235633
20
-87.917750865903173
30
0
10
-34.476608042945941
20
-87.607986768278153
30
0
10
-34.585318711830091
20
-87.486054789667591
30
0
10
-34.835924483840678
20
-87.279428324684545
30
0
10
-34.976342146821963
20
-87.19595199953784
30
0
10
-35.126965496417711
20
-87.135230966891285
30
0
0
SPLINE
5
112
100
AcDbEntity
8
0
100
AcDbSpline
70
4
71
5
72
73
73
67
74
0
42
0.000000001
43
0.0000000001
44
0.0000000001
40
-1
40
-1
40
-1
40
-1
40
-1
40
-1
40
-0.9857142857142841
40
-0.97142857142856986
40
-0.95714285714285563
40
-0.94285714285714139
40
-0.92857142857142716
40
-0.91428571428571292
40
-0.89999999999999869
40
-0.88571428571428445
40
-0.87142857142857022
40
-0.85714285714285599
40
-0.84285714285714175
40
-0.82857142857142752
40
-0.81428571428571328
40
-0.79999999999999905
40
-0.78571428571428481
40
-0.77142857142857058
40
-0.75714285714285634
40
-0.74285714285714211
40
-0.72857142857142787
40
-0.71428571428571364
40
-0.6999999999999994
40
-0.68571428571428517
40
-0.67142857142857093
40
-0.6571428571428567
40
-0.64285714285714246
40
-0.62857142857142823
40
-0.61428571428571399
40
-0.59999999999999976
40
-0.58571428571428552
40
-0.57142857142857129
40
-0.55714285714285705
40
-0.54285714285714282
40
-0.52857142857142858
40
-0.51428571428571435
40
-0.50000000000000011
40
-0.48571428571428582
40
-0.47142857142857153
40
-0.45714285714285724
40
-0.44285714285714295
40
-0.42857142857142866
40
-0.41428571428571437
40
-0.40000000000000008
40
-0.38571428571428579
40
-0.3714285714285715
40
-0.35714285714285721
40
-0.34285714285714292
40
-0.32857142857142863
40
-0.31428571428571433
40
-0.30000000000000004
40
-0.28571428571428575
40
-0.27142857142857146
40
-0.25714285714285717
40
-0.24285714285714291
40
-0.22857142857142862
40
-0.21428571428571433
40
-0.20000000000000004
40
-0.18571428571428575
40
-0.17142857142857146
40
-0.15714285714285717
40
-0.14285714285714288
40
-0.12857142857142859
40
-0.11514249594618629
40
-0.11514249594618629
40
-0.11514249594618629
40
-0.11514249594618629
40
-0.11514249594618629
40
-0.11514249594618629
41
1
41
1
41
1
41
1
41
1
41
1
41
1
41
1
41
1
41
1
41
1
41
1
41
1
41
1
41
1
41
1
41
1
41
1
41
1
41
1
41
1
41
1
41
1
41
1
41
1
41
1
41
1
41
1
41
1
41
1
41
1
41
1
41
1
41
1
41
1
41
1
41
1
41
1
41
1
41
1
41
1
41
1
41
1
41
1
41
1
41
1
41
1
41
1
41
1
41
1
41
1
41
1
41
1
41
1
41
1
41
1
41
1
41
1
41
1
41
1
41
1
41
1
41
1
41
1
41
1
41
1
41
1
10
-30.632974703791092
20
-100.432170447506
30
0
10
-30.609296918950484
20
-100.40718782939976
30
0
10
-30.561998328994278
20
-100.35718971036381
30
0
10
-30.491221383241989
20
-100.28209388334503
30
0
10
-30.3971941141264
20
-100.18176875145653
30
0
10
-30.28023093484089
20
-100.05603299349688
30
0
10
-30.163840284761836
20
-99.929967332152302
30
0
10
-30.048024554080285
20
-99.803571142819422
30
0
10
-29.932786955921497
20
-99.676843824101567
30
0
10
-29.818131603767934
20
-99.549784898846667
30
0
10
-29.704063304266498
20
-99.422393980465102
30
0
10
-29.590587320135874
20
-99.294670726306265
30
0
10
-29.477709133017342
20
-99.166614797252791
30
0
10
-29.365434218941921
20
-99.038225819030515
30
0
10
-29.253767770988624
20
-98.909503340397649
30
0
10
-29.142714776610511
20
-98.780446832903976
30
0
10
-29.032280173285177
20
-98.651055701741797
30
0
10
-28.922468977602527
20
-98.521329295347698
30
0
10
-28.813286410492253
20
-98.391266917195395
30
0
10
-28.70473804651974
20
-98.260867840925883
30
0
10
-28.596829787474888
20
-98.130131314886
30
0
10
-28.489567772291721
20
-97.99905656303109
30
0
10
-28.382958298019048
20
-97.867642790579183
30
0
10
-28.277007744783347
20
-97.735889187353692
30
0
10
-28.171722461318307
20
-97.603794941647394
30
0
10
-28.067108833674101
20
-97.471359215844871
30
0
10
-27.963173436492276
20
-97.338581106289752
30
0
10
-27.859923162771185
20
-97.205459607608887
30
0
10
-27.757365337942694
20
-97.071993583743421
30
0
10
-27.655507886183386
20
-96.938181723099092
30
0
10
-27.554359233627022
20
-96.804022575329839
30
0
10
-27.4539280678663
20
-96.66951463218318
30
0
10
-27.354223115155033
20
-96.534656404864052
30
0
10
-27.255252953758486
20
-96.399446488239704
30
0
10
-27.157025685549151
20
-96.263883676017315
30
0
10
-27.059549208214598
20
-96.127966864211274
30
0
10
-26.96283185208123
20
-95.991694826596486
30
0
10
-26.866882951341609
20
-95.855066013519519
30
0
10
-26.771713331107023
20
-95.718078381519547
30
0
10
-26.677336091758196
20
-95.580729117008246
30
0
10
-26.583766084586991
20
-95.443014828379447
30
0
10
-26.491018561468774
20
-95.304932033768353
30
0
10
-26.39910794910481
20
-95.166477604934926
30
0
10
-26.308046822642375
20
-95.027649139838374
30
0
10
-26.217844146309382
20
-94.888445598868216
30
0
10
-26.128506699986609
20
-94.748866797710178
30
0
10
-26.040042450705485
20
-94.608912202576761
30
0
10
-25.952463601334955
20
-94.46857984141738
30
0
10
-25.865789185304486
20
-94.327865379237807
30
0
10
-25.780049317641094
20
-94.186760597398944
30
0
10
-25.695281867530973
20
-94.045254601915019
30
0
10
-25.61152499512901
20
-93.903336521639176
30
0
10
-25.528810336149668
20
-93.760997972694824
30
0
10
-25.447157262879969
20
-93.618235137865966
30
0
10
-25.366563248395106
20
-93.475052244068564
30
0
10
-25.287013364108955
20
-93.331458176609573
30
0
10
-25.208498426543827
20
-93.187459992037404
30
0
10
-25.131031703309024
20
-93.043056946332825
30
0
10
-25.054663353110016
20
-92.898235340900811
30
0
10
-24.9795032023119
20
-92.752960366875669
30
0
10
-24.905696656813305
20
-92.607184830358165
30
0
10
-24.833384838852673
20
-92.460863574581097
30
0
10
-24.763515443620019
20
-92.31572900098422
30
0
10
-24.709046636159005
20
-92.199525393913703
30
0
10
-24.669060267382342
20
-92.112583508335248
30
0
10
-24.64294353036205
20
-92.055120102894023
30
0
10
-24.630350351535995
20
-92.027255446394079
30
0
0
CIRCLE
5
113
100
AcDbEntity
8
0
100
AcDbCircle
10
63.790510243581373
20
-7.498360000121048
30
0
40
2.5500000000000349
210
0
220
0
230
1
0
ARC
5
114
100
AcDbEntity
8
0
100
AcDbCircle
10
-9.0256538678565113e-12
20
-5.6985735779111604e-11
30
0
40
104.99999999994232
210
0
220
0
230
1
100
AcDbArc
50
259.96231275199307
51
262.03768724800659
0
SPLINE
5
115
100
AcDbEntity
8
0
100
AcDbSpline
70
0
71
3
72
11
73
7
74
0
42
0.000000001
43
0.0000000001
44
0.0000000001
40
0
40
0
40
0
40
0
40
0.25
40
0.5
40
0.75
40
1
40
1
40
1
40
1
10
-24.630350351536006
20
-92.027255446394093
30
0
10
-24.554541181297679
20
-91.859514122506525
30
0
10
-24.344002536617118
20
-91.55071761908556
30
0
10
-23.889188797502293
20
-91.222888417715893
30
0
10
-23.349860136080494
20
-91.069747575589332
30
0
10
-22.977066062775901
20
-91.096325392240033
30
0
10
-22.798491670012801
20
-91.140994937582121
30
0
0
ARC
5
116
100
AcDbEntity
8
0
100
AcDbCircle
10
-30.657953187745768
20
-22.84351054744624
30
0
40
78.212497405591847
210
0
220
0
230
1
100
AcDbArc
50
304.03362754928884
51
338.63428245376269
0
CIRCLE
5
117
100
AcDbEntity
8
0
100
AcDbCircle
10
68.755179336739715
20
-52.224739142857274
30
0
40
2.5500000000000318
210
0
220
0
230
1
0
ARC
5
118
100
AcDbEntity
8
0
100
AcDbCircle
10
-30.657953187745768
20
-22.84351054744624
30
0
40
78.212497405591847
210
0
220
0
230
1
100
AcDbArc
50
304.03362754928884
51
338.63428245376269
0
ARC
5
119
100
AcDbEntity
8
0
100
AcDbCircle
10
-30.657953187745768
20
-22.84351054744624
30
0
40
73.112497405591853
210
0
220
0
230
1
100
AcDbArc
50
304.03362754928884
51
338.63428245376269
0
ARC
5
120
100
AcDbEntity
8
0
100
AcDbCircle
10
-1.7829066183058542e-11
20
-5.4872223474807298e-11
30
0
40
104.9999999999423
210
0
220
0
230
1
100
AcDbArc
50
250.96231275199304
51
253.03768724800656
0
ARC
5
121
100
AcDbEntity
8
0
100
AcDbCircle
10
-30.657953187745768
20
-22.84351054744624
30
0
40
73.112497405591853
210
0
220
0
230
1
100
AcDbArc
50
304.03362754928884
51
338.63428245376269
0
CIRCLE
5
122
100
AcDbEntity
8
0
100
AcDbCircle
10
39.804561164722763
20
-50.408843572449847
30
0
40
2.5500000000000349
210
0
220
0
230
1
0
CIRCLE
5
123
100
AcDbEntity
8
0
100
AcDbCircle
10
11.688786357092962
20
-85.545720744318729
30
0
40
2.5500000000000318
210
0
220
0
230
1
0
SPLINE
5
124
100
AcDbEntity
8
0
100
AcDbSpline
70
4
71
5
72
73
73
67
74
0
42
0.000000001
43
0.0000000001
44
0.0000000001
40
0.11514249594622121
40
0.11514249594622121
40
0.11514249594622121
40
0.11514249594622121
40
0.11514249594622121
40
0.11514249594622121
40
0.12857142857142859
40
0.14285714285714288
40
0.15714285714285717
40
0.17142857142857146
40
0.18571428571428575
40
0.20000000000000004
40
0.21428571428571433
40
0.22857142857142862
40
0.24285714285714291
40
0.25714285714285717
40
0.27142857142857146
40
0.28571428571428575
40
0.30000000000000004
40
0.31428571428571433
40
0.32857142857142863
40
0.34285714285714292
40
0.35714285714285721
40
0.3714285714285715
40
0.38571428571428579
40
0.40000000000000008
40
0.41428571428571437
40
0.42857142857142866
40
0.44285714285714295
40
0.45714285714285724
40
0.47142857142857153
40
0.48571428571428582
40
0.50000000000000011
40
0.51428571428571435
40
0.52857142857142858
40
0.54285714285714282
40
0.55714285714285705
40
0.57142857142857129
40
0.58571428571428552
40
0.59999999999999976
40
0.61428571428571399
40
0.62857142857142823
40
0.64285714285714246
40
0.6571428571428567
40
0.67142857142857093
40
0.68571428571428517
40
0.6999999999999994
40
0.71428571428571364
40
0.72857142857142787
40
0.74285714285714211
40
0.75714285714285634
40
0.77142857142857058
40
0.78571428571428481
40
0.79999999999999905
40
0.81428571428571328
40
0.82857142857142752
40
0.84285714285714175
40
0.85714285714285599
40
0.87142857142857022
40
0.88571428571428445
40
0.89999999999999869
40
0.91428571428571292
40
0.92857142857142716
40
0.94285714285714139
40
0.95714285714285563
40
0.97142857142856986
40
0.9857142857142841
40
1
40
1
40
1
40
1
40
1
40
1
41
1
41
1
41
1
41
1
41
1
41
1
41
1
41
1
41
1
41
1
41
1
41
1
41
1
41
1
41
1
41
1
41
1
41
1
41
1
41
1
41
1
41
1
41
1
41
1
41
1
41
1
41
1
41
1
41
1
41
1
41
1
41
1
41
1
41
1
41
1
41
1
41
1
41
1
41
1
41
1
41
1
41
1
41
1
41
1
41
1
41
1
41
1
41
1
41
1
41
1
41
1
41
1
41
1
41
1
41
1
41
1
41
1
41
1
41
1
41
1
41
1
41
1
41
1
41
1
41
1
41
1
41
1
10
-19.833696833503595
20
-93.178830070740943
30
0
10
-19.835126518338786
20
-93.209374845025138
30
0
10
-19.837944175416183
20
-93.272431864666672
30
0
10
-19.841786850039639
20
-93.368051083485909
30
0
10
-19.846010120872617
20
-93.49631757663937
30
0
10
-19.849645751475929
20
-93.657353470257561
30
0
10
-19.851643909929837
20
-93.82055554215539
30
0
10
-19.85206250503618
20
-93.983949966734514
30
0
10
-19.851047778373392
20
-94.14751291081356
30
0
10
-19.848750713127728
20
-94.311220411568002
30
0
10
-19.845284968201359
20
-94.475053623798019
30
0
10
-19.840701454360094
20
-94.639001981465313
30
0
10
-19.83501233090805
20
-94.803060124127342
30
0
10
-19.828206211700753
20
-94.967225933564976
30
0
10
-19.82026576142561
20
-95.131498270348118
30
0
10
-19.811186809596435
20
-95.295874515466835
30
0
10
-19.800988350027183
20
-95.460349275251289
30
0
10
-19.789702376546138
20
-95.624915657476379
30
0
10
-19.777367825497674
20
-95.789566024057095
30
0
10
-19.764023384339808
20
-95.95429288935506
30
0
10
-19.74969961694212
20
-96.11908990429518
30
0
10
-19.734415450260673
20
-96.283952290389379
30
0
10
-19.71818265242355
20
-96.44887626476114
30
0
10
-19.701008564442148
20
-96.613858686061917
30
0
10
-19.682899310911452
20
-96.778896640515569
30
0
10
-19.663863350990244
20
-96.943986984747411
30
0
10
-19.64391297972054
20
-97.109126149994097
30
0
10
-19.62306247157851
20
-97.274310373952602
30
0
10
-19.601326996818152
20
-97.439535834780685
30
0
10
-19.578721327794412
20
-97.604798812076041
30
0
10
-19.555258414374347
20
-97.770095865316023
30
0
10
-19.530948829514525
20
-97.935423900739693
30
0
10
-19.505801593569348
20
-98.100780061463695
30
0
10
-19.479824685608595
20
-98.266161658173587
30
0
10
-19.453025643722313
20
-98.431566089052581
30
0
10
-19.425412234377287
20
-98.596990750742322
30
0
10
-19.396992738780735
20
-98.762433000774266
30
0
10
-19.367775607980537
20
-98.927890204038249
30
0
10
-19.337769267410778
20
-99.093359760312552
30
0
10
-19.306981883254991
20
-99.258839136480248
30
0
10
-19.275421111457455
20
-99.424325903679545
30
0
10
-19.243093994785735
20
-99.589817748469727
30
0
10
-19.210007131376191
20
-99.755312437289149
30
0
10
-19.176166789528736
20
-99.920807790476715
30
0
10
-19.141579039525197
20
-100.08630165514711
30
0
10
-19.106249906636037
20
-100.25179187227198
30
0
10
-19.070185443408093
20
-100.41727626720716
30
0
10
-19.033391621376399
20
-100.58275268930822
30
0
10
-18.99587426268808
20
-100.7482190430183
30
0
10
-18.957638967119873
20
-100.91367331870867
30
0
10
-18.918691031405977
20
-101.07911363277032
30
0
10
-18.879035423645121
20
-101.24453823556011
30
0
10
-18.838676909455266
20
-101.40994543014125
30
0
10
-18.7976201581982
20
-101.57533350492329
30
0
10
-18.75586985363849
20
-101.74070066650251
30
0
10
-18.713430827702911
20
-101.90604495932979
30
0
10
-18.670308129487776
20
-102.0713642308198
30
0
10
-18.626506797127234
20
-102.2366562945152
30
0
10
-18.58203167529815
20
-102.40191906649572
30
0
10
-18.536887222262223
20
-102.56715070904308
30
0
10
-18.491077319781738
20
-102.73234977982108
30
0
10
-18.444605103800605
20
-102.89751535594961
30
0
10
-18.397472987558636
20
-103.06264690883039
30
0
10
-18.359240734087518
20
-103.19472474277801
30
0
10
-18.330270805696699
20
-103.29376767556323
30
0
10
-18.310826124507994
20
-103.35978943631255
30
0
10
-18.301070935015535
20
-103.39279860140904
30
0
0
ARC
5
125
100
AcDbEntity
8
0
100
AcDbCircle
10
22.843510547446236
20
-30.657953187745779
30
0
40
73.112497405591853
210
0
220
-0
230
1
100
AcDbArc
50
34.033627549288852
51
68.634282453762623
0
SPLINE
5
126
100
AcDbEntity
8
0
100
AcDbSpline
70
4
71
5
72
73
73
67
74
0
42
0.000000001
43
0.0000000001
44
0.0000000001
40
0.1151424959462088
40
0.1151424959462088
40
0.1151424959462088
40
0.1151424959462088
40
0.1151424959462088
40
0.1151424959462088
40
0.12857142857142859
40
0.14285714285714288
40
0.15714285714285717
40
0.17142857142857146
40
0.18571428571428575
40
0.20000000000000004
40
0.21428571428571433
40
0.22857142857142862
40
0.24285714285714291
40
0.25714285714285717
40
0.27142857142857146
40
0.28571428571428575
40
0.30000000000000004
40
0.31428571428571433
40
0.32857142857142863
40
0.34285714285714292
40
0.35714285714285721
40
0.3714285714285715
40
0.38571428571428579
40
0.40000000000000008
40
0.41428571428571437
40
0.42857142857142866
40
0.44285714285714295
40
0.45714285714285724
40
0.47142857142857153
40
0.48571428571428582
40
0.50000000000000011
40
0.51428571428571435
40
0.52857142857142858
40
0.54285714285714282
40
0.55714285714285705
40
0.57142857142857129
40
0.58571428571428552
40
0.59999999999999976
40
0.61428571428571399
40
0.62857142857142823
40
0.64285714285714246
40
0.6571428571428567
40
0.67142857142857093
40
0.68571428571428517
40
0.6999999999999994
40
0.71428571428571364
40
0.72857142857142787
40
0.74285714285714211
40
0.75714285714285634
40
0.77142857142857058
40
0.78571428571428481
40
0.79999999999999905
40
0.81428571428571328
40
0.82857142857142752
40
0.84285714285714175
40
0.85714285714285599
40
0.87142857142857022
40
0.88571428571428445
40
0.89999999999999869
40
0.91428571428571292
40
0.92857142857142716
40
0.94285714285714139
40
0.95714285714285563
40
0.97142857142856986
40
0.9857142857142841
40
1
40
1
40
1
40
1
40
1
40
1
41
1
41
1
41
1
41
1
41
1
41
1
41
1
41
1
41
1
41
1
41
1
41
1
41
1
41
1
41
1
41
1
41
1
41
1
41
1
41
1
41
1
41
1
41
1
41
1
41
1
41
1
41
1
41
1
41
1
41
1
41
1
41
1
41
1
41
1
41
1
41
1
41
1
41
1
41
1
41
1
41
1
41
1
41
1
41
1
41
1
41
1
41
1
41
1
41
1
41
1
41
1
41
1
41
1
41
1
41
1
41
1
41
1
41
1
41
1
41
1
41
1
41
1
41
1
41
1
41
1
41
1
41
1
10
-34.165891548541104
20
-88.928970297247076
30
0
10
-34.172081887008481
20
-88.958915362691314
30
0
10
-34.184729145186282
20
-89.020755267106409
30
0
10
-34.20348265145212
20
-89.11459612792197
30
0
10
-34.227719227052077
20
-89.240622782585248
30
0
10
-34.256501660880126
20
-89.399107319200724
30
0
10
-34.28400564749851
20
-89.559987521926388
30
0
10
-34.309979608404063
20
-89.721304807299902
30
0
10
-34.334564256367742
20
-89.883012758342858
30
0
10
-34.357904967110628
20
-90.045064088278863
30
0
10
-34.380111052166392
20
-90.207422403754208
30
0
10
-34.401231142612332
20
-90.370069304617701
30
0
10
-34.421276409493366
20
-90.532997594288403
30
0
10
-34.440235275484888
20
-90.696206961811541
30
0
10
-34.458090440454626
20
-90.859698993625543
30
0
10
-34.4748373755586
20
-91.023471755372626
30
0
10
-34.490493997009523
20
-91.187516948500871
30
0
10
-34.505090826557002
20
-91.351822760702476
30
0
10
-34.518665126314701
20
-91.516375556943728
30
0
10
-34.531253936421969
20
-91.681161891695112
30
0
10
-34.542886451242254
20
-91.846170712806554
30
0
10
-34.553580617189183
20
-92.011394339792915
30
0
10
-34.563347465733372
20
-92.176827195410283
30
0
10
-34.572193756091004
20
-92.342465028598113
30
0
10
-34.580125081638151
20
-92.508304003356017
30
0
10
-34.587149305655146
20
-92.674339691705413
30
0
10
-34.593278013534075
20
-92.840566645452128
30
0
10
-34.598524715454744
20
-93.006978915593223
30
0
10
-34.602903797032312
20
-93.173570354189081
30
0
10
-34.606429266750361
20
-93.340334975736397
30
0
10
-34.609113376825292
20
-93.507267356265373
30
0
10
-34.610966086072203
20
-93.674362786129734
30
0
10
-34.611995856874913
20
-93.841617032524738
30
0
10
-34.612210149366177
20
-94.009026191044356
30
0
10
-34.611616001815811
20
-94.176586512687379
30
0
10
-34.610220677817537
20
-94.344294211204058
30
0
10
-34.608031943250033
20
-94.512145381192795
30
0
10
-34.605057732892689
20
-94.680136097950864
30
0
10
-34.601305961684226
20
-94.848262475241256
30
0
10
-34.596784299002117
20
-95.016520733661466
30
0
10
-34.591499926575558
20
-95.184907276599361
30
0
10
-34.585459438562125
20
-95.353418717365088
30
0
10
-34.578669002458113
20
-95.522051817719756
30
0
10
-34.571134468416176
20
-95.690803444259487
30
0
10
-34.562861495197403
20
-95.85967052100321
30
0
10
-34.55385569614478
20
-96.028649972943882
30
0
10
-34.544122709098907
20
-96.197738705383813
30
0
10
-34.533668095640422
20
-96.366933660002729
30
0
10
-34.52249727841884
20
-96.536231856259093
30
0
10
-34.510615473893161
20
-96.70563043326797
30
0
10
-34.498027618924603
20
-96.875126702018861
30
0
10
-34.484738346741906
20
-97.044718157227834
30
0
10
-34.47075209883095
20
-97.214402377343305
30
0
10
-34.456073219314192
20
-97.384176941398181
30
0
10
-34.440706053741138
20
-97.554039345366377
30
0
10
-34.424655068634245
20
-97.723986901894875
30
0
10
-34.407924914188534
20
-97.894016695047611
30
0
10
-34.390520224473072
20
-98.064125777148348
30
0
10
-34.372445458521774
20
-98.23431133205888
30
0
10
-34.353704732225275
20
-98.404570847260487
30
0
10
-34.334301653923788
20
-98.574902290933139
30
0
10
-34.314239176582333
20
-98.745304260989215
30
0
10
-34.293519601038724
20
-98.915775857824443
30
0
10
-34.276419575347902
20
-99.052208436584621
30
0
10
-34.263300043054691
20
-99.154563881764958
30
0
10
-34.254422836981838
20
-99.22281462338232
30
0
10
-34.249951521143132
20
-99.256943438730502
30
0
0
CIRCLE
5
127
100
AcDbEntity
8
0
100
AcDbCircle
10
50.408843572449868
20
39.804561164722763
30
0
40
2.5500000000000349
210
0
220
0
230
1
0
LINE
5
128
100
AcDbEntity
8
0
100
AcDbLine
10
-14.54477909589604
20
-103.98773678204358
30
0
11
-11.75374494479205
21
-99.306845068743087
31
0
0
CIRCLE
5
129
100
AcDbEntity
8
0
100
AcDbCircle
10
-68.755179336739715
20
52.224739142857274
30
0
40
2.5500000000000318
210
0
220
0
230
1
0
CIRCLE
5
130
100
AcDbEntity
8
0
100
AcDbCircle
10
85.545720744318743
20
11.688786357092948
30
0
40
2.5500000000000318
210
0
220
0
230
1
0
CIRCLE
5
131
100
AcDbEntity
8
0
100
AcDbCircle
10
-11.688786357092971
20
85.545720744318743
30
0
40
2.5500000000000318
210
0
220
0
230
1
0
CIRCLE
5
132
100
AcDbEntity
8
0
100
AcDbCircle
10
7.4983600001210338
20
63.790510243581373
30
0
40
2.5500000000000349
210
0
220
0
230
1
0
ARC
5
133
100
AcDbEntity
8
0
100
AcDbCircle
10
37.831247810560427
20
-5.5256453821491096
30
0
40
78.212497405591861
210
0
220
-0
230
1
100
AcDbArc
50
79.033627549288866
51
113.63428245376265
0
ARC
5
134
100
AcDbEntity
8
0
100
AcDbCircle
10
5.5256453821491185
20
37.831247810560427
30
0
40
73.112497405591853
210
0
220
0
230
1
100
AcDbArc
50
169.03362754928887
51
203.63428245376264
0
CIRCLE
5
135
100
AcDbEntity
8
0
100
AcDbCircle
10
52.224739142857253
20
68.755179336739729
30
0
40
2.5500000000000318
210
0
220
0
230
1
0
ARC
5
136
100
AcDbEntity
8
0
100
AcDbCircle
10
30.657953187745768
20
22.843510547446243
30
0
40
73.112497405591853
210
0
220
0
230
1
100
AcDbArc
50
124.03362754928888
51
158.63428245376269
0
ARC
5
137
100
AcDbEntity
8
0
100
AcDbCircle
10
5.5256453821491185
20
37.831247810560427
30
0
40
78.212497405591861
210
0
220
0
230
1
100
AcDbArc
50
169.03362754928887
51
203.63428245376264
0
ARC
5
138
100
AcDbEntity
8
0
100
AcDbCircle
10
30.657953187745768
20
22.843510547446243
30
0
40
78.212497405591876
210
0
220
0
230
1
100
AcDbArc
50
124.03362754928888
51
158.63428245376264
0
ARC
5
139
100
AcDbEntity
8
0
100
AcDbCircle
10
5.5256453821491185
20
37.831247810560427
30
0
40
78.212497405591861
210
0
220
0
230
1
100
AcDbArc
50
169.03362754928887
51
203.63428245376264
0
ARC
5
140
100
AcDbEntity
8
0
100
AcDbCircle
10
22.843510547446236
20
-30.657953187745779
30
0
40
78.212497405591861
210
0
220
-0
230
1
100
AcDbArc
50
34.033627549288852
51
68.634282453762623
0
CIRCLE
5
141
100
AcDbEntity
8
0
100
AcDbCircle
10
-39.80456116472277
20
50.408843572449847
30
0
40
2.5500000000000349
210
0
220
0
230
1
0
ARC
5
142
100
AcDbEntity
8
0
100
AcDbCircle
10
30.657953187745768
20
22.843510547446243
30
0
40
78.212497405591876
210
0
220
0
230
1
100
AcDbArc
50
124.03362754928888
51
158.63428245376264
0
ARC
5
143
100
AcDbEntity
8
0
100
AcDbCircle
10
37.831247810560427
20
-5.5256453821491096
30
0
40
73.112497405591853
210
0
220
-0
230
1
100
AcDbArc
50
79.033627549288866
51
113.63428245376265
0
ARC
5
144
100
AcDbEntity
8
0
100
AcDbCircle
10
22.843510547446236
20
-30.657953187745779
30
0
40
78.212497405591861
210
0
220
-0
230
1
100
AcDbArc
50
34.033627549288852
51
68.634282453762623
0
ARC
5
145
100
AcDbEntity
8
0
100
AcDbCircle
10
5.5256453821491185
20
37.831247810560427
30
0
40
73.112497405591853
210
0
220
0
230
1
100
AcDbArc
50
169.03362754928887
51
203.63428245376264
0
ARC
5
146
100
AcDbEntity
8
0
100
AcDbCircle
10
30.657953187745768
20
22.843510547446243
30
0
40
73.112497405591853
210
0
220
0
230
1
100
AcDbArc
50
124.03362754928888
51
158.63428245376269
0
SPLINE
5
147
100
AcDbEntity
8
0
100
AcDbSpline
70
4
71
5
72
73
73
67
74
0
42
0.000000001
43
0.0000000001
44
0.0000000001
40
-1
40
-1
40
-1
40
-1
40
-1
40
-1
40
-0.9857142857142841
40
-0.97142857142856986
40
-0.95714285714285563
40
-0.94285714285714139
40
-0.92857142857142716
40
-0.91428571428571292
40
-0.89999999999999869
40
-0.88571428571428445
40
-0.87142857142857022
40
-0.85714285714285599
40
-0.84285714285714175
40
-0.82857142857142752
40
-0.81428571428571328
40
-0.79999999999999905
40
-0.78571428571428481
40
-0.77142857142857058
40
-0.75714285714285634
40
-0.74285714285714211
40
-0.72857142857142787
40
-0.71428571428571364
40
-0.6999999999999994
40
-0.68571428571428517
40
-0.67142857142857093
40
-0.6571428571428567
40
-0.64285714285714246
40
-0.62857142857142823
40
-0.61428571428571399
40
-0.59999999999999976
40
-0.58571428571428552
40
-0.57142857142857129
40
-0.55714285714285705
40
-0.54285714285714282
40
-0.52857142857142858
40
-0.51428571428571435
40
-0.50000000000000011
40
-0.48571428571428582
40
-0.47142857142857153
40
-0.45714285714285724
40
-0.44285714285714295
40
-0.42857142857142866
40
-0.41428571428571437
40
-0.40000000000000008
40
-0.38571428571428579
40
-0.3714285714285715
40
-0.35714285714285721
40
-0.34285714285714292
40
-0.32857142857142863
40
-0.31428571428571433
40
-0.30000000000000004
40
-0.28571428571428575
40
-0.27142857142857146
40
-0.25714285714285717
40
-0.24285714285714291
40
-0.22857142857142862
40
-0.21428571428571433
40
-0.20000000000000004
40
-0.18571428571428575
40
-0.17142857142857146
40
-0.15714285714285717
40
-0.14285714285714288
40
-0.12857142857142859
40
-0.11514249594620095
40
-0.11514249594620095
40
-0.11514249594620095
40
-0.11514249594620095
40
-0.11514249594620095
40
-0.11514249594620095
41
1
41
1
41
1
41
1
41
1
41
1
41
1
41
1
41
1
41
1
41
1
41
1
41
1
41
1
41
1
41
1
41
1
41
1
41
1
41
1
41
1
41
1
41
1
41
1
41
1
41
1
41
1
41
1
41
1
41
1
41
1
41
1
41
1
41
1
41
1
41
1
41
1
41
1
41
1
41
1
41
1
41
1
41
1
41
1
41
1
41
1
41
1
41
1
41
1
41
1
41
1
41
1
41
1
41
1
41
1
41
1
41
1
41
1
41
1
41
1
41
1
41
1
41
1
41
1
41
1
41
1
41
1
10
-45.966884809465149
20
-94.403630761286749
30
0
10
-45.939590394948198
20
-94.382659742270533
30
0
10
-45.88505270011747
20
-94.340676312664002
30
0
10
-45.803399560488543
20
-94.277576993536144
30
0
10
-45.694835614748015
20
-94.193196136044506
30
0
10
-45.559643040255935
20
-94.08730546629279
30
0
10
-45.424964337926177
20
-93.980999391514146
30
0
10
-45.290801770813083
20
-93.874276920886786
30
0
10
-45.157158418403853
20
-93.767136957774824
30
0
10
-45.024038268894117
20
-93.659578387410122
30
0
10
-44.891446009277018
20
-93.551600076037516
30
0
10
-44.75938678387611
20
-93.443200861954324
30
0
10
-44.627865953794917
20
-93.334379552700767
30
0
10
-44.496888869096047
20
-93.225134921970536
30
0
10
-44.366460588333318
20
-93.115465711700836
30
0
10
-44.236585954888142
20
-93.005370619738059
30
0
10
-44.107269752401159
20
-92.8948482862059
30
0
10
-43.97851683377273
20
-92.783897282795195
30
0
10
-43.850332246693554
20
-92.672516104821696
30
0
10
-43.722721383469278
20
-92.560703162814946
30
0
10
-43.595689955644481
20
-92.448456791132529
30
0
10
-43.469243905172625
20
-92.335775262943343
30
0
10
-43.343389327244083
20
-92.22265680817506
30
0
10
-43.218132396695879
20
-92.109099628553977
30
0
10
-43.093479257119256
20
-91.995101929205617
30
0
10
-42.969436084909574
20
-91.880661883828651
30
0
10
-42.846009232400661
20
-91.765777571391695
30
0
10
-42.723205350451572
20
-91.650446920596877
30
0
10
-42.601031496587254
20
-91.53466766342207
30
0
10
-42.4794952922459
20
-91.418437264806656
30
0
10
-42.35860483293753
20
-91.301752974122991
30
0
10
-42.23836846335351
20
-91.184611942648758
30
0
10
-42.118794569414035
20
-91.067011334831562
30
0
10
-41.999891403960589
20
-90.948948420901857
30
0
10
-41.88166678041236
20
-90.830420742006183
30
0
10
-41.764128326521885
20
-90.711425972280395
30
0
10
-41.647284078231557
20
-90.591961597445945
30
0
10
-41.531143012395333
20
-90.472024626738857
30
0
10
-41.415715501181722
20
-90.351611348436251
30
0
10
-41.301014043541826
20
-90.230716934238615
30
0
10
-41.187052777359384
20
-90.109335711042249
30
0
10
-41.073846222050207
20
-89.987461853930853
30
0
10
-40.961408137334345
20
-89.865090016345036
30
0
10
-40.849750567776212
20
-89.742215858630487
30
0
10
-40.738882204608245
20
-89.61883695166209
30
0
10
-40.628809715406589
20
-89.494952052787596
30
0
10
-40.519540885612514
20
-89.370559388473083
30
0
10
-40.411087459360701
20
-89.245655101997926
30
0
10
-40.303467557605018
20
-89.120231934254406
30
0
10
-40.196709638928148
20
-88.994277056760495
30
0
10
-40.090849402088878
20
-88.867773785607525
30
0
10
-39.985922836805258
20
-88.740705413927088
30
0
10
-39.88195987777636
20
-88.613058712145943
30
0
10
-39.77897906164003
20
-88.484826879550994
30
0
10
-39.67697855381747
20
-88.356014486315999
30
0
10
-39.575944999486445
20
-88.226632643700441
30
0
10
-39.475870432120502
20
-88.096689757987306
30
0
10
-39.376767839592397
20
-87.96618301880612
30
0
10
-39.278684620138336
20
-87.835091049664058
30
0
10
-39.181723802672302
20
-87.703362289621623
30
0
10
-39.086021620152664
20
-87.570927379320821
30
0
10
-38.99171039329422
20
-87.437719641567298
30
0
10
-38.899997156879039
20
-87.305301896874411
30
0
10
-38.828020701715865
20
-87.199049747792245
30
0
10
-38.774925924132383
20
-87.119433507305573
30
0
10
-38.740141470393475
20
-87.066763129524787
30
0
10
-38.72334434186287
20
-87.041211540377944
30
0
0
CIRCLE
5
148
100
AcDbEntity
8
0
100
AcDbCircle
10
-50.408843572449868
20
-39.804561164722763
30
0
40
2.5500000000000349
210
0
220
0
230
1
0
ARC
5
149
100
AcDbEntity
8
0
100
AcDbCircle
10
22.843510547446236
20
-30.657953187745779
30
0
40
73.112497405591853
210
0
220
-0
230
1
100
AcDbArc
50
34.033627549288852
51
68.634282453762623
0
ARC
5
150
100
AcDbEntity
8
0
100
AcDbCircle
10
-37.831247810560427
20
5.5256453821491132
30
0
40
78.212497405591847
210
0
220
0
230
1
100
AcDbArc
50
259.03362754928884
51
293.63428245376264
0
ARC
5
151
100
AcDbEntity
8
0
100
AcDbCircle
10
-37.831247810560427
20
5.5256453821491132
30
0
40
78.212497405591847
210
0
220
0
230
1
100
AcDbArc
50
259.03362754928884
51
293.63428245376264
0
ARC
5
152
100
AcDbEntity
8
0
100
AcDbCircle
10
-37.831247810560427
20
5.5256453821491132
30
0
40
73.112497405591853
210
0
220
0
230
1
100
AcDbArc
50
259.03362754928884
51
293.63428245376264
0
CIRCLE
5
153
100
AcDbEntity
8
0
100
AcDbCircle
10
-63.790510243581373
20
7.498360000121048
30
0
40
2.5500000000000349
210
0
220
0
230
1
0
ARC
5
154
100
AcDbEntity
8
0
100
AcDbCircle
10
-22.843510547446236
20
30.657953187745779
30
0
40
73.112497405591853
210
0
220
0
230
1
100
AcDbArc
50
214.03362754928887
51
248.63428245376258
0
ARC
5
155
100
AcDbEntity
8
0
100
AcDbCircle
10
-37.831247810560427
20
5.5256453821491132
30
0
40
73.112497405591853
210
0
220
0
230
1
100
AcDbArc
50
259.03362754928884
51
293.63428245376264
0
SPLINE
5
156
100
AcDbEntity
8
0
100
AcDbSpline
70
0
71
3
72
14
73
10
74
0
42
0.000000001
43
0.0000000001
44
0.0000000001
40
0
40
0
40
0
40
0
40
0.062014810150174904
40
0.062014810150174904
40
0.12402962030034961
40
0.12402962030034961
40
0.17275024583429541
40
0.17275024583429541
40
0.2214708713682409
40
0.2214708713682409
40
0.2214708713682409
40
0.2214708713682409
10
-92.02725544639452
20
-24.630350351536151
30
0
10
-91.83888371609639
20
-24.545217456198877
30
0
10
-91.668941269743868
20
-24.424105290050385
30
0
10
-91.38504604637113
20
-24.123556497468826
30
0
10
-91.273807462421175
20
-23.946993281304586
30
0
10
-91.141191895224523
20
-23.602520790280796
30
0
10
-91.106445380307775
20
-23.442902192873539
30
0
10
-91.08658343557606
20
-23.118705875578183
30
0
10
-91.101585101366197
20
-22.956039447079117
30
0
10
-91.140994937582406
20
-22.798491670012886
30
0
0
SPLINE
5
157
100
AcDbEntity
8
0
100
AcDbSpline
70
0
71
3
72
11
73
7
74
0
42
0.000000001
43
0.0000000001
44
0.0000000001
40
-1
40
-1
40
-1
40
-1
40
-0.75
40
-0.5
40
-0.25
40
0
40
0
40
0
40
0
10
-82.48938413670372
20
-47.656808623560423
30
0
10
-82.317167930745939
20
-47.591802774305883
30
0
10
-81.949942525814734
20
-47.522323976085545
30
0
10
-81.396530395350268
20
-47.612115603830915
30
0
10
-80.906880513626135
20
-47.885191629666217
30
0
10
-80.662068650789109
20
-48.167590201268958
30
0
10
-80.567383625143947
20
-48.325447503761964
30
0
0
SPLINE
5
158
100
AcDbEntity
8
0
100
AcDbSpline
70
4
71
5
72
73
73
67
74
0
42
0.000000001
43
0.0000000001
44
0.0000000001
40
0.11514249594622721
40
0.11514249594622721
40
0.11514249594622721
40
0.11514249594622721
40
0.11514249594622721
40
0.11514249594622721
40
0.12857142857142859
40
0.14285714285714288
40
0.15714285714285717
40
0.17142857142857146
40
0.18571428571428575
40
0.20000000000000004
40
0.21428571428571433
40
0.22857142857142862
40
0.24285714285714291
40
0.25714285714285717
40
0.27142857142857146
40
0.28571428571428575
40
0.30000000000000004
40
0.31428571428571433
40
0.32857142857142863
40
0.34285714285714292
40
0.35714285714285721
40
0.3714285714285715
40
0.38571428571428579
40
0.40000000000000008
40
0.41428571428571437
40
0.42857142857142866
40
0.44285714285714295
40
0.45714285714285724
40
0.47142857142857153
40
0.48571428571428582
40
0.50000000000000011
40
0.51428571428571435
40
0.52857142857142858
40
0.54285714285714282
40
0.55714285714285705
40
0.57142857142857129
40
0.58571428571428552
40
0.59999999999999976
40
0.61428571428571399
40
0.62857142857142823
40
0.64285714285714246
40
0.6571428571428567
40
0.67142857142857093
40
0.68571428571428517
40
0.6999999999999994
40
0.71428571428571364
40
0.72857142857142787
40
0.74285714285714211
40
0.75714285714285634
40
0.77142857142857058
40
0.78571428571428481
40
0.79999999999999905
40
0.81428571428571328
40
0.82857142857142752
40
0.84285714285714175
40
0.85714285714285599
40
0.87142857142857022
40
0.88571428571428445
40
0.89999999999999869
40
0.91428571428571292
40
0.92857142857142716
40
0.94285714285714139
40
0.95714285714285563
40
0.97142857142856986
40
0.9857142857142841
40
1
40
1
40
1
40
1
40
1
40
1
41
1
41
1
41
1
41
1
41
1
41
1
41
1
41
1
41
1
41
1
41
1
41
1
41
1
41
1
41
1
41
1
41
1
41
1
41
1
41
1
41
1
41
1
41
1
41
1
41
1
41
1
41
1
41
1
41
1
41
1
41
1
41
1
41
1
41
1
41
1
41
1
41
1
41
1
41
1
41
1
41
1
41
1
41
1
41
1
41
1
41
1
41
1
41
1
41
1
41
1
41
1
41
1
41
1
41
1
41
1
41
1
41
1
41
1
41
1
41
1
41
1
41
1
41
1
41
1
41
1
41
1
41
1
10
-92.027255446394491
20
-24.630350351536162
30
0
10
-92.055120102894335
20
-24.642943530362174
30
0
10
-92.112583508335476
20
-24.669060267382431
30
0
10
-92.199525393913845
20
-24.709046636159048
30
0
10
-92.315729000984348
20
-24.763515443620033
30
0
10
-92.460863574581111
20
-24.833384838852645
30
0
10
-92.607184830358165
20
-24.905696656813276
30
0
10
-92.752960366875669
20
-24.979503202311864
30
0
10
-92.898235340900825
20
-25.054663353109987
30
0
10
-93.043056946332825
20
-25.131031703308999
30
0
10
-93.18745999203739
20
-25.208498426543802
30
0
10
-93.331458176609573
20
-25.28701336410893
30
0
10
-93.475052244068564
20
-25.366563248395082
30
0
10
-93.618235137865966
20
-25.447157262879934
30
0
10
-93.760997972694838
20
-25.52881033614964
30
0
10
-93.90333652163919
20
-25.611524995128981
30
0
10
-94.045254601915019
20
-25.695281867530937
30
0
10
-94.18676059739893
20
-25.780049317641065
30
0
10
-94.327865379237807
20
-25.865789185304457
30
0
10
-94.468579841417409
20
-25.952463601334923
30
0
10
-94.608912202576775
20
-26.040042450705457
30
0
10
-94.748866797710164
20
-26.12850669998658
30
0
10
-94.888445598868216
20
-26.217844146309346
30
0
10
-95.02764913983836
20
-26.308046822642346
30
0
10
-95.166477604934968
20
-26.399107949104781
30
0
10
-95.304932033768367
20
-26.491018561468742
30
0
10
-95.443014828379489
20
-26.583766084586959
30
0
10
-95.580729117008275
20
-26.677336091758157
30
0
10
-95.718078381519575
20
-26.771713331106994
30
0
10
-95.855066013519533
20
-26.866882951341573
30
0
10
-95.991694826596529
20
-26.962831852081194
30
0
10
-96.127966864211317
20
-27.059549208214566
30
0
10
-96.263883676017315
20
-27.157025685549129
30
0
10
-96.399446488239704
20
-27.25525295375845
30
0
10
-96.534656404864052
20
-27.354223115155001
30
0
10
-96.66951463218318
20
-27.453928067866276
30
0
10
-96.804022575329839
20
-27.55435923362699
30
0
10
-96.938181723099092
20
-27.655507886183361
30
0
10
-97.071993583743421
20
-27.757365337942666
30
0
10
-97.20545960760893
20
-27.859923162771139
30
0
10
-97.33858110628978
20
-27.963173436492244
30
0
10
-97.471359215844885
20
-28.067108833674077
30
0
10
-97.603794941647394
20
-28.171722461318272
30
0
10
-97.735889187353692
20
-28.277007744783319
30
0
10
-97.867642790579197
20
-28.382958298019012
30
0
10
-97.99905656303109
20
-28.489567772291696
30
0
10
-98.130131314886015
20
-28.59682978747486
30
0
10
-98.260867840925897
20
-28.704738046519708
30
0
10
-98.391266917195409
20
-28.813286410492221
30
0
10
-98.521329295347741
20
-28.922468977602499
30
0
10
-98.651055701741811
20
-29.032280173285152
30
0
10
-98.780446832903991
20
-29.142714776610489
30
0
10
-98.909503340397663
20
-29.253767770988603
30
0
10
-99.038225819030558
20
-29.365434218941886
30
0
10
-99.166614797252805
20
-29.477709133017314
30
0
10
-99.294670726306279
20
-29.590587320135839
30
0
10
-99.422393980465131
20
-29.704063304266462
30
0
10
-99.549784898846681
20
-29.818131603767903
30
0
10
-99.676843824101582
20
-29.932786955921458
30
0
10
-99.803571142819408
20
-30.04802455408025
30
0
10
-99.92996733215233
20
-30.163840284761811
30
0
10
-100.0560329934969
20
-30.280230934840855
30
0
10
-100.18176875145656
20
-30.397194114126368
30
0
10
-100.28209388334503
20
-30.491221383241957
30
0
10
-100.35718971036383
20
-30.561998328994264
30
0
10
-100.40718782939976
20
-30.609296918950449
30
0
10
-100.432170447506
20
-30.632974703791056
30
0
0
ARC
5
159
100
AcDbEntity
8
0
100
AcDbCircle
10
-22.843510547446236
20
30.657953187745779
30
0
40
78.212497405591861
210
0
220
0
230
1
100
AcDbArc
50
214.03362754928887
51
248.63428245376258
0
LINE
5
160
100
AcDbEntity
8
0
100
AcDbLine
10
-80.567383625143947
20
-48.325447503761964
30
0
11
-79.635115764861496
21
-49.846770384420381
31
0
0
ARC
5
161
100
AcDbEntity
8
0
100
AcDbCircle
10
-5.1407574918084352e-11
20
-2.6193467717555445e-11
30
0
40
104.99999999994236
210
0
220
0
230
1
100
AcDbArc
50
205.96231275199304
51
208.03768724800656
0
SPLINE
5
162
100
AcDbEntity
8
0
100
AcDbSpline
70
0
71
3
72
11
73
7
74
0
42
0.000000001
43
0.0000000001
44
0.0000000001
40
-1
40
-1
40
-1
40
-1
40
-0.75
40
-0.5
40
-0.25
40
0
40
0
40
0
40
0
10
-88.928970297247091
20
-34.165891548541076
30
0
10
-88.748705203308461
20
-34.128626579212174
30
0
10
-88.375132073856392
20
-34.117449890061017
30
0
10
-87.842579870304178
20
-34.292708764444171
30
0
10
-87.401676893168428
20
-34.639020888562271
30
0
10
-87.204055940081702
20
-34.956239677933411
30
0
10
-87.135230966891214
20
-35.126965496417661
30
0
0
ARC
5
163
100
AcDbEntity
8
0
100
AcDbCircle
10
-5.4872223474807298e-11
20
-1.7829066183058529e-11
30
0
40
104.99999999994232
210
0
220
0
230
1
100
AcDbArc
50
196.96231275199304
51
199.03768724800656
0
ARC
5
164
100
AcDbEntity
8
0
100
AcDbCircle
10
-5.6985735779111611e-11
20
-9.0256538678564903e-12
30
0
40
104.9999999999423
210
0
220
0
230
1
100
AcDbArc
50
187.96231275199304
51
190.0376872480069
0
SPLINE
5
165
100
AcDbEntity
8
0
100
AcDbSpline
70
0
71
3
72
11
73
7
74
0
42
0.000000001
43
0.0000000001
44
0.0000000001
40
-1
40
-1
40
-1
40
-1
40
-0.75
40
-0.5
40
-0.25
40
0
40
0
40
0
40
0
10
-93.178830070740901
20
-19.833696833503552
30
0
10
-92.994954813699721
20
-19.82509033132046
30
0
10
-92.624232569991932
20
-19.872490958418606
30
0
10
-92.125653496042787
20
-20.128901624301371
30
0
10
-91.744353918065428
20
-20.539922492862438
30
0
10
-91.598789958460372
20
-20.88415052061891
30
0
10
-91.557519736981476
20
-21.063541018836847
30
0
0
SPLINE
5
166
100
AcDbEntity
8
0
100
AcDbSpline
70
4
71
5
72
73
73
67
74
0
42
0.000000001
43
0.0000000001
44
0.0000000001
40
-1
40
-1
40
-1
40
-1
40
-1
40
-1
40
-0.9857142857142841
40
-0.97142857142856986
40
-0.95714285714285563
40
-0.94285714285714139
40
-0.92857142857142716
40
-0.91428571428571292
40
-0.89999999999999869
40
-0.88571428571428445
40
-0.87142857142857022
40
-0.85714285714285599
40
-0.84285714285714175
40
-0.82857142857142752
40
-0.81428571428571328
40
-0.79999999999999905
40
-0.78571428571428481
40
-0.77142857142857058
40
-0.75714285714285634
40
-0.74285714285714211
40
-0.72857142857142787
40
-0.71428571428571364
40
-0.6999999999999994
40
-0.68571428571428517
40
-0.67142857142857093
40
-0.6571428571428567
40
-0.64285714285714246
40
-0.62857142857142823
40
-0.61428571428571399
40
-0.59999999999999976
40
-0.58571428571428552
40
-0.57142857142857129
40
-0.55714285714285705
40
-0.54285714285714282
40
-0.52857142857142858
40
-0.51428571428571435
40
-0.50000000000000011
40
-0.48571428571428582
40
-0.47142857142857153
40
-0.45714285714285724
40
-0.44285714285714295
40
-0.42857142857142866
40
-0.41428571428571437
40
-0.40000000000000008
40
-0.38571428571428579
40
-0.3714285714285715
40
-0.35714285714285721
40
-0.34285714285714292
40
-0.32857142857142863
40
-0.31428571428571433
40
-0.30000000000000004
40
-0.28571428571428575
40
-0.27142857142857146
40
-0.25714285714285717
40
-0.24285714285714291
40
-0.22857142857142862
40
-0.21428571428571433
40
-0.20000000000000004
40
-0.18571428571428575
40
-0.17142857142857146
40
-0.15714285714285717
40
-0.14285714285714288
40
-0.12857142857142859
40
-0.11514249594620912
40
-0.11514249594620912
40
-0.11514249594620912
40
-0.11514249594620912
40
-0.11514249594620912
40
-0.11514249594620912
41
1
41
1
41
1
41
1
41
1
41
1
41
1
41
1
41
1
41
1
41
1
41
1
41
1
41
1
41
1
41
1
41
1
41
1
41
1
41
1
41
1
41
1
41
1
41
1
41
1
41
1
41
1
41
1
41
1
41
1
41
1
41
1
41
1
41
1
41
1
41
1
41
1
41
1
41
1
41
1
41
1
41
1
41
1
41
1
41
1
41
1
41
1
41
1
41
1
41
1
41
1
41
1
41
1
41
1
41
1
41
1
41
1
41
1
41
1
41
1
41
1
41
1
41
1
41
1
41
1
41
1
41
1
10
-99.256943438730531
20
-34.24995152114311
30
0
10
-99.222814623382334
20
-34.254422836981817
30
0
10
-99.154563881764972
20
-34.263300043054649
30
0
10
-99.052208436584621
20
-34.276419575347859
30
0
10
-98.915775857824485
20
-34.29351960103871
30
0
10
-98.745304260989215
20
-34.314239176582298
30
0
10
-98.574902290933139
20
-34.33430165392376
30
0
10
-98.404570847260487
20
-34.353704732225239
30
0
10
-98.23431133205888
20
-34.372445458521753
30
0
10
-98.064125777148362
20
-34.39052022447305
30
0
10
-97.894016695047625
20
-34.407924914188499
30
0
10
-97.723986901894889
20
-34.424655068634216
30
0
10
-97.554039345366391
20
-34.44070605374111
30
0
10
-97.384176941398195
20
-34.456073219314163
30
0
10
-97.214402377343305
20
-34.470752098830914
30
0
10
-97.044718157227862
20
-34.484738346741885
30
0
10
-96.875126702018889
20
-34.498027618924574
30
0
10
-96.70563043326797
20
-34.510615473893118
30
0
10
-96.536231856259107
20
-34.522497278418804
30
0
10
-96.366933660002744
20
-34.53366809564038
30
0
10
-96.197738705383813
20
-34.544122709098872
30
0
10
-96.028649972943882
20
-34.553855696144744
30
0
10
-95.859670521003224
20
-34.562861495197374
30
0
10
-95.690803444259501
20
-34.57113446841614
30
0
10
-95.522051817719785
20
-34.578669002458085
30
0
10
-95.353418717365088
20
-34.585459438562097
30
0
10
-95.184907276599375
20
-34.59149992657553
30
0
10
-95.01652073366148
20
-34.596784299002088
30
0
10
-94.84826247524127
20
-34.601305961684197
30
0
10
-94.680136097950864
20
-34.605057732892654
30
0
10
-94.512145381192809
20
-34.608031943249998
30
0
10
-94.344294211204058
20
-34.610220677817509
30
0
10
-94.176586512687379
20
-34.611616001815776
30
0
10
-94.00902619104437
20
-34.612210149366135
30
0
10
-93.841617032524752
20
-34.611995856874877
30
0
10
-93.674362786129777
20
-34.61096608607216
30
0
10
-93.507267356265373
20
-34.609113376825256
30
0
10
-93.340334975736411
20
-34.606429266750325
30
0
10
-93.173570354189096
20
-34.602903797032276
30
0
10
-93.006978915593237
20
-34.598524715454708
30
0
10
-92.840566645452157
20
-34.593278013534047
30
0
10
-92.674339691705455
20
-34.587149305655124
30
0
10
-92.508304003356017
20
-34.580125081638123
30
0
10
-92.342465028598127
20
-34.572193756090982
30
0
10
-92.176827195410254
20
-34.563347465733337
30
0
10
-92.011394339792929
20
-34.553580617189148
30
0
10
-91.846170712806568
20
-34.542886451242218
30
0
10
-91.681161891695112
20
-34.531253936421933
30
0
10
-91.516375556943728
20
-34.518665126314673
30
0
10
-91.351822760702504
20
-34.505090826556987
30
0
10
-91.1875169485009
20
-34.490493997009494
30
0
10
-91.02347175537264
20
-34.474837375558572
30
0
10
-90.859698993625543
20
-34.458090440454598
30
0
10
-90.696206961811555
20
-34.440235275484852
30
0
10
-90.532997594288418
20
-34.421276409493331
30
0
10
-90.370069304617701
20
-34.401231142612289
30
0
10
-90.207422403754236
20
-34.380111052166356
30
0
10
-90.045064088278878
20
-34.357904967110585
30
0
10
-89.883012758342872
20
-34.334564256367727
30
0
10
-89.721304807299902
20
-34.309979608404028
30
0
10
-89.559987521926402
20
-34.284005647498482
30
0
10
-89.399107319200738
20
-34.256501660880105
30
0
10
-89.240622782585248
20
-34.227719227052049
30
0
10
-89.114596127921985
20
-34.203482651452092
30
0
10
-89.020755267106438
20
-34.184729145186246
30
0
10
-88.958915362691343
20
-34.172081887008446
30
0
10
-88.928970297247091
20
-34.165891548541076
30
0
0
LINE
5
167
100
AcDbEntity
8
0
100
AcDbLine
10
-87.135230966891214
20
-35.126965496417661
30
0
11
-86.452428201967734
21
-36.775397191922046
31
0
0
SPLINE
5
168
100
AcDbEntity
8
0
100
AcDbSpline
70
0
71
3
72
14
73
10
74
0
42
0.000000001
43
0.0000000001
44
0.0000000001
40
0
40
0
40
0
40
0
40
0.062014810150174293
40
0.062014810150174293
40
0.12402962030034886
40
0.12402962030034886
40
0.17275024583431037
40
0.17275024583431037
40
0.22147087136827329
40
0.22147087136827329
40
0.22147087136827329
40
0.22147087136827329
10
-79.911924133018573
20
-51.862841079081477
30
0
10
-79.759079482872266
20
-51.723664818297976
30
0
10
-79.634880329438985
20
-51.555965199491283
30
0
10
-79.457754611851769
20
-51.182397863197934
30
0
10
-79.406521466098923
20
-50.980101653056174
30
0
10
-79.386844420575315
20
-50.611508381801087
30
0
10
-79.403123380362302
20
-50.448964811010399
30
0
10
-79.484415719956957
20
-50.134498112424204
30
0
10
-79.548949842782434
20
-49.984428915290735
30
0
10
-79.635115764861496
20
-49.846770384420374
30
0
0
SPLINE
5
169
100
AcDbEntity
8
0
100
AcDbSpline
70
4
71
5
72
73
73
67
74
0
42
0.000000001
43
0.0000000001
44
0.0000000001
40
0.11514249594619559
40
0.11514249594619559
40
0.11514249594619559
40
0.11514249594619559
40
0.11514249594619559
40
0.11514249594619559
40
0.12857142857142859
40
0.14285714285714288
40
0.15714285714285717
40
0.17142857142857146
40
0.18571428571428575
40
0.20000000000000004
40
0.21428571428571433
40
0.22857142857142862
40
0.24285714285714291
40
0.25714285714285717
40
0.27142857142857146
40
0.28571428571428575
40
0.30000000000000004
40
0.31428571428571433
40
0.32857142857142863
40
0.34285714285714292
40
0.35714285714285721
40
0.3714285714285715
40
0.38571428571428579
40
0.40000000000000008
40
0.41428571428571437
40
0.42857142857142866
40
0.44285714285714295
40
0.45714285714285724
40
0.47142857142857153
40
0.48571428571428582
40
0.50000000000000011
40
0.51428571428571435
40
0.52857142857142858
40
0.54285714285714282
40
0.55714285714285705
40
0.57142857142857129
40
0.58571428571428552
40
0.59999999999999976
40
0.61428571428571399
40
0.62857142857142823
40
0.64285714285714246
40
0.6571428571428567
40
0.67142857142857093
40
0.68571428571428517
40
0.6999999999999994
40
0.71428571428571364
40
0.72857142857142787
40
0.74285714285714211
40
0.75714285714285634
40
0.77142857142857058
40
0.78571428571428481
40
0.79999999999999905
40
0.81428571428571328
40
0.82857142857142752
40
0.84285714285714175
40
0.85714285714285599
40
0.87142857142857022
40
0.88571428571428445
40
0.89999999999999869
40
0.91428571428571292
40
0.92857142857142716
40
0.94285714285714139
40
0.95714285714285563
40
0.97142857142856986
40
0.9857142857142841
40
1
40
1
40
1
40
1
40
1
40
1
41
1
41
1
41
1
41
1
41
1
41
1
41
1
41
1
41
1
41
1
41
1
41
1
41
1
41
1
41
1
41
1
41
1
41
1
41
1
41
1
41
1
41
1
41
1
41
1
41
1
41
1
41
1
41
1
41
1
41
1
41
1
41
1
41
1
41
1
41
1
41
1
41
1
41
1
41
1
41
1
41
1
41
1
41
1
41
1
41
1
41
1
41
1
41
1
41
1
41
1
41
1
41
1
41
1
41
1
41
1
41
1
41
1
41
1
41
1
41
1
41
1
41
1
41
1
41
1
41
1
41
1
41
1
10
-87.04121154037793
20
-38.723344341862827
30
0
10
-87.066763129524787
20
-38.740141470393432
30
0
10
-87.119433507305587
20
-38.77492592413234
30
0
10
-87.199049747792273
20
-38.828020701715829
30
0
10
-87.305301896874411
20
-38.89999715687901
30
0
10
-87.437719641567327
20
-38.991710393294191
30
0
10
-87.570927379320835
20
-39.08602162015265
30
0
10
-87.703362289621623
20
-39.18172380267228
30
0
10
-87.835091049664072
20
-39.278684620138314
30
0
10
-87.966183018806134
20
-39.376767839592375
30
0
10
-88.09668975798732
20
-39.47587043212048
30
0
10
-88.226632643700469
20
-39.575944999486417
30
0
10
-88.356014486316013
20
-39.676978553817442
30
0
10
-88.484826879551008
20
-39.778979061640008
30
0
10
-88.613058712145957
20
-39.881959877776332
30
0
10
-88.740705413927103
20
-39.985922836805237
30
0
10
-88.86777378560754
20
-40.090849402088864
30
0
10
-88.994277056760495
20
-40.196709638928127
30
0
10
-89.12023193425442
20
-40.303467557605003
30
0
10
-89.245655101997954
20
-40.411087459360679
30
0
10
-89.370559388473112
20
-40.519540885612493
30
0
10
-89.494952052787625
20
-40.628809715406575
30
0
10
-89.61883695166209
20
-40.738882204608238
30
0
10
-89.742215858630516
20
-40.849750567776184
30
0
10
-89.865090016345022
20
-40.961408137334331
30
0
10
-89.987461853930867
20
-41.073846222050179
30
0
10
-90.109335711042263
20
-41.187052777359369
30
0
10
-90.230716934238615
20
-41.301014043541798
30
0
10
-90.351611348436251
20
-41.415715501181708
30
0
10
-90.472024626738872
20
-41.531143012395304
30
0
10
-90.591961597445959
20
-41.647284078231536
30
0
10
-90.711425972280395
20
-41.764128326521863
30
0
10
-90.830420742006197
20
-41.881666780412338
30
0
10
-90.9489484209019
20
-41.999891403960561
30
0
10
-91.067011334831577
20
-42.118794569414021
30
0
10
-91.184611942648786
20
-42.238368463353467
30
0
10
-91.301752974123005
20
-42.358604832937516
30
0
10
-91.41843726480667
20
-42.479495292245886
30
0
10
-91.53466766342207
20
-42.601031496587218
30
0
10
-91.650446920596892
20
-42.723205350451543
30
0
10
-91.765777571391709
20
-42.846009232400633
30
0
10
-91.880661883828694
20
-42.96943608490956
30
0
10
-91.995101929205632
20
-43.09347925711922
30
0
10
-92.109099628553977
20
-43.218132396695864
30
0
10
-92.222656808175074
20
-43.343389327244068
30
0
10
-92.335775262943372
20
-43.469243905172597
30
0
10
-92.448456791132543
20
-43.595689955644453
30
0
10
-92.56070316281496
20
-43.722721383469235
30
0
10
-92.67251610482171
20
-43.85033224669354
30
0
10
-92.783897282795195
20
-43.978516833772716
30
0
10
-92.8948482862059
20
-44.10726975240113
30
0
10
-93.005370619738059
20
-44.236585954888113
30
0
10
-93.11546571170085
20
-44.366460588333297
30
0
10
-93.225134921970536
20
-44.496888869096018
30
0
10
-93.334379552700767
20
-44.627865953794895
30
0
10
-93.443200861954352
20
-44.759386783876096
30
0
10
-93.551600076037545
20
-44.891446009277004
30
0
10
-93.659578387410164
20
-45.024038268894095
30
0
10
-93.767136957774824
20
-45.157158418403831
30
0
10
-93.874276920886814
20
-45.290801770813061
30
0
10
-93.98099939151416
20
-45.424964337926156
30
0
10
-94.087305466292804
20
-45.559643040255899
30
0
10
-94.193196136044548
20
-45.694835614747987
30
0
10
-94.277576993536144
20
-45.803399560488529
30
0
10
-94.34067631266403
20
-45.885052700117448
30
0
10
-94.382659742270562
20
-45.939590394948183
30
0
10
-94.403630761286777
20
-45.966884809465121
30
0
0
SPLINE
5
170
100
AcDbEntity
8
0
100
AcDbSpline
70
0
71
3
72
14
73
10
74
0
42
0.000000001
43
0.0000000001
44
0.0000000001
40
0
40
0
40
0
40
0
40
0.062014810150174481
40
0.062014810150174481
40
0.12402962030034856
40
0.12402962030034856
40
0.17275024583429216
40
0.17275024583429216
40
0.22147087136823515
40
0.22147087136823515
40
0.22147087136823515
40
0.22147087136823515
10
-87.041211540377944
20
-38.723344341862841
30
0
10
-86.868476697604166
20
-38.609791742879203
30
0
10
-86.719572641690874
20
-38.463585812787336
30
0
10
-86.48618882920097
20
-38.122326277178779
30
0
10
-86.403940349075725
20
-37.93053529882333
30
0
10
-86.326844869428584
20
-37.569558190472968
30
0
10
-86.317495991664856
20
-37.406469210398662
30
0
10
-86.348594057895951
20
-37.083157195043405
30
0
10
-86.388857664008597
20
-36.924840237771221
30
0
10
-86.452428201967734
20
-36.775397191922046
30
0
0
ARC
5
171
100
AcDbEntity
8
0
100
AcDbCircle
10
-22.843510547446236
20
30.657953187745779
30
0
40
73.112497405591853
210
0
220
0
230
1
100
AcDbArc
50
214.03362754928887
51
248.63428245376258
0
LINE
5
172
100
AcDbEntity
8
0
100
AcDbLine
10
-93.178830070740901
20
-19.833696833503552
30
0
11
-98.07852904934677
21
-19.509027063614255
31
0
0
SPLINE
5
173
100
AcDbEntity
8
0
100
AcDbSpline
70
4
71
5
72
73
73
67
74
0
42
0.000000001
43
0.0000000001
44
0.0000000001
40
-1
40
-1
40
-1
40
-1
40
-1
40
-1
40
-0.9857142857142841
40
-0.97142857142856986
40
-0.95714285714285563
40
-0.94285714285714139
40
-0.92857142857142716
40
-0.91428571428571292
40
-0.89999999999999869
40
-0.88571428571428445
40
-0.87142857142857022
40
-0.85714285714285599
40
-0.84285714285714175
40
-0.82857142857142752
40
-0.81428571428571328
40
-0.79999999999999905
40
-0.78571428571428481
40
-0.77142857142857058
40
-0.75714285714285634
40
-0.74285714285714211
40
-0.72857142857142787
40
-0.71428571428571364
40
-0.6999999999999994
40
-0.68571428571428517
40
-0.67142857142857093
40
-0.6571428571428567
40
-0.64285714285714246
40
-0.62857142857142823
40
-0.61428571428571399
40
-0.59999999999999976
40
-0.58571428571428552
40
-0.57142857142857129
40
-0.55714285714285705
40
-0.54285714285714282
40
-0.52857142857142858
40
-0.51428571428571435
40
-0.50000000000000011
40
-0.48571428571428582
40
-0.47142857142857153
40
-0.45714285714285724
40
-0.44285714285714295
40
-0.42857142857142866
40
-0.41428571428571437
40
-0.40000000000000008
40
-0.38571428571428579
40
-0.3714285714285715
40
-0.35714285714285721
40
-0.34285714285714292
40
-0.32857142857142863
40
-0.31428571428571433
40
-0.30000000000000004
40
-0.28571428571428575
40
-0.27142857142857146
40
-0.25714285714285717
40
-0.24285714285714291
40
-0.22857142857142862
40
-0.21428571428571433
40
-0.20000000000000004
40
-0.18571428571428575
40
-0.17142857142857146
40
-0.15714285714285717
40
-0.14285714285714288
40
-0.12857142857142859
40
-0.11514249594621977
40
-0.11514249594621977
40
-0.11514249594621977
40
-0.11514249594621977
40
-0.11514249594621977
40
-0.11514249594621977
41
1
41
1
41
1
41
1
41
1
41
1
41
1
41
1
41
1
41
1
41
1
41
1
41
1
41
1
41
1
41
1
41
1
41
1
41
1
41
1
41
1
41
1
41
1
41
1
41
1
41
1
41
1
41
1
41
1
41
1
41
1
41
1
41
1
41
1
41
1
41
1
41
1
41
1
41
1
41
1
41
1
41
1
41
1
41
1
41
1
41
1
41
1
41
1
41
1
41
1
41
1
41
1
41
1
41
1
41
1
41
1
41
1
41
1
41
1
41
1
41
1
41
1
41
1
41
1
41
1
41
1
41
1
10
-92.677052913681308
20
-49.355484631748027
30
0
10
-92.642644812782336
20
-49.354561975297571
30
0
10
-92.573845650066872
20
-49.352653119979273
30
0
10
-92.470698023249923
20
-49.349599209748604
30
0
10
-92.333270122560066
20
-49.345145948274912
30
0
10
-92.16165605824726
20
-49.338942798405931
30
0
10
-91.990213556298116
20
-49.332101532332011
30
0
10
-91.81894386517169
20
-49.324620018271574
30
0
10
-91.647848831638981
20
-49.316495558950358
30
0
10
-91.476931026973858
20
-49.307724908299434
30
0
10
-91.306193576628772
20
-49.29830439414615
30
0
10
-91.135639959617265
20
-49.288230052895784
30
0
10
-90.96527381225286
20
-49.277497768650498
30
0
10
-90.795098742022432
20
-49.266103404619784
30
0
10
-90.625118101911184
20
-49.254042969666116
30
0
10
-90.455335044910328
20
-49.24131256345693
30
0
10
-90.285752641751174
20
-49.227908274075759
30
0
10
-90.116373978973513
20
-49.21382609353293
30
0
10
-89.947202255813764
20
-49.19906183755522
30
0
10
-89.778240900471445
20
-49.183611050716252
30
0
10
-89.609493554643223
20
-49.167469028321314
30
0
10
-89.440964010464526
20
-49.150630880742121
30
0
10
-89.272656158625523
20
-49.13309159329701
30
0
10
-89.104573937675596
20
-49.114846081673932
30
0
10
-88.936721262883665
20
-49.095889282676566
30
0
10
-88.769102057585599
20
-49.076216088401992
30
0
10
-88.601720331773478
20
-49.055821210895026
30
0
10
-88.434580248626972
20
-49.034699065163636
30
0
10
-88.267686184693702
20
-49.012843668030293
30
0
10
-88.101042815775514
20
-48.990248488818892
30
0
10
-87.934655074499204
20
-48.966906543803539
30
0
10
-87.768528037424872
20
-48.942810623432962
30
0
10
-87.602666822208704
20
-48.917953504576829
30
0
10
-87.437076501021323
20
-48.892328127906723
30
0
10
-87.271761949773889
20
-48.865927911555772
30
0
10
-87.106727972339144
20
-48.838746490379926
30
0
10
-86.941979592075285
20
-48.810777106876756
30
0
10
-86.777522313482677
20
-48.78201206500492
30
0
10
-86.613362346126038
20
-48.752442265309895
30
0
10
-86.449506963865886
20
-48.722056454916192
30
0
10
-86.285964269923738
20
-48.690841734146929
30
0
10
-86.122742586953905
20
-48.658784856247365
30
0
10
-85.959849904174902
20
-48.625873407999514
30
0
10
-85.797293415059315
20
-48.592096798932062
30
0
10
-85.635078723157932
20
-48.557447955263136
30
0
10
-85.473210492240455
20
-48.521921952563112
30
0
10
-85.311693978404136
20
-48.485512779845322
30
0
10
-85.150536415930006
20
-48.448210413928038
30
0
10
-84.989748198181289
20
-48.409998330840345
30
0
10
-84.82934480824234
20
-48.370849424587057
30
0
10
-84.669345320460366
20
-48.330729214398588
30
0
10
-84.509769031077937
20
-48.289603029908967
30
0
10
-84.350632381627321
20
-48.247442572994004
30
0
10
-84.191946371204679
20
-48.204231446198818
30
0
10
-84.033712201885336
20
-48.159974425210059
30
0
10
-83.87592560042556
20
-48.114688348992978
30
0
10
-83.71858506285929
20
-48.068384700980182
30
0
10
-83.561699444701944
20
-48.021053573454111
30
0
10
-83.405294527144932
20
-47.972649812484576
30
0
10
-83.249423355570684
20
-47.92307114551906
30
0
10
-83.094155376350045
20
-47.872181383934418
30
0
10
-82.939558447318461
20
-47.819848808582606
30
0
10
-82.787527682977156
20
-47.766628290574111
30
0
10
-82.66684406130048
20
-47.722975195135042
30
0
10
-82.577092231921881
20
-47.689772630790387
30
0
10
-82.517992146414869
20
-47.667607188982366
30
0
10
-82.489384136703805
20
-47.656808623560451
30
0
0
CIRCLE
5
174
100
AcDbEntity
8
0
100
AcDbCircle
10
-85.545720744318743
20
-11.688786357092948
30
0
40
2.5500000000000318
210
0
220
0
230
1
0
SPLINE
5
175
100
AcDbEntity
8
0
100
AcDbSpline
70
4
71
5
72
73
73
67
74
0
42
0.000000001
43
0.0000000001
44
0.0000000001
40
0.11514249594623162
40
0.11514249594623162
40
0.11514249594623162
40
0.11514249594623162
40
0.11514249594623162
40
0.11514249594623162
40
0.12857142857142859
40
0.14285714285714288
40
0.15714285714285717
40
0.17142857142857146
40
0.18571428571428575
40
0.20000000000000004
40
0.21428571428571433
40
0.22857142857142862
40
0.24285714285714291
40
0.25714285714285717
40
0.27142857142857146
40
0.28571428571428575
40
0.30000000000000004
40
0.31428571428571433
40
0.32857142857142863
40
0.34285714285714292
40
0.35714285714285721
40
0.3714285714285715
40
0.38571428571428579
40
0.40000000000000008
40
0.41428571428571437
40
0.42857142857142866
40
0.44285714285714295
40
0.45714285714285724
40
0.47142857142857153
40
0.48571428571428582
40
0.50000000000000011
40
0.51428571428571435
40
0.52857142857142858
40
0.54285714285714282
40
0.55714285714285705
40
0.57142857142857129
40
0.58571428571428552
40
0.59999999999999976
40
0.61428571428571399
40
0.62857142857142823
40
0.64285714285714246
40
0.6571428571428567
40
0.67142857142857093
40
0.68571428571428517
40
0.6999999999999994
40
0.71428571428571364
40
0.72857142857142787
40
0.74285714285714211
40
0.75714285714285634
40
0.77142857142857058
40
0.78571428571428481
40
0.79999999999999905
40
0.81428571428571328
40
0.82857142857142752
40
0.84285714285714175
40
0.85714285714285599
40
0.87142857142857022
40
0.88571428571428445
40
0.89999999999999869
40
0.91428571428571292
40
0.92857142857142716
40
0.94285714285714139
40
0.95714285714285563
40
0.97142857142856986
40
0.9857142857142841
40
1
40
1
40
1
40
1
40
1
40
1
41
1
41
1
41
1
41
1
41
1
41
1
41
1
41
1
41
1
41
1
41
1
41
1
41
1
41
1
41
1
41
1
41
1
41
1
41
1
41
1
41
1
41
1
41
1
41
1
41
1
41
1
41
1
41
1
41
1
41
1
41
1
41
1
41
1
41
1
41
1
41
1
41
1
41
1
41
1
41
1
41
1
41
1
41
1
41
1
41
1
41
1
41
1
41
1
41
1
41
1
41
1
41
1
41
1
41
1
41
1
41
1
41
1
41
1
41
1
41
1
41
1
41
1
41
1
41
1
41
1
41
1
41
1
10
-79.911924133018573
20
-51.862841079081477
30
0
10
-79.934533489886633
20
-51.883428556265692
30
0
10
-79.981113920503034
20
-51.926024218029141
30
0
10
-80.051444099826028
20
-51.990920034783841
30
0
10
-80.145128510378612
20
-52.078631838446881
30
0
10
-80.261568861823918
20
-52.189930631785202
30
0
10
-80.378383064959223
20
-52.303919012135218
30
0
10
-80.494216362025412
20
-52.419160326324921
30
0
10
-80.609155308830253
20
-52.535534313338346
30
0
10
-80.723289722332822
20
-52.652917267664975
30
0
10
-80.836686645944951
20
-52.771215494755694
30
0
10
-80.949374607697067
20
-52.890385523945447
30
0
10
-81.061358415110305
20
-53.010414966902566
30
0
10
-81.172628519157598
20
-53.131310377039966
30
0
10
-81.283171856223063
20
-53.253083206575901
30
0
10
-81.39298362540805
20
-53.37573455256981
30
0
10
-81.502073443466571
20
-53.499247170466489
30
0
10
-81.610459059912529
20
-53.623593563673936
30
0
10
-81.718162605957332
20
-53.748740799097249
30
0
10
-81.825206144619244
20
-53.874656227426939
30
0
10
-81.931606798343651
20
-54.001313747269421
30
0
10
-82.037374571608268
20
-54.128696596344483
30
0
10
-82.142515110838502
20
-54.256793778431245
30
0
10
-82.247031385644505
20
-54.385597881381941
30
0
10
-82.350925666418036
20
-54.515102514103056
30
0
10
-82.454201711986116
20
-54.645299472364492
30
0
10
-82.556865692759544
20
-54.776177538761914
30
0
10
-82.658925041967208
20
-54.907723959366422
30
0
10
-82.760387784148065
20
-55.039925304737963
30
0
10
-82.861261734212789
20
-55.172768498522572
30
0
10
-82.961553616283169
20
-55.306241950964406
30
0
10
-83.061268718949307
20
-55.440335998234964
30
0
10
-83.16041140044328
20
-55.57504224185881
30
0
10
-83.25898540118699
20
-55.710353138149138
30
0
10
-83.356994211652747
20
-55.846261517109063
30
0
10
-83.454441482709484
20
-55.982760046164913
30
0
10
-83.551331201547612
20
-56.119841001111496
30
0
10
-83.647667480656125
20
-56.257496542851243
30
0
10
-83.743454439082129
20
-56.395718875068198
30
0
10
-83.83869606000529
20
-56.534500432214465
30
0
10
-83.933396039531004
20
-56.673834083255215
30
0
10
-84.027557721798459
20
-56.813713212352241
30
0
10
-84.121184193027929
20
-56.954131574551887
30
0
10
-84.214278344323716
20
-57.095083196243678
30
0
10
-84.306842945703437
20
-57.236562262770377
30
0
10
-84.398880731013122
20
-57.378562986958755
30
0
10
-84.490394442343998
20
-57.521079551306315
30
0
10
-84.581386781473768
20
-57.66410621256486
30
0
10
-84.671860383499649
20
-57.807637372072179
30
0
10
-84.761817787039689
20
-57.951667649166112
30
0
10
-84.851261405537755
20
-58.096191966577223
30
0
10
-84.940193514785761
20
-58.241205574144772
30
0
10
-85.028616284668871
20
-58.386703902152384
30
0
10
-85.116531806647288
20
-58.532682438585525
30
0
10
-85.203942124514754
20
-58.679136603394539
30
0
10
-85.290849272177397
20
-58.826061597109188
30
0
10
-85.377255297777808
20
-58.973452327371589
30
0
10
-85.463162217756036
20
-59.121303685624085
30
0
10
-85.548571984261656
20
-59.269610772608615
30
0
10
-85.633486450298875
20
-59.418369136395114
30
0
10
-85.717907340802242
20
-59.567575012277388
30
0
10
-85.801836220644276
20
-59.717225530233492
30
0
10
-85.885274422467788
20
-59.867318610069731
30
0
10
-85.9516332688071
20
-59.987746027787992
30
0
10
-86.001182365392481
20
-60.078264790004631
30
0
10
-86.034117334197674
20
-60.138698690662942
30
0
10
-86.050560378036835
20
-60.168937655785854
30
0
0
ARC
5
176
100
AcDbEntity
8
0
100
AcDbCircle
10
-22.843510547446236
20
30.657953187745779
30
0
40
78.212497405591861
210
0
220
0
230
1
100
AcDbArc
50
214.03362754928887
51
248.63428245376258
0
LINE
5
177
100
AcDbEntity
8
0
100
AcDbLine
10
-91.557519736981462
20
-21.063541018836851
30
0
11
-91.140994937582406
21
-22.798491670012886
31
0
0
SPLINE
5
178
100
AcDbEntity
8
0
100
AcDbSpline
70
4
71
5
72
73
73
67
74
0
42
0.000000001
43
0.0000000001
44
0.0000000001
40
-1
40
-1
40
-1
40
-1
40
-1
40
-1
40
-0.9857142857142841
40
-0.97142857142856986
40
-0.95714285714285563
40
-0.94285714285714139
40
-0.92857142857142716
40
-0.91428571428571292
40
-0.89999999999999869
40
-0.88571428571428445
40
-0.87142857142857022
40
-0.85714285714285599
40
-0.84285714285714175
40
-0.82857142857142752
40
-0.81428571428571328
40
-0.79999999999999905
40
-0.78571428571428481
40
-0.77142857142857058
40
-0.75714285714285634
40
-0.74285714285714211
40
-0.72857142857142787
40
-0.71428571428571364
40
-0.6999999999999994
40
-0.68571428571428517
40
-0.67142857142857093
40
-0.6571428571428567
40
-0.64285714285714246
40
-0.62857142857142823
40
-0.61428571428571399
40
-0.59999999999999976
40
-0.58571428571428552
40
-0.57142857142857129
40
-0.55714285714285705
40
-0.54285714285714282
40
-0.52857142857142858
40
-0.51428571428571435
40
-0.50000000000000011
40
-0.48571428571428582
40
-0.47142857142857153
40
-0.45714285714285724
40
-0.44285714285714295
40
-0.42857142857142866
40
-0.41428571428571437
40
-0.40000000000000008
40
-0.38571428571428579
40
-0.3714285714285715
40
-0.35714285714285721
40
-0.34285714285714292
40
-0.32857142857142863
40
-0.31428571428571433
40
-0.30000000000000004
40
-0.28571428571428575
40
-0.27142857142857146
40
-0.25714285714285717
40
-0.24285714285714291
40
-0.22857142857142862
40
-0.21428571428571433
40
-0.20000000000000004
40
-0.18571428571428575
40
-0.17142857142857146
40
-0.15714285714285717
40
-0.14285714285714288
40
-0.12857142857142859
40
-0.11514249594621535
40
-0.11514249594621535
40
-0.11514249594621535
40
-0.11514249594621535
40
-0.11514249594621535
40
-0.11514249594621535
41
1
41
1
41
1
41
1
41
1
41
1
41
1
41
1
41
1
41
1
41
1
41
1
41
1
41
1
41
1
41
1
41
1
41
1
41
1
41
1
41
1
41
1
41
1
41
1
41
1
41
1
41
1
41
1
41
1
41
1
41
1
41
1
41
1
41
1
41
1
41
1
41
1
41
1
41
1
41
1
41
1
41
1
41
1
41
1
41
1
41
1
41
1
41
1
41
1
41
1
41
1
41
1
41
1
41
1
41
1
41
1
41
1
41
1
41
1
41
1
41
1
41
1
41
1
41
1
41
1
41
1
41
1
10
-103.39279860140905
20
-18.301070935015492
30
0
10
-103.35978943631258
20
-18.310826124507955
30
0
10
-103.2937676755632
20
-18.330270805696664
30
0
10
-103.19472474277802
20
-18.359240734087475
30
0
10
-103.0626469088304
20
-18.397472987558597
30
0
10
-102.89751535594961
20
-18.444605103800566
30
0
10
-102.73234977982108
20
-18.491077319781699
30
0
10
-102.56715070904308
20
-18.536887222262187
30
0
10
-102.40191906649572
20
-18.582031675298115
30
0
10
-102.2366562945152
20
-18.626506797127195
30
0
10
-102.0713642308198
20
-18.670308129487736
30
0
10
-101.90604495932979
20
-18.713430827702876
30
0
10
-101.74070066650253
20
-18.755869853638451
30
0
10
-101.57533350492329
20
-18.797620158198161
30
0
10
-101.40994543014125
20
-18.838676909455224
30
0
10
-101.24453823556013
20
-18.879035423645085
30
0
10
-101.07911363277032
20
-18.918691031405942
30
0
10
-100.91367331870869
20
-18.957638967119834
30
0
10
-100.7482190430183
20
-18.995874262688048
30
0
10
-100.58275268930822
20
-19.03339162137636
30
0
10
-100.41727626720716
20
-19.070185443408057
30
0
10
-100.25179187227198
20
-19.106249906636002
30
0
10
-100.08630165514711
20
-19.141579039525151
30
0
10
-99.920807790476715
20
-19.1761667895287
30
0
10
-99.755312437289149
20
-19.210007131376155
30
0
10
-99.589817748469741
20
-19.243093994785699
30
0
10
-99.424325903679517
20
-19.275421111457419
30
0
10
-99.258839136480248
20
-19.306981883254956
30
0
10
-99.093359760312552
20
-19.337769267410746
30
0
10
-98.927890204038249
20
-19.367775607980494
30
0
10
-98.762433000774266
20
-19.396992738780696
30
0
10
-98.596990750742307
20
-19.425412234377248
30
0
10
-98.431566089052581
20
-19.453025643722277
30
0
10
-98.266161658173587
20
-19.479824685608552
30
0
10
-98.100780061463695
20
-19.505801593569313
30
0
10
-97.935423900739693
20
-19.530948829514486
30
0
10
-97.770095865315994
20
-19.555258414374311
30
0
10
-97.604798812076041
20
-19.578721327794373
30
0
10
-97.439535834780671
20
-19.601326996818123
30
0
10
-97.274310373952602
20
-19.623062471578475
30
0
10
-97.109126149994097
20
-19.643912979720501
30
0
10
-96.943986984747411
20
-19.663863350990212
30
0
10
-96.778896640515569
20
-19.68289931091142
30
0
10
-96.613858686061917
20
-19.701008564442109
30
0
10
-96.44887626476114
20
-19.718182652423511
30
0
10
-96.283952290389408
20
-19.734415450260638
30
0
10
-96.119089904295151
20
-19.749699616942081
30
0
10
-95.95429288935506
20
-19.764023384339772
30
0
10
-95.789566024057095
20
-19.777367825497638
30
0
10
-95.624915657476379
20
-19.789702376546103
30
0
10
-95.460349275251303
20
-19.800988350027147
30
0
10
-95.295874515466835
20
-19.8111868095964
30
0
10
-95.131498270348118
20
-19.820265761425567
30
0
10
-94.967225933565004
20
-19.828206211700714
30
0
10
-94.803060124127327
20
-19.835012330908015
30
0
10
-94.639001981465327
20
-19.840701454360058
30
0
10
-94.475053623798033
20
-19.845284968201323
30
0
10
-94.31122041156803
20
-19.848750713127693
30
0
10
-94.147512910813575
20
-19.851047778373356
30
0
10
-93.983949966734514
20
-19.852062505036137
30
0
10
-93.820555542155404
20
-19.851643909929802
30
0
10
-93.657353470257561
20
-19.849645751475894
30
0
10
-93.49631757663937
20
-19.846010120872577
30
0
10
-93.368051083485923
20
-19.841786850039604
30
0
10
-93.272431864666657
20
-19.837944175416148
30
0
10
-93.209374845025081
20
-19.835126518338743
30
0
10
-93.178830070740901
20
-19.833696833503552
30
0
0
LINE
5
179
100
AcDbEntity
8
0
100
AcDbLine
10
-103.98773678204371
20
-14.544779095895326
30
0
11
-99.306845068717692
21
-11.7537449447792
31
0
0
CIRCLE
5
180
100
AcDbEntity
8
0
100
AcDbCircle
10
-52.22473914285726
20
-68.755179336739715
30
0
40
2.5500000000000318
210
0
220
0
230
1
0
SPLINE
5
181
100
AcDbEntity
8
0
100
AcDbSpline
70
0
71
3
72
14
73
10
74
0
42
0.000000001
43
0.0000000001
44
0.0000000001
40
0
40
0
40
0
40
0
40
0.06201481015017505
40
0.06201481015017505
40
0.12402962030034988
40
0.12402962030034988
40
0.17275024583430992
40
0.17275024583430992
40
0.22147087136827143
40
0.22147087136827143
40
0.22147087136827143
40
0.22147087136827143
10
-70.814939941033003
20
-63.725302546031571
30
0
10
-70.685749026063121
20
-63.56392960488818
30
0
10
-70.589312970460782
20
-63.378865618544779
30
0
10
-70.472806770789887
20
-62.982188949185023
30
0
10
-70.453850489491003
20
-62.774368711333246
30
0
10
-70.492076392256195
20
-62.407235266802715
30
0
10
-70.533582347577209
20
-62.249239467459745
30
0
10
-70.663067273340829
20
-61.951361299417087
30
0
10
-70.750282868598688
20
-61.813235064106927
30
0
10
-70.856922483827717
20
-61.690750658107959
30
0
0
ARC
5
182
100
AcDbEntity
8
0
100
AcDbCircle
10
-4.6677101254918609e-11
20
-3.3912899145710775e-11
30
0
40
104.99999999994236
210
0
220
0
230
1
100
AcDbArc
50
214.96231275199304
51
217.03768724800656
0
LINE
5
183
100
AcDbEntity
8
0
100
AcDbLine
10
-72.015699910729708
20
-60.333996610598611
30
0
11
-70.856922483827731
21
-61.690750658107952
31
0
0
LINE
5
184
100
AcDbEntity
8
0
100
AcDbLine
10
-61.690750658107881
20
-70.856922483827589
30
0
11
-60.33399661059876
21
-72.015699910729893
31
0
0
SPLINE
5
185
100
AcDbEntity
8
0
100
AcDbSpline
70
0
71
3
72
14
73
10
74
0
42
0.000000001
43
0.0000000001
44
0.0000000001
40
0
40
0
40
0
40
0
40
0.062014810150174605
40
0.062014810150174605
40
0.12402962030034982
40
0.12402962030034982
40
0.17275024583428564
40
0.17275024583428564
40
0.22147087136822108
40
0.22147087136822108
40
0.22147087136822108
40
0.22147087136822108
10
-59.97425690638778
20
-74.018635572144333
30
0
10
-59.871900835680989
20
-73.839039488018059
30
0
10
-59.805602453651467
20
-73.641168023673856
30
0
10
-59.752584541194842
20
-73.231149517341706
30
0
10
-59.766371890907813
20
-73.022922475751656
30
0
10
-59.861559493371317
20
-72.666288901796193
30
0
10
-59.927270429855959
20
-72.516731254838845
30
0
10
-60.10175959318039
20
-72.242776366438036
30
0
10
-60.209509123463349
20
-72.119994219279292
30
0
10
-60.33399661059876
20
-72.015699910729893
30
0
0
SPLINE
5
186
100
AcDbEntity
8
0
100
AcDbSpline
70
4
71
5
72
73
73
67
74
0
42
0.000000001
43
0.0000000001
44
0.0000000001
40
0.1151424959462274
40
0.1151424959462274
40
0.1151424959462274
40
0.1151424959462274
40
0.1151424959462274
40
0.1151424959462274
40
0.12857142857142859
40
0.14285714285714288
40
0.15714285714285717
40
0.17142857142857146
40
0.18571428571428575
40
0.20000000000000004
40
0.21428571428571433
40
0.22857142857142862
40
0.24285714285714291
40
0.25714285714285717
40
0.27142857142857146
40
0.28571428571428575
40
0.30000000000000004
40
0.31428571428571433
40
0.32857142857142863
40
0.34285714285714292
40
0.35714285714285721
40
0.3714285714285715
40
0.38571428571428579
40
0.40000000000000008
40
0.41428571428571437
40
0.42857142857142866
40
0.44285714285714295
40
0.45714285714285724
40
0.47142857142857153
40
0.48571428571428582
40
0.50000000000000011
40
0.51428571428571435
40
0.52857142857142858
40
0.54285714285714282
40
0.55714285714285705
40
0.57142857142857129
40
0.58571428571428552
40
0.59999999999999976
40
0.61428571428571399
40
0.62857142857142823
40
0.64285714285714246
40
0.6571428571428567
40
0.67142857142857093
40
0.68571428571428517
40
0.6999999999999994
40
0.71428571428571364
40
0.72857142857142787
40
0.74285714285714211
40
0.75714285714285634
40
0.77142857142857058
40
0.78571428571428481
40
0.79999999999999905
40
0.81428571428571328
40
0.82857142857142752
40
0.84285714285714175
40
0.85714285714285599
40
0.87142857142857022
40
0.88571428571428445
40
0.89999999999999869
40
0.91428571428571292
40
0.92857142857142716
40
0.94285714285714139
40
0.95714285714285563
40
0.97142857142856986
40
0.9857142857142841
40
1
40
1
40
1
40
1
40
1
40
1
41
1
41
1
41
1
41
1
41
1
41
1
41
1
41
1
41
1
41
1
41
1
41
1
41
1
41
1
41
1
41
1
41
1
41
1
41
1
41
1
41
1
41
1
41
1
41
1
41
1
41
1
41
1
41
1
41
1
41
1
41
1
41
1
41
1
41
1
41
1
41
1
41
1
41
1
41
1
41
1
41
1
41
1
41
1
41
1
41
1
41
1
41
1
41
1
41
1
41
1
41
1
41
1
41
1
41
1
41
1
41
1
41
1
41
1
41
1
41
1
41
1
41
1
41
1
41
1
41
1
41
1
41
1
10
-70.814939941033003
20
-63.725302546031557
30
0
10
-70.834050348220103
20
-63.749173439855255
30
0
10
-70.873393866878843
20
-63.798531463083762
30
0
10
-70.932706222610747
20
-63.873630368624355
30
0
10
-71.011516073525343
20
-63.974917765082324
30
0
10
-71.109111883827168
20
-64.103061569672349
30
0
10
-71.206656198978976
20
-64.233920331283954
30
0
10
-71.303035682608169
20
-64.365863153524387
30
0
10
-71.398354637844534
20
-64.498784796301805
30
0
10
-71.49272112765675
20
-64.632577127593777
30
0
10
-71.586216027097649
20
-64.767158094286827
30
0
10
-71.678874313280517
20
-64.902489223679112
30
0
10
-71.770702672499922
20
-65.038559032021823
30
0
10
-71.861690648113608
20
-65.175372498247626
30
0
10
-71.951823545818769
20
-65.312938889979151
30
0
10
-72.041096452205849
20
-65.451258539743193
30
0
10
-72.129521563273528
20
-65.590315919685466
30
0
10
-72.217120711424343
20
-65.73008664837829
30
0
10
-72.303920907268832
20
-65.870541660272067
30
0
10
-72.389949049670207
20
-66.011652159440928
30
0
10
-72.475226133425608
20
-66.153395044383373
30
0
10
-72.559764662039413
20
-66.295755324235742
30
0
10
-72.643571932608083
20
-66.438723021454436
30
0
10
-72.72665203769634
20
-66.582291279696932
30
0
10
-72.809008219530938
20
-66.726454141722186
30
0
10
-72.890645474085787
20
-66.871204092317839
30
0
10
-72.971571650592438
20
-67.016531017449438
30
0
10
-73.05179608591834
20
-67.16242348302319
30
0
10
-73.131328806634372
20
-67.308869480252227
30
0
10
-73.210179577029123
20
-67.455857316295564
30
0
10
-73.288356851476593
20
-67.603376595970929
30
0
10
-73.365867365211329
20
-67.751418601745257
30
0
10
-73.442716736619388
20
-67.899975720320057
30
0
10
-73.518909840164483
20
-68.049041086014739
30
0
10
-73.594451244980021
20
-68.198608163137067
30
0
10
-73.669345704053967
20
-68.3486702805113
30
0
10
-73.743598363819643
20
-68.49922043276402
30
0
10
-73.817214512439548
20
-68.650251520645
30
0
10
-73.890199437861014
20
-68.801756488184765
30
0
10
-73.962558257736575
20
-68.953728486086419
30
0
10
-74.034295738206055
20
-69.106161049308369
30
0
10
-74.105416217181855
20
-69.259048166602895
30
0
10
-74.175923719813767
20
-69.412384152693335
30
0
10
-74.245822036090303
20
-69.566163559782623
30
0
10
-74.315114811538365
20
-69.720381078127829
30
0
10
-74.383805651659202
20
-69.875031419473174
30
0
10
-74.451898174842228
20
-70.030109266896815
30
0
10
-74.519395948043709
20
-70.185609370510662
30
0
10
-74.586302449742192
20
-70.341526612801317
30
0
10
-74.652621029022114
20
-70.497856076478882
30
0
10
-74.718354863873799
20
-70.654593124329324
30
0
10
-74.783506945159203
20
-70.811733420686537
30
0
10
-74.848080130909722
20
-70.969272791539765
30
0
10
-74.912077192670878
20
-71.12720710760135
30
0
10
-74.975500865551481
20
-71.285532164929421
30
0
10
-75.038353909219481
20
-71.444243541316169
30
0
10
-75.100639143221684
20
-71.603336527499181
30
0
10
-75.16235935832691
20
-71.762806393256369
30
0
10
-75.223517249063406
20
-71.922648605031156
30
0
10
-75.28411534205695
20
-72.082859055577785
30
0
10
-75.344155929935297
20
-72.243434296379121
30
0
10
-75.403641007275041
20
-72.404371737547905
30
0
10
-75.462572215725913
20
-72.56566953297235
30
0
10
-75.509275075883679
20
-72.694995099968423
30
0
10
-75.544053886724612
20
-72.792150612432465
30
0
10
-75.567129426491576
20
-72.856992635715514
30
0
10
-75.578639612843062
20
-72.889431567765683
30
0
0
SPLINE
5
187
100
AcDbEntity
8
0
100
AcDbSpline
70
4
71
5
72
73
73
67
74
0
42
0.000000001
43
0.0000000001
44
0.0000000001
40
0.11514249594622705
40
0.11514249594622705
40
0.11514249594622705
40
0.11514249594622705
40
0.11514249594622705
40
0.11514249594622705
40
0.12857142857142859
40
0.14285714285714288
40
0.15714285714285717
40
0.17142857142857146
40
0.18571428571428575
40
0.20000000000000004
40
0.21428571428571433
40
0.22857142857142862
40
0.24285714285714291
40
0.25714285714285717
40
0.27142857142857146
40
0.28571428571428575
40
0.30000000000000004
40
0.31428571428571433
40
0.32857142857142863
40
0.34285714285714292
40
0.35714285714285721
40
0.3714285714285715
40
0.38571428571428579
40
0.40000000000000008
40
0.41428571428571437
40
0.42857142857142866
40
0.44285714285714295
40
0.45714285714285724
40
0.47142857142857153
40
0.48571428571428582
40
0.50000000000000011
40
0.51428571428571435
40
0.52857142857142858
40
0.54285714285714282
40
0.55714285714285705
40
0.57142857142857129
40
0.58571428571428552
40
0.59999999999999976
40
0.61428571428571399
40
0.62857142857142823
40
0.64285714285714246
40
0.6571428571428567
40
0.67142857142857093
40
0.68571428571428517
40
0.6999999999999994
40
0.71428571428571364
40
0.72857142857142787
40
0.74285714285714211
40
0.75714285714285634
40
0.77142857142857058
40
0.78571428571428481
40
0.79999999999999905
40
0.81428571428571328
40
0.82857142857142752
40
0.84285714285714175
40
0.85714285714285599
40
0.87142857142857022
40
0.88571428571428445
40
0.89999999999999869
40
0.91428571428571292
40
0.92857142857142716
40
0.94285714285714139
40
0.95714285714285563
40
0.97142857142856986
40
0.9857142857142841
40
1
40
1
40
1
40
1
40
1
40
1
41
1
41
1
41
1
41
1
41
1
41
1
41
1
41
1
41
1
41
1
41
1
41
1
41
1
41
1
41
1
41
1
41
1
41
1
41
1
41
1
41
1
41
1
41
1
41
1
41
1
41
1
41
1
41
1
41
1
41
1
41
1
41
1
41
1
41
1
41
1
41
1
41
1
41
1
41
1
41
1
41
1
41
1
41
1
41
1
41
1
41
1
41
1
41
1
41
1
41
1
41
1
41
1
41
1
41
1
41
1
41
1
41
1
41
1
41
1
41
1
41
1
41
1
41
1
41
1
41
1
41
1
41
1
10
-47.656808623560508
20
-82.48938413670389
30
0
10
-47.667607188982409
20
-82.517992146414926
30
0
10
-47.689772630790429
20
-82.57709223192191
30
0
10
-47.722975195135064
20
-82.66684406130048
30
0
10
-47.766628290574133
20
-82.787527682977185
30
0
10
-47.81984880858262
20
-82.939558447318433
30
0
10
-47.872181383934446
20
-83.094155376350045
30
0
10
-47.923071145519067
20
-83.24942335557067
30
0
10
-47.972649812484605
20
-83.405294527144918
30
0
10
-48.021053573454139
20
-83.561699444701944
30
0
10
-48.068384700980204
20
-83.71858506285929
30
0
10
-48.114688348992999
20
-83.875925600425546
30
0
10
-48.159974425210081
20
-84.033712201885308
30
0
10
-48.20423144619884
20
-84.191946371204665
30
0
10
-48.247442572994018
20
-84.350632381627292
30
0
10
-48.289603029908989
20
-84.509769031077894
30
0
10
-48.330729214398609
20
-84.669345320460337
30
0
10
-48.370849424587078
20
-84.82934480824234
30
0
10
-48.409998330840367
20
-84.989748198181246
30
0
10
-48.448210413928059
20
-85.150536415929992
30
0
10
-48.485512779845337
20
-85.311693978404136
30
0
10
-48.521921952563133
20
-85.47321049224044
30
0
10
-48.557447955263143
20
-85.635078723157903
30
0
10
-48.592096798932083
20
-85.797293415059301
30
0
10
-48.625873407999535
20
-85.959849904174902
30
0
10
-48.658784856247379
20
-86.122742586953876
30
0
10
-48.690841734146943
20
-86.285964269923738
30
0
10
-48.722056454916199
20
-86.449506963865872
30
0
10
-48.752442265309909
20
-86.613362346126024
30
0
10
-48.782012065004949
20
-86.777522313482677
30
0
10
-48.81077710687677
20
-86.94197959207527
30
0
10
-48.838746490379954
20
-87.106727972339144
30
0
10
-48.865927911555794
20
-87.271761949773861
30
0
10
-48.892328127906737
20
-87.437076501021295
30
0
10
-48.91795350457685
20
-87.602666822208661
30
0
10
-48.94281062343299
20
-87.768528037424858
30
0
10
-48.96690654380356
20
-87.934655074499176
30
0
10
-48.990248488818921
20
-88.101042815775514
30
0
10
-49.012843668030321
20
-88.267686184693673
30
0
10
-49.034699065163643
20
-88.434580248626929
30
0
10
-49.055821210895054
20
-88.601720331773436
30
0
10
-49.076216088402013
20
-88.76910205758557
30
0
10
-49.095889282676595
20
-88.936721262883637
30
0
10
-49.11484608167396
20
-89.104573937675568
30
0
10
-49.133091593297031
20
-89.272656158625509
30
0
10
-49.150630880742135
20
-89.440964010464498
30
0
10
-49.167469028321342
20
-89.609493554643208
30
0
10
-49.18361105071628
20
-89.778240900471431
30
0
10
-49.199061837555234
20
-89.947202255813735
30
0
10
-49.213826093532951
20
-90.116373978973513
30
0
10
-49.22790827407578
20
-90.285752641751159
30
0
10
-49.241312563456944
20
-90.455335044910314
30
0
10
-49.254042969666145
20
-90.625118101911184
30
0
10
-49.266103404619813
20
-90.795098742022418
30
0
10
-49.277497768650527
20
-90.96527381225286
30
0
10
-49.288230052895805
20
-91.135639959617265
30
0
10
-49.298304394146172
20
-91.306193576628786
30
0
10
-49.307724908299448
20
-91.47693102697383
30
0
10
-49.316495558950379
20
-91.647848831638981
30
0
10
-49.324620018271602
20
-91.818943865171661
30
0
10
-49.332101532332032
20
-91.990213556298102
30
0
10
-49.338942798405945
20
-92.161656058247246
30
0
10
-49.345145948274919
20
-92.333270122560066
30
0
10
-49.349599209748618
20
-92.470698023249895
30
0
10
-49.352653119979301
20
-92.573845650066858
30
0
10
-49.354561975297599
20
-92.642644812782308
30
0
10
-49.355484631748041
20
-92.677052913681308
30
0
0
SPLINE
5
188
100
AcDbEntity
8
0
100
AcDbSpline
70
0
71
3
72
11
73
7
74
0
42
0.000000001
43
0.0000000001
44
0.0000000001
40
-1
40
-1
40
-1
40
-1
40
-0.75
40
-0.5
40
-0.25
40
0
40
0
40
0
40
0
10
-74.018635572144703
20
-59.974256906387957
30
0
10
-73.858708788711297
20
-59.883110836958487
30
0
10
-73.506873416521657
20
-59.757040728268066
30
0
10
-72.9462282024665
20
-59.759154141499209
30
0
10
-72.419888221296944
20
-59.952270031008261
30
0
10
-72.133913529256589
20
-60.192894794782603
30
0
10
-72.015699910729708
20
-60.333996610598618
30
0
0
SPLINE
5
189
100
AcDbEntity
8
0
100
AcDbSpline
70
0
71
3
72
11
73
7
74
0
42
0.000000001
43
0.0000000001
44
0.0000000001
40
-1
40
-1
40
-1
40
-1
40
-0.75
40
-0.5
40
-0.25
40
0
40
0
40
0
40
0
10
-51.862841079081427
20
-79.911924133018474
30
0
10
-51.738907353991131
20
-79.775818975816264
30
0
10
-51.443249836675086
20
-79.547196068207427
30
0
10
-50.909391471913708
20
-79.375957144674558
30
0
10
-50.349136311293648
20
-79.396973270791904
30
0
10
-50.002801075659477
20
-79.53744998055987
30
0
10
-49.846770384420353
20
-79.635115764861411
30
0
0
SPLINE
5
190
100
AcDbEntity
8
0
100
AcDbSpline
70
4
71
5
72
73
73
67
74
0
42
0.000000001
43
0.0000000001
44
0.0000000001
40
-1
40
-1
40
-1
40
-1
40
-1
40
-1
40
-0.9857142857142841
40
-0.97142857142856986
40
-0.95714285714285563
40
-0.94285714285714139
40
-0.92857142857142716
40
-0.91428571428571292
40
-0.89999999999999869
40
-0.88571428571428445
40
-0.87142857142857022
40
-0.85714285714285599
40
-0.84285714285714175
40
-0.82857142857142752
40
-0.81428571428571328
40
-0.79999999999999905
40
-0.78571428571428481
40
-0.77142857142857058
40
-0.75714285714285634
40
-0.74285714285714211
40
-0.72857142857142787
40
-0.71428571428571364
40
-0.6999999999999994
40
-0.68571428571428517
40
-0.67142857142857093
40
-0.6571428571428567
40
-0.64285714285714246
40
-0.62857142857142823
40
-0.61428571428571399
40
-0.59999999999999976
40
-0.58571428571428552
40
-0.57142857142857129
40
-0.55714285714285705
40
-0.54285714285714282
40
-0.52857142857142858
40
-0.51428571428571435
40
-0.50000000000000011
40
-0.48571428571428582
40
-0.47142857142857153
40
-0.45714285714285724
40
-0.44285714285714295
40
-0.42857142857142866
40
-0.41428571428571437
40
-0.40000000000000008
40
-0.38571428571428579
40
-0.3714285714285715
40
-0.35714285714285721
40
-0.34285714285714292
40
-0.32857142857142863
40
-0.31428571428571433
40
-0.30000000000000004
40
-0.28571428571428575
40
-0.27142857142857146
40
-0.25714285714285717
40
-0.24285714285714291
40
-0.22857142857142862
40
-0.21428571428571433
40
-0.20000000000000004
40
-0.18571428571428575
40
-0.17142857142857146
40
-0.15714285714285717
40
-0.14285714285714288
40
-0.12857142857142859
40
-0.11514249594623678
40
-0.11514249594623678
40
-0.11514249594623678
40
-0.11514249594623678
40
-0.11514249594623678
40
-0.11514249594623678
41
1
41
1
41
1
41
1
41
1
41
1
41
1
41
1
41
1
41
1
41
1
41
1
41
1
41
1
41
1
41
1
41
1
41
1
41
1
41
1
41
1
41
1
41
1
41
1
41
1
41
1
41
1
41
1
41
1
41
1
41
1
41
1
41
1
41
1
41
1
41
1
41
1
41
1
41
1
41
1
41
1
41
1
41
1
41
1
41
1
41
1
41
1
41
1
41
1
41
1
41
1
41
1
41
1
41
1
41
1
41
1
41
1
41
1
41
1
41
1
41
1
41
1
41
1
41
1
41
1
41
1
41
1
10
-83.815145768392867
20
-63.245721909256943
30
0
10
-83.781305623581119
20
-63.239427999381292
30
0
10
-83.713652103484918
20
-63.226780085024913
30
0
10
-83.612252131931001
20
-63.207627929675567
30
0
10
-83.477212840323475
20
-63.181731035114353
30
0
10
-83.308682016350858
20
-63.148757901969645
30
0
10
-83.140420465891722
20
-63.115181347155954
30
0
10
-82.972429755518533
20
-63.0809994604395
30
0
10
-82.804712131212241
20
-63.046209866652561
30
0
10
-82.637270640386987
20
-63.010809761926573
30
0
10
-82.470108944470212
20
-62.974796008227898
30
0
10
-82.303231099685718
20
-62.938165234997861
30
0
10
-82.136641341446378
20
-62.900913945856935
30
0
10
-81.970343879961419
20
-62.863038619280616
30
0
10
-81.804342651286802
20
-62.824535837791373
30
0
10
-81.638641379741472
20
-62.785402242312685
30
0
10
-81.473243710209701
20
-62.745634449458514
30
0
10
-81.308153318218444
20
-62.70522898342535
30
0
10
-81.143374018180751
20
-62.664182211926175
30
0
10
-80.978909893071588
20
-62.622490270676863
30
0
10
-80.814765275728689
20
-62.580149082592143
30
0
10
-80.650944676506398
20
-62.537154411463888
30
0
10
-80.487452722663051
20
-62.493501912987512
30
0
10
-80.324294099619621
20
-62.449187181572121
30
0
10
-80.161473466499942
20
-62.404205828840766
30
0
10
-79.998995497389231
20
-62.358553423522245
30
0
10
-79.836864980128226
20
-62.312225370065818
30
0
10
-79.675086900326335
20
-62.265216803504764
30
0
10
-79.513666516623701
20
-62.217522498967298
30
0
10
-79.352609468878143
20
-62.169136737637317
30
0
10
-79.191921721483027
20
-62.120053393403026
30
0
10
-79.031609416319938
20
-62.070266139623662
30
0
10
-78.871678737984666
20
-62.019768642675395
30
0
10
-78.712135800523328
20
-61.968554723604186
30
0
10
-78.552986449447332
20
-61.916618644337412
30
0
10
-78.394236425213691
20
-61.863954869587765
30
0
10
-78.235891746440984
20
-61.810557510875213
30
0
10
-78.077959053786145
20
-61.756419828003082
30
0
10
-77.920445903832118
20
-61.701533804936105
30
0
10
-77.763361241223748
20
-61.645889465222872
30
0
10
-77.606715087372521
20
-61.589475335626062
30
0
10
-77.450517734715945
20
-61.532279634430431
30
0
10
-77.294779015967251
20
-61.474291351034438
30
0
10
-77.13950769275003
20
-61.415501150660042
30
0
10
-76.984710406209402
20
-61.355902923203885
30
0
10
-76.830392533046833
20
-61.295492534438544
30
0
10
-76.676560204973811
20
-61.23426486961732
30
0
10
-76.523222135176383
20
-61.172211160651372
30
0
10
-76.370391173976785
20
-61.109316712887519
30
0
10
-76.218086854148822
20
-61.04555717613836
30
0
10
-76.066333409183486
20
-60.980901478035094
30
0
10
-75.915155321394792
20
-60.915318393658886
30
0
10
-75.764573256694391
20
-60.848782545304715
30
0
10
-75.614600643888409
20
-60.781279458035293
30
0
10
-75.465237923170562
20
-60.712814036786654
30
0
10
-75.316478239713419
20
-60.643402244725877
30
0
10
-75.168318311662517
20
-60.573055188633305
30
0
10
-75.020768435415746
20
-60.501764468079628
30
0
10
-74.873861138386161
20
-60.429489518121358
30
0
10
-74.727664811831531
20
-60.356137623476855
30
0
10
-74.582269351717031
20
-60.281585136036796
30
0
10
-74.43776238585005
20
-60.205712573638557
30
0
10
-74.295928895762287
20
-60.129364437231771
30
0
10
-74.1835599383638
20
-60.067369706039614
30
0
10
-74.10010712833072
20
-60.020535640943336
30
0
10
-74.045202101978916
20
-59.989397802245321
30
0
10
-74.018635572144689
20
-59.974256906387957
30
0
0
ARC
5
191
100
AcDbEntity
8
0
100
AcDbCircle
10
-3.3912899145710775e-11
20
-4.6677101254918603e-11
30
0
40
104.99999999994233
210
0
220
0
230
1
100
AcDbArc
50
232.96231275199307
51
235.03768724800653
0
SPLINE
5
192
100
AcDbEntity
8
0
100
AcDbSpline
70
4
71
5
72
73
73
67
74
0
42
0.000000001
43
0.0000000001
44
0.0000000001
40
-1
40
-1
40
-1
40
-1
40
-1
40
-1
40
-0.9857142857142841
40
-0.97142857142856986
40
-0.95714285714285563
40
-0.94285714285714139
40
-0.92857142857142716
40
-0.91428571428571292
40
-0.89999999999999869
40
-0.88571428571428445
40
-0.87142857142857022
40
-0.85714285714285599
40
-0.84285714285714175
40
-0.82857142857142752
40
-0.81428571428571328
40
-0.79999999999999905
40
-0.78571428571428481
40
-0.77142857142857058
40
-0.75714285714285634
40
-0.74285714285714211
40
-0.72857142857142787
40
-0.71428571428571364
40
-0.6999999999999994
40
-0.68571428571428517
40
-0.67142857142857093
40
-0.6571428571428567
40
-0.64285714285714246
40
-0.62857142857142823
40
-0.61428571428571399
40
-0.59999999999999976
40
-0.58571428571428552
40
-0.57142857142857129
40
-0.55714285714285705
40
-0.54285714285714282
40
-0.52857142857142858
40
-0.51428571428571435
40
-0.50000000000000011
40
-0.48571428571428582
40
-0.47142857142857153
40
-0.45714285714285724
40
-0.44285714285714295
40
-0.42857142857142866
40
-0.41428571428571437
40
-0.40000000000000008
40
-0.38571428571428579
40
-0.3714285714285715
40
-0.35714285714285721
40
-0.34285714285714292
40
-0.32857142857142863
40
-0.31428571428571433
40
-0.30000000000000004
40
-0.28571428571428575
40
-0.27142857142857146
40
-0.25714285714285717
40
-0.24285714285714291
40
-0.22857142857142862
40
-0.21428571428571433
40
-0.20000000000000004
40
-0.18571428571428575
40
-0.17142857142857146
40
-0.15714285714285717
40
-0.14285714285714288
40
-0.12857142857142859
40
-0.11514249594621068
40
-0.11514249594621068
40
-0.11514249594621068
40
-0.11514249594621068
40
-0.11514249594621068
40
-0.11514249594621068
41
1
41
1
41
1
41
1
41
1
41
1
41
1
41
1
41
1
41
1
41
1
41
1
41
1
41
1
41
1
41
1
41
1
41
1
41
1
41
1
41
1
41
1
41
1
41
1
41
1
41
1
41
1
41
1
41
1
41
1
41
1
41
1
41
1
41
1
41
1
41
1
41
1
41
1
41
1
41
1
41
1
41
1
41
1
41
1
41
1
41
1
41
1
41
1
41
1
41
1
41
1
41
1
41
1
41
1
41
1
41
1
41
1
41
1
41
1
41
1
41
1
41
1
41
1
41
1
41
1
41
1
41
1
10
-72.889431567765712
20
-75.578639612843048
30
0
10
-72.856992635715528
20
-75.567129426491576
30
0
10
-72.792150612432494
20
-75.544053886724612
30
0
10
-72.694995099968452
20
-75.509275075883664
30
0
10
-72.565669532972365
20
-75.462572215725913
30
0
10
-72.404371737547933
20
-75.403641007275027
30
0
10
-72.243434296379135
20
-75.344155929935283
30
0
10
-72.082859055577813
20
-75.284115342056936
30
0
10
-71.922648605031171
20
-75.223517249063363
30
0
10
-71.762806393256383
20
-75.162359358326867
30
0
10
-71.603336527499224
20
-75.10063914322167
30
0
10
-71.444243541316183
20
-75.038353909219452
30
0
10
-71.285532164929421
20
-74.975500865551453
30
0
10
-71.127207107601379
20
-74.91207719267085
30
0
10
-70.969272791539808
20
-74.848080130909707
30
0
10
-70.811733420686551
20
-74.783506945159161
30
0
10
-70.654593124329338
20
-74.718354863873785
30
0
10
-70.497856076478897
20
-74.652621029022086
30
0
10
-70.341526612801331
20
-74.586302449742178
30
0
10
-70.185609370510676
20
-74.519395948043709
30
0
10
-70.030109266896844
20
-74.451898174842214
30
0
10
-69.875031419473174
20
-74.383805651659173
30
0
10
-69.720381078127872
20
-74.315114811538365
30
0
10
-69.566163559782638
20
-74.245822036090274
30
0
10
-69.412384152693349
20
-74.175923719813738
30
0
10
-69.259048166602895
20
-74.10541621718184
30
0
10
-69.106161049308383
20
-74.03429573820604
30
0
10
-68.953728486086447
20
-73.962558257736546
30
0
10
-68.801756488184765
20
-73.890199437860986
30
0
10
-68.650251520645028
20
-73.817214512439534
30
0
10
-68.499220432764062
20
-73.743598363819615
30
0
10
-68.348670280511328
20
-73.669345704053924
30
0
10
-68.198608163137081
20
-73.594451244980007
30
0
10
-68.049041086014753
20
-73.518909840164469
30
0
10
-67.899975720320072
20
-73.442716736619374
30
0
10
-67.751418601745272
20
-73.365867365211301
30
0
10
-67.603376595970929
20
-73.288356851476578
30
0
10
-67.455857316295592
20
-73.210179577029095
30
0
10
-67.30886948025227
20
-73.131328806634357
30
0
10
-67.16242348302319
20
-73.051796085918312
30
0
10
-67.016531017449466
20
-72.971571650592395
30
0
10
-66.871204092317882
20
-72.890645474085773
30
0
10
-66.726454141722201
20
-72.809008219530909
30
0
10
-66.58229127969696
20
-72.726652037696326
30
0
10
-66.438723021454464
20
-72.643571932608054
30
0
10
-66.295755324235756
20
-72.559764662039385
30
0
10
-66.153395044383387
20
-72.475226133425593
30
0
10
-66.011652159440956
20
-72.389949049670179
30
0
10
-65.870541660272096
20
-72.303920907268804
30
0
10
-65.730086648378318
20
-72.217120711424315
30
0
10
-65.590315919685494
20
-72.129521563273528
30
0
10
-65.451258539743208
20
-72.041096452205835
30
0
10
-65.312938889979179
20
-71.951823545818741
30
0
10
-65.17537249824764
20
-71.86169064811358
30
0
10
-65.038559032021851
20
-71.770702672499908
30
0
10
-64.902489223679126
20
-71.678874313280488
30
0
10
-64.767158094286856
20
-71.586216027097635
30
0
10
-64.632577127593805
20
-71.492721127656722
30
0
10
-64.498784796301834
20
-71.39835463784452
30
0
10
-64.365863153524401
20
-71.303035682608154
30
0
10
-64.233920331283969
20
-71.206656198978948
30
0
10
-64.103061569672363
20
-71.109111883827154
30
0
10
-63.974917765082324
20
-71.011516073525314
30
0
10
-63.873630368624312
20
-70.932706222610662
30
0
10
-63.798531463083691
20
-70.873393866878757
30
0
10
-63.749173439855142
20
-70.834050348219989
30
0
10
-63.725302546031429
20
-70.814939941032875
30
0
0
ARC
5
193
100
AcDbEntity
8
0
100
AcDbCircle
10
-2.6193467717555465e-11
20
-5.1407574918084339e-11
30
0
40
104.99999999994232
210
0
220
0
230
1
100
AcDbArc
50
241.96231275199304
51
244.03768724800656
0
SPLINE
5
194
100
AcDbEntity
8
0
100
AcDbSpline
70
4
71
5
72
73
73
67
74
0
42
0.000000001
43
0.0000000001
44
0.0000000001
40
-1
40
-1
40
-1
40
-1
40
-1
40
-1
40
-0.9857142857142841
40
-0.97142857142856986
40
-0.95714285714285563
40
-0.94285714285714139
40
-0.92857142857142716
40
-0.91428571428571292
40
-0.89999999999999869
40
-0.88571428571428445
40
-0.87142857142857022
40
-0.85714285714285599
40
-0.84285714285714175
40
-0.82857142857142752
40
-0.81428571428571328
40
-0.79999999999999905
40
-0.78571428571428481
40
-0.77142857142857058
40
-0.75714285714285634
40
-0.74285714285714211
40
-0.72857142857142787
40
-0.71428571428571364
40
-0.6999999999999994
40
-0.68571428571428517
40
-0.67142857142857093
40
-0.6571428571428567
40
-0.64285714285714246
40
-0.62857142857142823
40
-0.61428571428571399
40
-0.59999999999999976
40
-0.58571428571428552
40
-0.57142857142857129
40
-0.55714285714285705
40
-0.54285714285714282
40
-0.52857142857142858
40
-0.51428571428571435
40
-0.50000000000000011
40
-0.48571428571428582
40
-0.47142857142857153
40
-0.45714285714285724
40
-0.44285714285714295
40
-0.42857142857142866
40
-0.41428571428571437
40
-0.40000000000000008
40
-0.38571428571428579
40
-0.3714285714285715
40
-0.35714285714285721
40
-0.34285714285714292
40
-0.32857142857142863
40
-0.31428571428571433
40
-0.30000000000000004
40
-0.28571428571428575
40
-0.27142857142857146
40
-0.25714285714285717
40
-0.24285714285714291
40
-0.22857142857142862
40
-0.21428571428571433
40
-0.20000000000000004
40
-0.18571428571428575
40
-0.17142857142857146
40
-0.15714285714285717
40
-0.14285714285714288
40
-0.12857142857142859
40
-0.11514249594621852
40
-0.11514249594621852
40
-0.11514249594621852
40
-0.11514249594621852
40
-0.11514249594621852
40
-0.11514249594621852
41
1
41
1
41
1
41
1
41
1
41
1
41
1
41
1
41
1
41
1
41
1
41
1
41
1
41
1
41
1
41
1
41
1
41
1
41
1
41
1
41
1
41
1
41
1
41
1
41
1
41
1
41
1
41
1
41
1
41
1
41
1
41
1
41
1
41
1
41
1
41
1
41
1
41
1
41
1
41
1
41
1
41
1
41
1
41
1
41
1
41
1
41
1
41
1
41
1
41
1
41
1
41
1
41
1
41
1
41
1
41
1
41
1
41
1
41
1
41
1
41
1
41
1
41
1
41
1
41
1
41
1
41
1
10
-60.168937655785861
20
-86.050560378036806
30
0
10
-60.138698690662942
20
-86.034117334197646
30
0
10
-60.078264790004653
20
-86.001182365392452
30
0
10
-59.987746027788006
20
-85.951633268807086
30
0
10
-59.867318610069731
20
-85.885274422467745
30
0
10
-59.717225530233506
20
-85.801836220644262
30
0
10
-59.567575012277402
20
-85.717907340802213
30
0
10
-59.418369136395128
20
-85.633486450298832
30
0
10
-59.26961077260863
20
-85.548571984261656
30
0
10
-59.121303685624085
20
-85.463162217755993
30
0
10
-58.973452327371589
20
-85.377255297777808
30
0
10
-58.826061597109202
20
-85.290849272177383
30
0
10
-58.679136603394554
20
-85.203942124514725
30
0
10
-58.532682438585546
20
-85.116531806647245
30
0
10
-58.386703902152405
20
-85.028616284668857
30
0
10
-58.241205574144779
20
-84.940193514785733
30
0
10
-58.096191966577244
20
-84.851261405537755
30
0
10
-57.951667649166126
20
-84.761817787039661
30
0
10
-57.807637372072179
20
-84.671860383499634
30
0
10
-57.664106212564867
20
-84.581386781473753
30
0
10
-57.521079551306329
20
-84.490394442343984
30
0
10
-57.378562986958777
20
-84.398880731013094
30
0
10
-57.236562262770391
20
-84.306842945703423
30
0
10
-57.095083196243692
20
-84.214278344323716
30
0
10
-56.954131574551887
20
-84.121184193027929
30
0
10
-56.813713212352248
20
-84.027557721798445
30
0
10
-56.67383408325523
20
-83.933396039530976
30
0
10
-56.534500432214472
20
-83.838696060005276
30
0
10
-56.395718875068198
20
-83.7434544390821
30
0
10
-56.257496542851264
20
-83.647667480656111
30
0
10
-56.11984100111151
20
-83.551331201547612
30
0
10
-55.982760046164927
20
-83.454441482709456
30
0
10
-55.84626151710907
20
-83.356994211652733
30
0
10
-55.710353138149159
20
-83.25898540118699
30
0
10
-55.575042241858824
20
-83.160411400443266
30
0
10
-55.440335998234985
20
-83.061268718949293
30
0
10
-55.30624195096442
20
-82.961553616283155
30
0
10
-55.172768498522579
20
-82.861261734212746
30
0
10
-55.039925304737984
20
-82.760387784148037
30
0
10
-54.907723959366422
20
-82.658925041967208
30
0
10
-54.776177538761921
20
-82.55686569275953
30
0
10
-54.645299472364485
20
-82.454201711986101
30
0
10
-54.515102514103056
20
-82.350925666418036
30
0
10
-54.385597881381941
20
-82.24703138564449
30
0
10
-54.256793778431252
20
-82.14251511083846
30
0
10
-54.128696596344497
20
-82.03737457160824
30
0
10
-54.001313747269435
20
-81.931606798343637
30
0
10
-53.874656227426954
20
-81.825206144619244
30
0
10
-53.748740799097263
20
-81.718162605957318
30
0
10
-53.623593563673928
20
-81.610459059912515
30
0
10
-53.499247170466511
20
-81.502073443466557
30
0
10
-53.375734552569803
20
-81.392983625408007
30
0
10
-53.253083206575909
20
-81.283171856223063
30
0
10
-53.131310377039966
20
-81.17262851915757
30
0
10
-53.010414966902566
20
-81.061358415110263
30
0
10
-52.890385523945447
20
-80.949374607697052
30
0
10
-52.771215494755701
20
-80.836686645944923
30
0
10
-52.652917267664982
20
-80.723289722332794
30
0
10
-52.53553431333836
20
-80.609155308830253
30
0
10
-52.419160326324921
20
-80.494216362025441
30
0
10
-52.303919012135225
20
-80.378383064959209
30
0
10
-52.189930631785224
20
-80.261568861823903
30
0
10
-52.078631838446867
20
-80.145128510378569
30
0
10
-51.990920034783812
20
-80.051444099825915
30
0
10
-51.926024218029099
20
-79.981113920502949
30
0
10
-51.883428556265628
20
-79.934533489886505
30
0
10
-51.862841079081399
20
-79.911924133018431
30
0
0
SPLINE
5
195
100
AcDbEntity
8
0
100
AcDbSpline
70
0
71
3
72
14
73
10
74
0
42
0.000000001
43
0.0000000001
44
0.0000000001
40
0
40
0
40
0
40
0
40
0.062014810150173655
40
0.062014810150173655
40
0.12402962030034795
40
0.12402962030034795
40
0.1727502458343036
40
0.1727502458343036
40
0.22147087136825633
40
0.22147087136825633
40
0.22147087136825633
40
0.22147087136825633
10
-47.656808623560522
20
-82.48938413670389
30
0
10
-47.583807743277873
20
-82.29598716123121
30
0
10
-47.549279521018349
20
-82.090180471036135
30
0
10
-47.561055372736824
20
-81.676916144130956
30
0
10
-47.607246863154046
20
-81.473409539632513
30
0
10
-47.757052330633513
20
-81.136057338441674
30
0
10
-47.845350226943431
20
-80.998620449491227
30
0
10
-48.060547125531372
20
-80.755334519288596
30
0
10
-48.186177439803757
20
-80.650919764234771
30
0
10
-48.325447503762113
20
-80.567383625144302
30
0
0
ARC
5
196
100
AcDbEntity
8
0
100
AcDbCircle
10
-4.0797282446439237e-11
20
-4.0797282446439217e-11
30
0
40
104.99999999994236
210
0
220
0
230
1
100
AcDbArc
50
223.96231275199304
51
226.03768724800653
0
SPLINE
5
197
100
AcDbEntity
8
0
100
AcDbSpline
70
4
71
5
72
73
73
67
74
0
42
0.000000001
43
0.0000000001
44
0.0000000001
40
0.11514249594620156
40
0.11514249594620156
40
0.11514249594620156
40
0.11514249594620156
40
0.11514249594620156
40
0.11514249594620156
40
0.12857142857142859
40
0.14285714285714288
40
0.15714285714285717
40
0.17142857142857146
40
0.18571428571428575
40
0.20000000000000004
40
0.21428571428571433
40
0.22857142857142862
40
0.24285714285714291
40
0.25714285714285717
40
0.27142857142857146
40
0.28571428571428575
40
0.30000000000000004
40
0.31428571428571433
40
0.32857142857142863
40
0.34285714285714292
40
0.35714285714285721
40
0.3714285714285715
40
0.38571428571428579
40
0.40000000000000008
40
0.41428571428571437
40
0.42857142857142866
40
0.44285714285714295
40
0.45714285714285724
40
0.47142857142857153
40
0.48571428571428582
40
0.50000000000000011
40
0.51428571428571435
40
0.52857142857142858
40
0.54285714285714282
40
0.55714285714285705
40
0.57142857142857129
40
0.58571428571428552
40
0.59999999999999976
40
0.61428571428571399
40
0.62857142857142823
40
0.64285714285714246
40
0.6571428571428567
40
0.67142857142857093
40
0.68571428571428517
40
0.6999999999999994
40
0.71428571428571364
40
0.72857142857142787
40
0.74285714285714211
40
0.75714285714285634
40
0.77142857142857058
40
0.78571428571428481
40
0.79999999999999905
40
0.81428571428571328
40
0.82857142857142752
40
0.84285714285714175
40
0.85714285714285599
40
0.87142857142857022
40
0.88571428571428445
40
0.89999999999999869
40
0.91428571428571292
40
0.92857142857142716
40
0.94285714285714139
40
0.95714285714285563
40
0.97142857142856986
40
0.9857142857142841
40
1
40
1
40
1
40
1
40
1
40
1
41
1
41
1
41
1
41
1
41
1
41
1
41
1
41
1
41
1
41
1
41
1
41
1
41
1
41
1
41
1
41
1
41
1
41
1
41
1
41
1
41
1
41
1
41
1
41
1
41
1
41
1
41
1
41
1
41
1
41
1
41
1
41
1
41
1
41
1
41
1
41
1
41
1
41
1
41
1
41
1
41
1
41
1
41
1
41
1
41
1
41
1
41
1
41
1
41
1
41
1
41
1
41
1
41
1
41
1
41
1
41
1
41
1
41
1
41
1
41
1
41
1
41
1
41
1
41
1
41
1
41
1
41
1
10
-59.974256906387765
20
-74.018635572144333
30
0
10
-59.989397802245179
20
-74.045202101978646
30
0
10
-60.020535640943237
20
-74.100107128330507
30
0
10
-60.067369706039543
20
-74.183559938363643
30
0
10
-60.129364437231743
20
-74.295928895762174
30
0
10
-60.205712573638579
20
-74.437762385850036
30
0
10
-60.281585136036789
20
-74.582269351717031
30
0
10
-60.356137623476862
20
-74.727664811831502
30
0
10
-60.429489518121365
20
-74.873861138386118
30
0
10
-60.501764468079635
20
-75.020768435415732
30
0
10
-60.573055188633298
20
-75.168318311662517
30
0
10
-60.643402244725884
20
-75.316478239713391
30
0
10
-60.712814036786668
20
-75.465237923170534
30
0
10
-60.781279458035307
20
-75.61460064388838
30
0
10
-60.848782545304715
20
-75.764573256694376
30
0
10
-60.915318393658886
20
-75.915155321394792
30
0
10
-60.980901478035101
20
-76.066333409183471
30
0
10
-61.045557176138374
20
-76.218086854148794
30
0
10
-61.109316712887534
20
-76.370391173976756
30
0
10
-61.172211160651379
20
-76.523222135176383
30
0
10
-61.234264869617327
20
-76.676560204973782
30
0
10
-61.295492534438537
20
-76.830392533046833
30
0
10
-61.355902923203899
20
-76.984710406209373
30
0
10
-61.415501150660063
20
-77.139507692750001
30
0
10
-61.474291351034445
20
-77.294779015967222
30
0
10
-61.532279634430438
20
-77.450517734715945
30
0
10
-61.589475335626069
20
-77.606715087372493
30
0
10
-61.645889465222879
20
-77.763361241223734
30
0
10
-61.701533804936119
20
-77.920445903832103
30
0
10
-61.756419828003089
20
-78.077959053786131
30
0
10
-61.810557510875235
20
-78.235891746440942
30
0
10
-61.863954869587765
20
-78.394236425213677
30
0
10
-61.916618644337412
20
-78.552986449447317
30
0
10
-61.968554723604193
20
-78.712135800523313
30
0
10
-62.019768642675402
20
-78.871678737984638
30
0
10
-62.070266139623662
20
-79.031609416319924
30
0
10
-62.12005339340304
20
-79.191921721483027
30
0
10
-62.169136737637331
20
-79.352609468878128
30
0
10
-62.217522498967298
20
-79.513666516623687
30
0
10
-62.265216803504785
20
-79.675086900326306
30
0
10
-62.312225370065832
20
-79.836864980128212
30
0
10
-62.358553423522253
20
-79.998995497389203
30
0
10
-62.40420582884078
20
-80.161473466499942
30
0
10
-62.449187181572142
20
-80.324294099619607
30
0
10
-62.493501912987519
20
-80.487452722663051
30
0
10
-62.537154411463895
20
-80.65094467650637
30
0
10
-62.580149082592165
20
-80.814765275728675
30
0
10
-62.622490270676863
20
-80.978909893071574
30
0
10
-62.664182211926175
20
-81.143374018180708
30
0
10
-62.705228983425357
20
-81.308153318218416
30
0
10
-62.745634449458514
20
-81.473243710209687
30
0
10
-62.785402242312706
20
-81.638641379741472
30
0
10
-62.824535837791387
20
-81.80434265128676
30
0
10
-62.86303861928063
20
-81.970343879961405
30
0
10
-62.900913945856942
20
-82.136641341446349
30
0
10
-62.938165234997868
20
-82.303231099685718
30
0
10
-62.974796008227905
20
-82.470108944470184
30
0
10
-63.010809761926581
20
-82.637270640386973
30
0
10
-63.046209866652568
20
-82.804712131212227
30
0
10
-63.080999460439514
20
-82.972429755518533
30
0
10
-63.115181347155968
20
-83.140420465891708
30
0
10
-63.148757901969645
20
-83.308682016350858
30
0
10
-63.181731035114368
20
-83.47721284032346
30
0
10
-63.207627929675581
20
-83.612252131930973
30
0
10
-63.226780085024913
20
-83.71365210348489
30
0
10
-63.239427999381292
20
-83.781305623581105
30
0
10
-63.245721909256957
20
-83.815145768392824
30
0
0
SPLINE
5
198
100
AcDbEntity
8
0
100
AcDbSpline
70
0
71
3
72
11
73
7
74
0
42
0.000000001
43
0.0000000001
44
0.0000000001
40
-1
40
-1
40
-1
40
-1
40
-0.75
40
-0.5
40
-0.25
40
0
40
0
40
0
40
0
10
-63.72530254603133
20
-70.814939941032776
30
0
10
-63.581603113296978
20
-70.699897970154254
30
0
10
-63.253821128386896
20
-70.520340815472551
30
0
10
-62.699747776586008
20
-70.434723974941818
30
0
10
-62.149677933129766
20
-70.543124574010065
30
0
10
-61.829582057899806
20
-70.736050549684052
30
0
10
-61.690750658107881
20
-70.856922483827589
30
0
0
LINE
5
199
100
AcDbEntity
8
0
100
AcDbLine
10
-49.846770384420353
20
-79.635115764861425
30
0
11
-48.325447503762113
21
-80.567383625144288
31
0
0
LINE
5
200
100
AcDbEntity
8
0
100
AcDbLine
10
-36.775397191921783
20
-86.452428201967294
30
0
11
-35.126965496417711
21
-87.135230966891285
31
0
0
ENDSEC
0
SECTION
2
OBJECTS
0
DICTIONARY
5
C
100
AcDbDictionary
3
ACAD_GROUP
350
D
3
ACAD_MLINESTYLE
350
17
0
DICTIONARY
5
D
100
AcDbDictionary
0
DICTIONARY
5
1A
330
C
100
AcDbDictionary
0
DICTIONARY
5
17
100
AcDbDictionary
0
ENDSEC
0
EOF
