0
SECTION
2
HEADER
9
$INSUNITS
70
4
9
$ACADVER
1
AC1014
9
$HANDSEED
5
FFFF
0
ENDSEC
0
SECTION
2
TABLES
0
TABLE
2
VPORT
5
8
100
AcDbSymbolTable
0
ENDTAB
0
TABLE
2
LTYPE
5
5
100
AcDbSymbolTable
0
LTYPE
5
14
100
AcDbSymbolTableRecord
100
AcDbLinetypeTableRecord
2
BYBLOCK
70
0
0
LTYPE
5
15
100
AcDbSymbolTableRecord
100
AcDbLinetypeTableRecord
2
BYLAYER
70
0
0
ENDTAB
0
TABLE
2
LAYER
5
2
100
AcDbSymbolTable
70
2
0
LAYER
5
50
100
AcDbSymbolTableRecord
100
AcDbLayerTableRecord
2
0
70
0
6
CONTINUOUS
0
ENDTAB
0
TABLE
2
STYLE
5
3
100
AcDbSymbolTable
70
1
0
STYLE
5
11
100
AcDbSymbolTableRecord
100
AcDbTextStyleTableRecord
2
STANDARD
70
0
0
ENDTAB
0
TABLE
2
VIEW
5
6
100
AcDbSymbolTable
70
0
0
ENDTAB
0
TABLE
2
UCS
5
7
100
AcDbSymbolTable
70
0
0
ENDTAB
0
TABLE
2
APPID
5
9
100
AcDbSymbolTable
70
2
0
APPID
5
12
100
AcDbSymbolTableRecord
100
AcDbRegAppTableRecord
2
ACAD
70
0
0
ENDTAB
0
TABLE
2
DIMSTYLE
5
A
100
AcDbSymbolTable
70
1
0
ENDTAB
0
TABLE
2
BLOCK_RECORD
5
1
100
AcDbSymbolTable
70
1
0
BLOCK_RECORD
5
1F
100
AcDbSymbolTableRecord
100
AcDbBlockTableRecord
2
*MODEL_SPACE
0
BLOCK_RECORD
5
1B
100
AcDbSymbolTableRecord
100
AcDbBlockTableRecord
2
*PAPER_SPACE
0
ENDTAB
0
ENDSEC
0
SECTION
2
BLOCKS
0
BLOCK
5
20
100
AcDbEntity
100
AcDbBlockBegin
2
*MODEL_SPACE
0
ENDBLK
5
21
100
AcDbEntity
100
AcDbBlockEnd
0
BLOCK
5
1C
100
AcDbEntity
100
AcDbBlockBegin
2
*PAPER_SPACE
0
ENDBLK
5
1D
100
AcDbEntity
100
AcDbBlockEnd
0
ENDSEC
0
SECTION
2
ENTITIES
0
CIRCLE
5
100
100
AcDbEntity
8
0
100
AcDbCircle
10
-95
20
0
30
0
40
3.0499999999999972
210
0
220
-0
230
1
0
CIRCLE
5
101
100
AcDbEntity
8
0
100
AcDbCircle
10
95
20
0
30
0
40
3.0499999999999972
210
0
220
-0
230
1
0
CIRCLE
5
102
100
AcDbEntity
8
0
100
AcDbCircle
10
0
20
-95.000001415610313
30
0
40
3.0499999999999998
210
0
220
-0
230
1
0
CIRCLE
5
103
100
AcDbEntity
8
0
100
AcDbCircle
10
-120.00000178813934
20
34.000000506639481
30
0
40
1.5000000000000036
210
0
220
-0
230
1
0
LWPOLYLINE
5
104
100
AcDbEntity
8
0
100
AcDbPolyline
90
8
70
1
43
0.0
10
-133.99999999999989
20
-10.399999999999974
10
-115.99999999999991
20
-10.399999999999981
42
0.41421356237309043
10
-114.59999999999992
20
-8.9999999999999822
10
-114.59999999999994
20
28.999999999999957
42
0.41421356237309592
10
-115.99999999999993
20
30.399999999999949
10
-133.99999999999991
20
30.399999999999959
42
0.41421356237309415
10
-135.39999999999989
20
28.999999999999964
10
-135.39999999999989
20
-8.9999999999999769
42
0.41421356237309592
0
CIRCLE
5
105
100
AcDbEntity
8
0
100
AcDbCircle
10
125.07515947675597
20
-13.250355287624489
30
0
40
8.3999999999999986
210
0
220
-0
230
1
0
CIRCLE
5
106
100
AcDbEntity
8
0
100
AcDbCircle
10
0
20
95.000001415610313
30
0
40
3.0499999999999963
210
0
220
-0
230
1
0
CIRCLE
5
107
100
AcDbEntity
8
0
100
AcDbCircle
10
-120.00000178813934
20
-14.000000208616257
30
0
40
1.5000000000000036
210
0
220
-0
230
1
0
CIRCLE
5
108
100
AcDbEntity
8
0
100
AcDbCircle
10
0
20
0
30
0
40
90
210
0
220
-0
230
1
0
CIRCLE
5
109
100
AcDbEntity
8
0
100
AcDbCircle
10
-130.00000193715096
20
34.000000506639481
30
0
40
1.5000000000000036
210
0
220
-0
230
1
0
CIRCLE
5
110
100
AcDbEntity
8
0
100
AcDbCircle
10
-130.00000193715096
20
-14.000000208616257
30
0
40
1.5000000000000036
210
0
220
-0
230
1
0
CIRCLE
5
111
100
AcDbEntity
8
0
100
AcDbCircle
10
125.07515947675634
20
13.250355287617721
30
0
40
8.3999999999999986
210
0
220
-0
230
1
0
LWPOLYLINE
5
112
100
AcDbEntity
8
0
100
AcDbPolyline
90
16
70
1
43
0.0
10
-131.65151389911682
20
40.000000000000014
10
-97.979589711327151
20
40.000000000000007
42
0.28186105365722347
10
-89.072354283024652
20
45.454545454545496
42
-0.64088243133604406
10
92.491856678608272
20
38.016528617744562
42
0.30409052657682534
10
101.74104234646911
20
31.818181479519012
10
134.8029710534598
20
31.818181479519016
42
-0.41421356341938964
10
144.80297105345983
20
21.818181443796195
10
144.80297089757849
20
-21.818182192567384
42
-0.41421356132679771
10
134.80297089757846
20
-31.818182156844571
10
101.7410420680709
20
-31.818182156844571
42
0.30409052475858578
10
92.491856425519003
20
-38.016529233495064
42
-0.69341263434613043
10
-94.718584092529682
20
-32.068517700486041
42
0.32152523121715543
10
-104.19044250178266
20
-25.275369470534656
10
-131.65151389911682
20
-25.275369470534649
42
-0.41421356237309526
10
-141.65151389911679
20
-15.27536947053466
10
-141.65151389911682
20
30.000000000000004
42
-0.41421356237309526
0
ENDSEC
0
SECTION
2
OBJECTS
0
DICTIONARY
5
C
100
AcDbDictionary
3
ACAD_GROUP
350
D
3
ACAD_MLINESTYLE
350
17
0
DICTIONARY
5
D
100
AcDbDictionary
0
DICTIONARY
5
1A
330
C
100
AcDbDictionary
0
DICTIONARY
5
17
100
AcDbDictionary
0
ENDSEC
0
EOF
