0
SECTION
2
HEADER
9
$INSUNITS
70
4
9
$ACADVER
1
AC1014
9
$HANDSEED
5
FFFF
0
ENDSEC
0
SECTION
2
TABLES
0
TABLE
2
VPORT
5
8
100
AcDbSymbolTable
0
ENDTAB
0
TABLE
2
LTYPE
5
5
100
AcDbSymbolTable
0
LTYPE
5
14
100
AcDbSymbolTableRecord
100
AcDbLinetypeTableRecord
2
BYBLOCK
70
0
0
LTYPE
5
15
100
AcDbSymbolTableRecord
100
AcDbLinetypeTableRecord
2
BYLAYER
70
0
0
ENDTAB
0
TABLE
2
LAYER
5
2
100
AcDbSymbolTable
70
2
0
LAYER
5
50
100
AcDbSymbolTableRecord
100
AcDbLayerTableRecord
2
0
70
0
6
CONTINUOUS
0
ENDTAB
0
TABLE
2
STYLE
5
3
100
AcDbSymbolTable
70
1
0
STYLE
5
11
100
AcDbSymbolTableRecord
100
AcDbTextStyleTableRecord
2
STANDARD
70
0
0
ENDTAB
0
TABLE
2
VIEW
5
6
100
AcDbSymbolTable
70
0
0
ENDTAB
0
TABLE
2
UCS
5
7
100
AcDbSymbolTable
70
0
0
ENDTAB
0
TABLE
2
APPID
5
9
100
AcDbSymbolTable
70
2
0
APPID
5
12
100
AcDbSymbolTableRecord
100
AcDbRegAppTableRecord
2
ACAD
70
0
0
ENDTAB
0
TABLE
2
DIMSTYLE
5
A
100
AcDbSymbolTable
70
1
0
ENDTAB
0
TABLE
2
BLOCK_RECORD
5
1
100
AcDbSymbolTable
70
1
0
BLOCK_RECORD
5
1F
100
AcDbSymbolTableRecord
100
AcDbBlockTableRecord
2
*MODEL_SPACE
0
BLOCK_RECORD
5
1B
100
AcDbSymbolTableRecord
100
AcDbBlockTableRecord
2
*PAPER_SPACE
0
ENDTAB
0
ENDSEC
0
SECTION
2
BLOCKS
0
BLOCK
5
20
100
AcDbEntity
100
AcDbBlockBegin
2
*MODEL_SPACE
0
ENDBLK
5
21
100
AcDbEntity
100
AcDbBlockEnd
0
BLOCK
5
1C
100
AcDbEntity
100
AcDbBlockBegin
2
*PAPER_SPACE
0
ENDBLK
5
1D
100
AcDbEntity
100
AcDbBlockEnd
0
ENDSEC
0
SECTION
2
ENTITIES
0
ARC
5
100
100
AcDbEntity
8
0
100
AcDbCircle
10
9.0205620750793969e-16
20
30.999999046325868
30
0
40
13.549199999999997
210
-3.5791742323478139e-31
220
-7.3013046191603357e-31
230
1
100
AcDbArc
50
257.92167700482071
51
259.57832299517918
0
ARC
5
101
100
AcDbEntity
8
0
100
AcDbCircle
10
-2.6318230027096985
20
16.690815690088936
30
0
40
1
210
9.7986154800441518e-32
220
-1.1053272776962975e-32
230
1
100
AcDbArc
50
-6.4360109552778235
51
79.578322995179846
0
LINE
5
102
100
AcDbEntity
8
0
100
AcDbLine
10
-1.6381253391350115
20
16.578722187127308
30
-9.8607613152626498e-32
11
-1.6965333829044706
21
16.060940735979802
31
0
0
SPLINE
5
103
100
AcDbEntity
8
0
100
AcDbSpline
70
4
71
5
72
81
73
75
74
0
42
0.000000001
43
0.0000000001
44
0.0000000001
40
0
40
0
40
0
40
0
40
0
40
0
40
0.014285714285714285
40
0.028571428571428571
40
0.042857142857142858
40
0.057142857142857141
40
0.071428571428571425
40
0.085714285714285715
40
0.10000000000000001
40
0.1142857142857143
40
0.12857142857142859
40
0.14285714285714288
40
0.15714285714285717
40
0.17142857142857146
40
0.18571428571428575
40
0.20000000000000004
40
0.21428571428571433
40
0.22857142857142862
40
0.24285714285714291
40
0.25714285714285717
40
0.27142857142857146
40
0.28571428571428575
40
0.30000000000000004
40
0.31428571428571433
40
0.32857142857142863
40
0.34285714285714292
40
0.35714285714285721
40
0.3714285714285715
40
0.38571428571428579
40
0.40000000000000008
40
0.41428571428571437
40
0.42857142857142866
40
0.44285714285714295
40
0.45714285714285724
40
0.47142857142857153
40
0.48571428571428582
40
0.50000000000000011
40
0.51428571428571435
40
0.52857142857142858
40
0.54285714285714282
40
0.55714285714285705
40
0.57142857142857129
40
0.58571428571428552
40
0.59999999999999976
40
0.61428571428571399
40
0.62857142857142823
40
0.64285714285714246
40
0.6571428571428567
40
0.67142857142857093
40
0.68571428571428517
40
0.6999999999999994
40
0.71428571428571364
40
0.72857142857142787
40
0.74285714285714211
40
0.75714285714285634
40
0.77142857142857058
40
0.78571428571428481
40
0.79999999999999905
40
0.81428571428571328
40
0.82857142857142752
40
0.84285714285714175
40
0.85714285714285599
40
0.87142857142857022
40
0.88571428571428445
40
0.89999999999999869
40
0.91428571428571292
40
0.92857142857142716
40
0.94285714285714139
40
0.95714285714285563
40
0.97142857142856986
40
0.9857142857142841
40
1
40
1
40
1
40
1
40
1
40
1
41
1
41
1
41
1
41
1
41
1
41
1
41
1
41
1
41
1
41
1
41
1
41
1
41
1
41
1
41
1
41
1
41
1
41
1
41
1
41
1
41
1
41
1
41
1
41
1
41
1
41
1
41
1
41
1
41
1
41
1
41
1
41
1
41
1
41
1
41
1
41
1
41
1
41
1
41
1
41
1
41
1
41
1
41
1
41
1
41
1
41
1
41
1
41
1
41
1
41
1
41
1
41
1
41
1
41
1
41
1
41
1
41
1
41
1
41
1
41
1
41
1
41
1
41
1
41
1
41
1
41
1
41
1
41
1
41
1
41
1
41
1
41
1
41
1
41
1
41
1
10
-1.6965333829044706
20
16.060940735979802
30
0
10
-1.6975137544871555
20
16.052249840206098
30
0
10
-1.6992266611435132
20
16.03485484478248
30
0
10
-1.7010525205616112
20
16.008722740345895
30
0
10
-1.702072777194588
20
15.973803776628374
30
0
10
-1.701413175217839
20
15.93004627398164
30
0
10
-1.6993553189838797
20
15.886203653627353
30
0
10
-1.6964289679705735
20
15.842300375758342
30
0
10
-1.6930264143605371
20
15.798356582774923
30
0
10
-1.6892971984981195
20
15.754383920278372
30
0
10
-1.6852293459636551
20
15.710388152052762
30
0
10
-1.6807135472768824
20
15.666371143330098
30
0
10
-1.6756107894804813
20
15.62233299493508
30
0
10
-1.6698253537867322
20
15.578274311094834
30
0
10
-1.6633542084805009
20
15.534197787994557
30
0
10
-1.6562497459747638
20
15.490107268200306
30
0
10
-1.6485959545765767
20
15.446007192117175
30
0
10
-1.6404809915407399
20
15.401901934334036
30
0
10
-1.6319674469546184
20
15.357795094448047
30
0
10
-1.6230762823676084
20
15.313689118457276
30
0
10
-1.6138034975236466
20
15.26958572508714
30
0
10
-1.6041303974051937
20
15.225486174311886
30
0
10
-1.5940355734690679
20
15.181391577437726
30
0
10
-1.5835081168535932
20
15.137303238873056
30
0
10
-1.5725534590741328
20
15.093222811048332
30
0
10
-1.561186284742357
20
15.049152122370028
30
0
10
-1.5494263154085806
20
15.005093077677286
30
0
10
-1.5372933219519958
20
14.961047538790318
30
0
10
-1.5248015642176367
20
14.917017191064598
30
0
10
-1.5119577846123979
20
14.873003497404893
30
0
10
-1.4987642641437906
20
14.829007777136463
30
0
10
-1.4852206756282142
20
14.785031255038358
30
0
10
-1.4713262556146423
20
14.741075117976568
30
0
10
-1.457082249123467
20
14.697140578365159
30
0
10
-1.4424927064866355
20
14.653228895825928
30
0
10
-1.4275632056600875
20
14.609341346386364
30
0
10
-1.4123000893116044
20
14.565479204409762
30
0
10
-1.3967095671133125
20
14.521643721069609
30
0
10
-1.3807967053128902
20
14.477836099462959
30
0
10
-1.3645651237805301
20
14.434057488500869
30
0
10
-1.3480175505210554
20
14.390308999443979
30
0
10
-1.3311561642578913
20
14.346591716653649
30
0
10
-1.3139829938974781
20
14.302906709468409
30
0
10
-1.2965003709758862
20
14.259255045709747
30
0
10
-1.2787110787564462
20
14.215637795376546
30
0
10
-1.260618117611281
20
14.172056022295603
30
0
10
-1.2422245672932819
20
14.128510778264795
30
0
10
-1.2235334244454563
20
14.085003096813791
30
0
10
-1.2045474230715525
20
14.041533984644985
30
0
10
-1.1852689727434849
20
13.998104421692446
30
0
10
-1.1657002658444149
20
13.954715372816173
30
0
10
-1.1458433467900473
20
13.911367796892266
30
0
10
-1.1257001924368688
20
13.868062655413143
30
0
10
-1.1052728045126408
20
13.824800923972045
30
0
10
-1.0845632477018792
20
13.781583591936744
30
0
10
-1.0635735912266007
20
13.738411643097695
30
0
10
-1.0423058732091999
20
13.695286039321172
30
0
10
-1.0207620610629444
20
13.652207704991891
30
0
10
-0.99894400795021077
20
13.609177505113696
30
0
10
-0.97685343775838263
20
13.566196244039578
30
0
10
-0.9544919959508924
20
13.523264710567542
30
0
10
-0.93186129022132469
20
13.480383715016
30
0
10
-0.90896293363785885
20
13.43755412557093
30
0
10
-0.88579859696820917
20
13.394776913102614
30
0
10
-0.86237003362182296
20
13.352053165970055
30
0
10
-0.83867899973712023
20
13.309383996672597
30
0
10
-0.81472719228024104
20
13.266770464398514
30
0
10
-0.79051618282558023
20
13.224213493291286
30
0
10
-0.76604735284840297
20
13.181713786364742
30
0
10
-0.74132183624045145
20
13.139271756953137
30
0
10
-0.71634051937750742
20
13.09688760810824
30
0
10
-0.69615133319382938
20
13.063026639187971
30
0
10
-0.68089479045407542
20
13.037656975798351
30
0
10
-0.67067282194764077
20
13.020755446697436
30
0
10
-0.66554910269128986
20
13.012307577104291
30
0
0
ARC
5
104
100
AcDbEntity
8
0
100
AcDbCircle
10
9.0205620750793969e-16
20
30.999999046325868
30
0
40
18
210
0
220
0
230
1
100
AcDbArc
50
267.88100839275205
51
272.11899160724784
0
SPLINE
5
105
100
AcDbEntity
8
0
100
AcDbSpline
70
4
71
5
72
81
73
75
74
0
42
0.000000001
43
0.0000000001
44
0.0000000001
40
-1
40
-1
40
-1
40
-1
40
-1
40
-1
40
-0.9857142857142841
40
-0.97142857142856986
40
-0.95714285714285563
40
-0.94285714285714139
40
-0.92857142857142716
40
-0.91428571428571292
40
-0.89999999999999869
40
-0.88571428571428445
40
-0.87142857142857022
40
-0.85714285714285599
40
-0.84285714285714175
40
-0.82857142857142752
40
-0.81428571428571328
40
-0.79999999999999905
40
-0.78571428571428481
40
-0.77142857142857058
40
-0.75714285714285634
40
-0.74285714285714211
40
-0.72857142857142787
40
-0.71428571428571364
40
-0.6999999999999994
40
-0.68571428571428517
40
-0.67142857142857093
40
-0.6571428571428567
40
-0.64285714285714246
40
-0.62857142857142823
40
-0.61428571428571399
40
-0.59999999999999976
40
-0.58571428571428552
40
-0.57142857142857129
40
-0.55714285714285705
40
-0.54285714285714282
40
-0.52857142857142858
40
-0.51428571428571435
40
-0.50000000000000011
40
-0.48571428571428582
40
-0.47142857142857153
40
-0.45714285714285724
40
-0.44285714285714295
40
-0.42857142857142866
40
-0.41428571428571437
40
-0.40000000000000008
40
-0.38571428571428579
40
-0.3714285714285715
40
-0.35714285714285721
40
-0.34285714285714292
40
-0.32857142857142863
40
-0.31428571428571433
40
-0.30000000000000004
40
-0.28571428571428575
40
-0.27142857142857146
40
-0.25714285714285717
40
-0.24285714285714291
40
-0.22857142857142862
40
-0.21428571428571433
40
-0.20000000000000004
40
-0.18571428571428575
40
-0.17142857142857146
40
-0.15714285714285717
40
-0.14285714285714288
40
-0.12857142857142859
40
-0.1142857142857143
40
-0.10000000000000001
40
-0.085714285714285715
40
-0.071428571428571425
40
-0.057142857142857141
40
-0.042857142857142858
40
-0.028571428571428571
40
-0.014285714285714285
40
0
40
0
40
0
40
0
40
0
40
0
41
1
41
1
41
1
41
1
41
1
41
1
41
1
41
1
41
1
41
1
41
1
41
1
41
1
41
1
41
1
41
1
41
1
41
1
41
1
41
1
41
1
41
1
41
1
41
1
41
1
41
1
41
1
41
1
41
1
41
1
41
1
41
1
41
1
41
1
41
1
41
1
41
1
41
1
41
1
41
1
41
1
41
1
41
1
41
1
41
1
41
1
41
1
41
1
41
1
41
1
41
1
41
1
41
1
41
1
41
1
41
1
41
1
41
1
41
1
41
1
41
1
41
1
41
1
41
1
41
1
41
1
41
1
41
1
41
1
41
1
41
1
41
1
41
1
41
1
41
1
10
0.66554910269129186
20
13.012307577104291
30
0
10
0.67067282194764233
20
13.020755446697436
30
0
10
0.68089479045407719
20
13.037656975798351
30
0
10
0.69615133319383127
20
13.063026639187971
30
0
10
0.71634051937750909
20
13.09688760810824
30
0
10
0.741321836240453
20
13.139271756953137
30
0
10
0.76604735284840486
20
13.181713786364742
30
0
10
0.79051618282558223
20
13.224213493291286
30
0
10
0.8147271922802426
20
13.266770464398514
30
0
10
0.83867899973712223
20
13.309383996672597
30
0
10
0.86237003362182452
20
13.352053165970055
30
0
10
0.88579859696821084
20
13.394776913102614
30
0
10
0.9089629336378604
20
13.43755412557093
30
0
10
0.93186129022132635
20
13.480383715016
30
0
10
0.95449199595089407
20
13.523264710567542
30
0
10
0.97685343775838462
20
13.566196244039578
30
0
10
0.99894400795021232
20
13.609177505113696
30
0
10
1.0207620610629464
20
13.652207704991891
30
0
10
1.0423058732092016
20
13.695286039321172
30
0
10
1.0635735912266027
20
13.738411643097695
30
0
10
1.0845632477018807
20
13.781583591936744
30
0
10
1.1052728045126428
20
13.824800923972045
30
0
10
1.1257001924368706
20
13.868062655413143
30
0
10
1.1458433467900493
20
13.911367796892266
30
0
10
1.1657002658444169
20
13.954715372816173
30
0
10
1.1852689727434869
20
13.998104421692446
30
0
10
1.204547423071554
20
14.041533984644985
30
0
10
1.2235334244454579
20
14.085003096813791
30
0
10
1.2422245672932839
20
14.128510778264795
30
0
10
1.2606181176112827
20
14.172056022295603
30
0
10
1.278711078756448
20
14.215637795376546
30
0
10
1.296500370975888
20
14.259255045709747
30
0
10
1.3139829938974799
20
14.302906709468409
30
0
10
1.3311561642578928
20
14.346591716653649
30
0
10
1.348017550521057
20
14.390308999443979
30
0
10
1.3645651237805319
20
14.434057488500869
30
0
10
1.380796705312892
20
14.477836099462959
30
0
10
1.3967095671133143
20
14.521643721069609
30
0
10
1.4123000893116062
20
14.565479204409762
30
0
10
1.4275632056600893
20
14.609341346386364
30
0
10
1.4424927064866373
20
14.653228895825928
30
0
10
1.4570822491234687
20
14.697140578365159
30
0
10
1.471326255614644
20
14.741075117976568
30
0
10
1.485220675628216
20
14.785031255038358
30
0
10
1.4987642641437924
20
14.829007777136463
30
0
10
1.5119577846123997
20
14.873003497404893
30
0
10
1.5248015642176382
20
14.917017191064598
30
0
10
1.5372933219519975
20
14.961047538790318
30
0
10
1.5494263154085821
20
15.005093077677286
30
0
10
1.5611862847423585
20
15.049152122370028
30
0
10
1.5725534590741344
20
15.093222811048332
30
0
10
1.5835081168535947
20
15.137303238873056
30
0
10
1.5940355734690694
20
15.181391577437726
30
0
10
1.6041303974051955
20
15.225486174311886
30
0
10
1.6138034975236482
20
15.26958572508714
30
0
10
1.6230762823676101
20
15.313689118457276
30
0
10
1.6319674469546199
20
15.357795094448047
30
0
10
1.6404809915407415
20
15.401901934334036
30
0
10
1.6485959545765783
20
15.446007192117175
30
0
10
1.6562497459747654
20
15.490107268200306
30
0
10
1.6633542084805026
20
15.534197787994557
30
0
10
1.6698253537867338
20
15.578274311094834
30
0
10
1.6756107894804828
20
15.62233299493508
30
0
10
1.6807135472768842
20
15.666371143330098
30
0
10
1.6852293459636569
20
15.710388152052762
30
0
10
1.6892971984981211
20
15.754383920278372
30
0
10
1.6930264143605389
20
15.798356582774923
30
0
10
1.6964289679705753
20
15.842300375758342
30
0
10
1.6993553189838815
20
15.886203653627353
30
0
10
1.7014131752178407
20
15.93004627398164
30
0
10
1.7020727771945898
20
15.973803776628374
30
0
10
1.7010525205616127
20
16.008722740345895
30
0
10
1.6992266611435147
20
16.03485484478248
30
0
10
1.697513754487157
20
16.052249840206098
30
0
10
1.6965333829044724
20
16.060940735979802
30
0
0
LINE
5
106
100
AcDbEntity
8
0
100
AcDbLine
10
1.6965333829044724
20
16.060940735979802
30
0
11
1.6381253391350137
21
16.578722187127308
31
0
0
ARC
5
107
100
AcDbEntity
8
0
100
AcDbCircle
10
2.6318230027097007
20
16.690815690088936
30
0
40
1.0000000000000009
210
1.9396178716655389e-31
220
3.5674509187774197e-32
230
1
100
AcDbArc
50
100.42167700482075
51
186.43601095527782
0
ARC
5
108
100
AcDbEntity
8
0
100
AcDbCircle
10
9.0205620750793969e-16
20
30.999999046325868
30
0
40
13.549199999999999
210
4.8366700788194664e-49
220
-2.6296904814721951e-48
230
1
100
AcDbArc
50
280.42167700482076
51
282.07832299517924
0
ARC
5
109
100
AcDbEntity
8
0
100
AcDbCircle
10
3.044399995710279
20
16.772882356493064
30
0
40
0.99999999999999978
210
0
220
-0
230
1
100
AcDbArc
50
16.063989044721861
51
102.07832299517898
0
LINE
5
110
100
AcDbEntity
8
0
100
AcDbLine
10
4.0053532550504016
20
17.04959309600925
30
0
11
4.1495376418178784
21
16.548873620312655
31
0
0
SPLINE
5
111
100
AcDbEntity
8
0
100
AcDbSpline
70
4
71
5
72
81
73
75
74
0
42
0.000000001
43
0.0000000001
44
0.0000000001
40
0
40
0
40
0
40
0
40
0
40
0
40
0.014285714285714285
40
0.028571428571428571
40
0.042857142857142858
40
0.057142857142857141
40
0.071428571428571425
40
0.085714285714285715
40
0.10000000000000001
40
0.1142857142857143
40
0.12857142857142859
40
0.14285714285714288
40
0.15714285714285717
40
0.17142857142857146
40
0.18571428571428575
40
0.20000000000000004
40
0.21428571428571433
40
0.22857142857142862
40
0.24285714285714291
40
0.25714285714285717
40
0.27142857142857146
40
0.28571428571428575
40
0.30000000000000004
40
0.31428571428571433
40
0.32857142857142863
40
0.34285714285714292
40
0.35714285714285721
40
0.3714285714285715
40
0.38571428571428579
40
0.40000000000000008
40
0.41428571428571437
40
0.42857142857142866
40
0.44285714285714295
40
0.45714285714285724
40
0.47142857142857153
40
0.48571428571428582
40
0.50000000000000011
40
0.51428571428571435
40
0.52857142857142858
40
0.54285714285714282
40
0.55714285714285705
40
0.57142857142857129
40
0.58571428571428552
40
0.59999999999999976
40
0.61428571428571399
40
0.62857142857142823
40
0.64285714285714246
40
0.6571428571428567
40
0.67142857142857093
40
0.68571428571428517
40
0.6999999999999994
40
0.71428571428571364
40
0.72857142857142787
40
0.74285714285714211
40
0.75714285714285634
40
0.77142857142857058
40
0.78571428571428481
40
0.79999999999999905
40
0.81428571428571328
40
0.82857142857142752
40
0.84285714285714175
40
0.85714285714285599
40
0.87142857142857022
40
0.88571428571428445
40
0.89999999999999869
40
0.91428571428571292
40
0.92857142857142716
40
0.94285714285714139
40
0.95714285714285563
40
0.97142857142856986
40
0.9857142857142841
40
1
40
1
40
1
40
1
40
1
40
1
41
1
41
1
41
1
41
1
41
1
41
1
41
1
41
1
41
1
41
1
41
1
41
1
41
1
41
1
41
1
41
1
41
1
41
1
41
1
41
1
41
1
41
1
41
1
41
1
41
1
41
1
41
1
41
1
41
1
41
1
41
1
41
1
41
1
41
1
41
1
41
1
41
1
41
1
41
1
41
1
41
1
41
1
41
1
41
1
41
1
41
1
41
1
41
1
41
1
41
1
41
1
41
1
41
1
41
1
41
1
41
1
41
1
41
1
41
1
41
1
41
1
41
1
41
1
41
1
41
1
41
1
41
1
41
1
41
1
41
1
41
1
41
1
41
1
41
1
41
1
10
4.1495376418178784
20
16.548873620312655
30
0
10
4.1519577584033893
20
16.540469107625881
30
0
10
4.1570320155571636
20
16.523742726387297
30
0
10
4.1653454648322539
20
16.498901083807755
30
0
10
4.1777657795011915
20
16.46624973262243
30
0
10
4.1951204435716916
20
16.426075490281761
30
0
10
4.2137994992681547
20
16.3863576981717
30
0
10
4.233304152141284
20
16.34691622438844
30
0
10
4.2532642633099034
20
16.307619554364443
30
0
10
4.2735372189319207
20
16.268421220620112
30
0
10
4.2941318762239025
20
16.229331130609602
30
0
10
4.3151485101839864
20
16.190392838509688
30
0
10
4.3367155134542523
20
16.151659635425894
30
0
10
4.3589210874358404
20
16.113168709585512
30
0
10
4.3817670012829071
20
16.074923712126029
30
0
10
4.4052033802310762
20
16.036908143407139
30
0
10
4.4291509299330265
20
15.999093964894612
30
0
10
4.4535265296227209
20
15.961451481860706
30
0
10
4.4782709760933077
20
15.923960067710098
30
0
10
4.503363967355396
20
15.886613960612673
30
0
10
4.5288085414359447
20
15.849416279295379
30
0
10
4.5546214881077489
20
15.812375342096121
30
0
10
4.5808221610071991
20
15.775500368422746
30
0
10
4.607420139432838
20
15.738796738032105
30
0
10
4.6344097729610345
20
15.702263899019929
30
0
10
4.6617767950787563
20
15.665897921055944
30
0
10
4.6895022564989386
20
15.629693016871474
30
0
10
4.7175671788232059
20
15.593643340576207
30
0
10
4.7459577427149755
20
15.557744992229116
30
0
10
4.774667159173104
20
15.521996743170568
30
0
10
4.8036928159375156
20
15.486398939394377
30
0
10
4.8330345465837938
20
15.45095283765659
30
0
10
4.8626926022547643
20
15.415659826638455
30
0
10
4.8926653687307926
20
15.380520550015843
30
0
10
4.922948621956702
20
15.345534621532614
30
0
10
4.9535367202585849
20
15.310701085493125
30
0
10
4.9844233160977778
20
15.276018692021662
30
0
10
5.0156021936819348
20
15.241486220713163
30
0
10
5.0470682120032082
20
15.207102844315317
30
0
10
5.0788175870683938
20
15.172868239019184
30
0
10
5.1108473732686308
20
15.138782387533478
30
0
10
5.1431551427588138
20
15.104845457916106
30
0
10
5.1757386118556692
20
15.071057661678168
30
0
10
5.2085952178631532
20
15.037419093117851
30
0
10
5.2417219799103929
20
15.003929675676469
30
0
10
5.2751157189061049
20
14.970589244009114
30
0
10
5.3087731870240056
20
14.937397591279915
30
0
10
5.3426912202122736
20
14.904354525580141
30
0
10
5.3768669073324755
20
14.871459930723599
30
0
10
5.4112976472259069
20
14.838713789948061
30
0
10
5.4459810451586987
20
14.806116155679225
30
0
10
5.4809148453910295
20
14.773667131439069
30
0
10
5.5160968535984338
20
14.741366849020537
30
0
10
5.5515248470822307
20
14.709215443726203
30
0
10
5.587196539708005
20
14.677213039492145
30
0
10
5.6231096432835761
20
14.645359753365245
30
0
10
5.6592619067390899
20
14.613655694038396
30
0
10
5.6956511586749823
20
14.582100962635256
30
0
10
5.7322753559698256
20
14.550695649140625
30
0
10
5.7691325981467836
20
14.519439836976634
30
0
10
5.8062210631359417
20
14.488333625206018
30
0
10
5.8435389555266699
20
14.457377147227678
30
0
10
5.881084452797908
20
14.426570587846397
30
0
10
5.9188556398255834
20
14.395914204654236
30
0
10
5.9568504801736397
20
14.365408332163055
30
0
10
5.9950669256466647
20
14.33505332614315
30
0
10
6.0335030031185743
20
14.304849515756061
30
0
10
6.0721569069895489
20
14.274797153383552
30
0
10
6.1110270919111205
20
14.244896359858014
30
0
10
6.1501123521277492
20
14.215147083128921
30
0
10
6.18941179103044
20
14.185549171590321
30
0
10
6.2210221987332144
20
14.161991782519312
30
0
10
6.2448259561712449
20
14.144391695908613
30
0
10
6.2607377588248712
20
14.132688497097705
30
0
10
6.2687043179082247
20
14.126844445758771
30
0
0
ARC
5
112
100
AcDbEntity
8
0
100
AcDbCircle
10
9.0205620750793969e-16
20
30.999999046325868
30
0
40
17.999999999999996
210
3.6973811144826301e-31
220
1.3736488229966546e-31
230
1
100
AcDbArc
50
290.38100839275205
51
294.61899160724789
0
SPLINE
5
113
100
AcDbEntity
8
0
100
AcDbSpline
70
4
71
5
72
81
73
75
74
0
42
0.000000001
43
0.0000000001
44
0.0000000001
40
-1
40
-1
40
-1
40
-1
40
-1
40
-1
40
-0.9857142857142841
40
-0.97142857142856986
40
-0.95714285714285563
40
-0.94285714285714139
40
-0.92857142857142716
40
-0.91428571428571292
40
-0.89999999999999869
40
-0.88571428571428445
40
-0.87142857142857022
40
-0.85714285714285599
40
-0.84285714285714175
40
-0.82857142857142752
40
-0.81428571428571328
40
-0.79999999999999905
40
-0.78571428571428481
40
-0.77142857142857058
40
-0.75714285714285634
40
-0.74285714285714211
40
-0.72857142857142787
40
-0.71428571428571364
40
-0.6999999999999994
40
-0.68571428571428517
40
-0.67142857142857093
40
-0.6571428571428567
40
-0.64285714285714246
40
-0.62857142857142823
40
-0.61428571428571399
40
-0.59999999999999976
40
-0.58571428571428552
40
-0.57142857142857129
40
-0.55714285714285705
40
-0.54285714285714282
40
-0.52857142857142858
40
-0.51428571428571435
40
-0.50000000000000011
40
-0.48571428571428582
40
-0.47142857142857153
40
-0.45714285714285724
40
-0.44285714285714295
40
-0.42857142857142866
40
-0.41428571428571437
40
-0.40000000000000008
40
-0.38571428571428579
40
-0.3714285714285715
40
-0.35714285714285721
40
-0.34285714285714292
40
-0.32857142857142863
40
-0.31428571428571433
40
-0.30000000000000004
40
-0.28571428571428575
40
-0.27142857142857146
40
-0.25714285714285717
40
-0.24285714285714291
40
-0.22857142857142862
40
-0.21428571428571433
40
-0.20000000000000004
40
-0.18571428571428575
40
-0.17142857142857146
40
-0.15714285714285717
40
-0.14285714285714288
40
-0.12857142857142859
40
-0.1142857142857143
40
-0.10000000000000001
40
-0.085714285714285715
40
-0.071428571428571425
40
-0.057142857142857141
40
-0.042857142857142858
40
-0.028571428571428571
40
-0.014285714285714285
40
0
40
0
40
0
40
0
40
0
40
0
41
1
41
1
41
1
41
1
41
1
41
1
41
1
41
1
41
1
41
1
41
1
41
1
41
1
41
1
41
1
41
1
41
1
41
1
41
1
41
1
41
1
41
1
41
1
41
1
41
1
41
1
41
1
41
1
41
1
41
1
41
1
41
1
41
1
41
1
41
1
41
1
41
1
41
1
41
1
41
1
41
1
41
1
41
1
41
1
41
1
41
1
41
1
41
1
41
1
41
1
41
1
41
1
41
1
41
1
41
1
41
1
41
1
41
1
41
1
41
1
41
1
41
1
41
1
41
1
41
1
41
1
41
1
41
1
41
1
41
1
41
1
41
1
41
1
41
1
41
1
10
7.4984787056236968
20
14.636233675809587
30
0
10
7.4999795452428977
20
14.645999252091514
30
0
10
7.5029554775594098
20
14.665526006889563
30
0
10
7.5073421352696652
20
14.694802945783607
30
0
10
7.5130364793532092
20
14.733812468985473
30
0
10
7.519896495140225
20
14.782530252688296
30
0
10
7.5264980323733059
20
14.83120362054245
30
0
10
7.5328403498525578
20
14.879832045751238
30
0
10
7.5389225581747805
20
14.928414712522011
30
0
10
7.544743650054996
20
14.976950442686991
30
0
10
7.5503025272021853
20
15.025437781033448
30
0
10
7.5555980271578695
20
15.073875099598187
30
0
10
7.5606289531967743
20
15.122260698520751
30
0
10
7.5653941018767572
20
15.170592901287794
30
0
10
7.5698923011456927
20
15.218870171557006
30
0
10
7.5741223929633019
20
15.267091089934667
30
0
10
7.5780832021098101
20
15.315254292546481
30
0
10
7.5817735102351671
20
15.363358420946518
30
0
10
7.5851920324876598
20
15.411402072306373
30
0
10
7.5883373877911406
20
15.459383738292169
30
0
10
7.5912081122394772
20
15.507301811987315
30
0
10
7.5938026909433889
20
15.555154624787574
30
0
10
7.5961195886713151
20
15.602940475932103
30
0
10
7.5981572765181449
20
15.650657661243702
30
0
10
7.5999142784719425
20
15.698304513363702
30
0
10
7.6013891361026751
20
15.745879387478706
30
0
10
7.6025803275625208
20
15.793380615338691
30
0
10
7.6034861965894782
20
15.840806466540542
30
0
10
7.6041048920339112
20
15.888155113639979
30
0
10
7.6044342732540438
20
15.935424580307323
30
0
10
7.6044719672274121
20
15.982612764920036
30
0
10
7.6042155311389772
20
16.029717517173182
30
0
10
7.6036626001152374
20
16.076736706026253
30
0
10
7.6028110122270123
20
16.123668277820421
30
0
10
7.6016590220534361
20
16.170510353777033
30
0
10
7.6002051643475195
20
16.217261169527237
30
0
10
7.5984478411984071
20
16.263918889490405
30
0
10
7.5963849575193141
20
16.310481443033321
30
0
10
7.5940136086554864
20
16.356946383436238
30
0
10
7.5913295744096976
20
16.403310660413347
30
0
10
7.588327596596331
20
16.44957074169244
30
0
10
7.5850023030321605
20
16.495723022681471
30
0
10
7.5813490286724408
20
16.541764189893428
30
0
10
7.5773645135347802
20
16.587691529594593
30
0
10
7.5730480713410939
20
16.633503445211744
30
0
10
7.5684008616221119
20
16.679199132383744
30
0
10
7.5634236553587151
20
16.724777584770042
30
0
10
7.5581148500586721
20
16.770236710569247
30
0
10
7.552468776379671
20
16.815572578026174
30
0
10
7.5464729049003596
20
16.860778173068958
30
0
10
7.540109682197869
20
16.905844209612095
30
0
10
7.5333616168858919
20
16.950761380703128
30
0
10
7.5262158418531264
20
16.995522377557137
30
0
10
7.5186679713914595
20
17.040123594976507
30
0
10
7.5107285831503994
20
17.08456800248565
30
0
10
7.502417881323284
20
17.128862766066284
30
0
10
7.4937536200254513
20
17.17301387592747
30
0
10
7.4847401527393433
20
17.217021275005699
30
0
10
7.4753590495614395
20
17.260874681855746
30
0
10
7.4655538622972815
20
17.304546818694003
30
0
10
7.4552448183462019
20
17.3479999076065
30
0
10
7.4443560218998028
20
17.391197705260229
30
0
10
7.4328405391664436
20
17.434116611878629
30
0
10
7.4207022028710927
20
17.476755296698535
30
0
10
7.40802967687031
20
17.519149831481098
30
0
10
7.3949514309740607
20
17.561353321032097
30
0
10
7.3815691677672524
20
17.603405873028947
30
0
10
7.3678961558758012
20
17.645306744841534
30
0
10
7.3537986946149472
20
17.686987950724948
30
0
10
7.3389220614292956
20
17.728280757808861
30
0
10
7.3227861828906402
20
17.768959837646442
30
0
10
7.3084806797794712
20
17.800830318211368
30
0
10
7.2967934822131317
20
17.824274508492639
30
0
10
7.2885541862575352
20
17.839689887734075
30
0
10
7.2843225791930291
20
17.847344056496333
30
0
0
LINE
5
114
100
AcDbEntity
8
0
100
AcDbLine
10
7.2843225791930291
20
17.847344056496333
30
0
11
7.0322142000802987
21
18.303359950858077
31
0
0
ARC
5
115
100
AcDbEntity
8
0
100
AcDbCircle
10
7.9073748065020535
20
18.787192476601749
30
0
40
1.0000000000000002
210
0
220
0
230
1
100
AcDbArc
50
122.92167700482074
51
208.93601095527794
0
ARC
5
116
100
AcDbEntity
8
0
100
AcDbCircle
10
9.0205620750793969e-16
20
30.999999046325868
30
0
40
13.549200000000001
210
-1.4703374662567741e-46
220
-9.5199325162140119e-47
230
1
100
AcDbArc
50
302.92167700482076
51
304.57832299517924
0
ARC
5
117
100
AcDbEntity
8
0
100
AcDbCircle
10
8.2571406923380497
20
19.020898569790283
30
0
40
1.0000000000000007
210
0
220
-0
230
1
100
AcDbArc
50
38.563989044722007
51
124.57832299517918
0
LINE
5
118
100
AcDbEntity
8
0
100
AcDbLine
10
9.039053124772062
20
19.64428685008205
30
0
11
9.3638791762258453
21
19.236859350977817
31
0
0
SPLINE
5
119
100
AcDbEntity
8
0
100
AcDbSpline
70
4
71
5
72
81
73
75
74
0
42
0.000000001
43
0.0000000001
44
0.0000000001
40
0
40
0
40
0
40
0
40
0
40
0
40
0.014285714285714285
40
0.028571428571428571
40
0.042857142857142858
40
0.057142857142857141
40
0.071428571428571425
40
0.085714285714285715
40
0.10000000000000001
40
0.1142857142857143
40
0.12857142857142859
40
0.14285714285714288
40
0.15714285714285717
40
0.17142857142857146
40
0.18571428571428575
40
0.20000000000000004
40
0.21428571428571433
40
0.22857142857142862
40
0.24285714285714291
40
0.25714285714285717
40
0.27142857142857146
40
0.28571428571428575
40
0.30000000000000004
40
0.31428571428571433
40
0.32857142857142863
40
0.34285714285714292
40
0.35714285714285721
40
0.3714285714285715
40
0.38571428571428579
40
0.40000000000000008
40
0.41428571428571437
40
0.42857142857142866
40
0.44285714285714295
40
0.45714285714285724
40
0.47142857142857153
40
0.48571428571428582
40
0.50000000000000011
40
0.51428571428571435
40
0.52857142857142858
40
0.54285714285714282
40
0.55714285714285705
40
0.57142857142857129
40
0.58571428571428552
40
0.59999999999999976
40
0.61428571428571399
40
0.62857142857142823
40
0.64285714285714246
40
0.6571428571428567
40
0.67142857142857093
40
0.68571428571428517
40
0.6999999999999994
40
0.71428571428571364
40
0.72857142857142787
40
0.74285714285714211
40
0.75714285714285634
40
0.77142857142857058
40
0.78571428571428481
40
0.79999999999999905
40
0.81428571428571328
40
0.82857142857142752
40
0.84285714285714175
40
0.85714285714285599
40
0.87142857142857022
40
0.88571428571428445
40
0.89999999999999869
40
0.91428571428571292
40
0.92857142857142716
40
0.94285714285714139
40
0.95714285714285563
40
0.97142857142856986
40
0.9857142857142841
40
1
40
1
40
1
40
1
40
1
40
1
41
1
41
1
41
1
41
1
41
1
41
1
41
1
41
1
41
1
41
1
41
1
41
1
41
1
41
1
41
1
41
1
41
1
41
1
41
1
41
1
41
1
41
1
41
1
41
1
41
1
41
1
41
1
41
1
41
1
41
1
41
1
41
1
41
1
41
1
41
1
41
1
41
1
41
1
41
1
41
1
41
1
41
1
41
1
41
1
41
1
41
1
41
1
41
1
41
1
41
1
41
1
41
1
41
1
41
1
41
1
41
1
41
1
41
1
41
1
41
1
41
1
41
1
41
1
41
1
41
1
41
1
41
1
41
1
41
1
41
1
41
1
41
1
41
1
41
1
41
1
10
9.3638791762258453
20
19.236859350977817
30
0
10
9.36933134016782
20
19.230020732247443
30
0
10
9.3804202514783199
20
19.216509405112443
30
0
10
9.397607362156073
20
19.196740139282628
30
0
10
9.4215773678090127
20
19.171327272862232
30
0
10
9.4529850036889496
20
19.140852455043582
30
0
10
9.4854415419441942
20
19.111306164983819
30
0
10
9.5185550900873288
20
19.082331102131963
30
0
10
9.5520340128279688
20
19.053664116853337
30
0
10
9.585764334490932
20
19.025207702840024
30
0
10
9.6197504466587596
20
18.996974402896171
30
0
10
9.6540683238879925
20
18.969042829414715
30
0
10
9.6888161918895968
20
18.941511350694288
30
0
10
9.7240613068143595
20
18.914448077391864
30
0
10
9.759803905917769
20
18.887857059744611
30
0
10
9.7960042250648165
20
18.86170396782655
30
0
10
9.8325997357134867
20
18.835932552776772
30
0
10
9.8695250079696422
20
18.810483571304051
30
0
10
9.9067332386585143
20
18.78531531083274
30
0
10
9.94420787614456
20
18.760414678890935
30
0
10
9.9819505337135723
20
18.735785719409222
30
0
10
10.019973539802887
20
18.711442542697615
30
0
10
10.058291246726412
20
18.687401072694328
30
0
10
10.096910445858185
20
18.663669945485452
30
0
10
10.13582612809209
20
18.640246488854416
30
0
10
10.175026616961006
20
18.61712161209136
30
0
10
10.214496620298306
20
18.594282716878975
30
0
10
10.254220841475538
20
18.571717139600231
30
0
10
10.2941880055333
20
18.549415988748276
30
0
10
10.334392310440075
20
18.527375531151364
30
0
10
10.374831210376145
20
18.505595086797445
30
0
10
10.415504070645678
20
18.48407575308984
30
0
10
10.456410591849089
20
18.462818909110933
30
0
10
10.4975490363178
20
18.441824531804571
30
0
10
10.538915649347514
20
18.421090647840686
30
0
10
10.580505584440072
20
18.400614215296493
30
0
10
10.622313455541146
20
18.380391650339519
30
0
10
10.66433398703621
20
18.360419446781759
30
0
10
10.706562745829089
20
18.340694872963205
30
0
10
10.748996359882225
20
18.321216181651899
30
0
10
10.791632114424971
20
18.301982229637062
30
0
10
10.834467702107954
20
18.282992243087861
30
0
10
10.877500932141139
20
18.264245543487313
30
0
10
10.920729400815752
20
18.245741237254272
30
0
10
10.964150383463945
20
18.227478112927827
30
0
10
11.007761006263102
20
18.209454801163652
30
0
10
11.051558347765662
20
18.191669867980998
30
0
10
11.095539558209197
20
18.174121925249111
30
0
10
11.139701992515022
20
18.156809751581495
30
0
10
11.184043253940477
20
18.139732336071532
30
0
10
11.228561109977505
20
18.122888810729268
30
0
10
11.273253436978115
20
18.106278407962289
30
0
10
11.318118157215867
20
18.089900409799782
30
0
10
11.363153165406885
20
18.073754090655058
30
0
10
11.408356302010096
20
18.057838690164367
30
0
10
11.453725408219672
20
18.042153440811681
30
0
10
11.499258362723284
20
18.026697581569003
30
0
10
11.544953120710964
20
18.011470374903777
30
0
10
11.590807760148952
20
17.996471122082394
30
0
10
11.636820493301329
20
17.981699172895851
30
0
10
11.682989598885328
20
17.967153921590221
30
0
10
11.729313367108267
20
17.952834804336113
30
0
10
11.77579004345851
20
17.938741294422265
30
0
10
11.822417760015909
20
17.924872896946461
30
0
10
11.869194507346732
20
17.911229141647016
30
0
10
11.916118257017754
20
17.89780957340238
30
0
10
11.963187060133503
20
17.884613741235494
30
0
10
12.010399151954946
20
17.871641187343577
30
0
10
12.057753058525709
20
17.858891431981942
30
0
10
12.105247685791799
20
17.846363965639501
30
0
10
12.152882263411602
20
17.834058305133212
30
0
10
12.191101494609789
20
17.824390894849259
30
0
10
12.219828560457751
20
17.817239838658779
30
0
10
12.239007769545402
20
17.812516676067077
30
0
10
12.248604332052357
20
17.810166146822247
30
0
0
ARC
5
120
100
AcDbEntity
8
0
100
AcDbCircle
10
9.0205620750793969e-16
20
30.999999046325868
30
0
40
18
210
-0
220
0
230
1
100
AcDbArc
50
312.88100839275205
51
317.11899160724784
0
SPLINE
5
121
100
AcDbEntity
8
0
100
AcDbSpline
70
4
71
5
72
81
73
75
74
0
42
0.000000001
43
0.0000000001
44
0.0000000001
40
-1
40
-1
40
-1
40
-1
40
-1
40
-1
40
-0.9857142857142841
40
-0.97142857142856986
40
-0.95714285714285563
40
-0.94285714285714139
40
-0.92857142857142716
40
-0.91428571428571292
40
-0.89999999999999869
40
-0.88571428571428445
40
-0.87142857142857022
40
-0.85714285714285599
40
-0.84285714285714175
40
-0.82857142857142752
40
-0.81428571428571328
40
-0.79999999999999905
40
-0.78571428571428481
40
-0.77142857142857058
40
-0.75714285714285634
40
-0.74285714285714211
40
-0.72857142857142787
40
-0.71428571428571364
40
-0.6999999999999994
40
-0.68571428571428517
40
-0.67142857142857093
40
-0.6571428571428567
40
-0.64285714285714246
40
-0.62857142857142823
40
-0.61428571428571399
40
-0.59999999999999976
40
-0.58571428571428552
40
-0.57142857142857129
40
-0.55714285714285705
40
-0.54285714285714282
40
-0.52857142857142858
40
-0.51428571428571435
40
-0.50000000000000011
40
-0.48571428571428582
40
-0.47142857142857153
40
-0.45714285714285724
40
-0.44285714285714295
40
-0.42857142857142866
40
-0.41428571428571437
40
-0.40000000000000008
40
-0.38571428571428579
40
-0.3714285714285715
40
-0.35714285714285721
40
-0.34285714285714292
40
-0.32857142857142863
40
-0.31428571428571433
40
-0.30000000000000004
40
-0.28571428571428575
40
-0.27142857142857146
40
-0.25714285714285717
40
-0.24285714285714291
40
-0.22857142857142862
40
-0.21428571428571433
40
-0.20000000000000004
40
-0.18571428571428575
40
-0.17142857142857146
40
-0.15714285714285717
40
-0.14285714285714288
40
-0.12857142857142859
40
-0.1142857142857143
40
-0.10000000000000001
40
-0.085714285714285715
40
-0.071428571428571425
40
-0.057142857142857141
40
-0.042857142857142858
40
-0.028571428571428571
40
-0.014285714285714285
40
0
40
0
40
0
40
0
40
0
40
0
41
1
41
1
41
1
41
1
41
1
41
1
41
1
41
1
41
1
41
1
41
1
41
1
41
1
41
1
41
1
41
1
41
1
41
1
41
1
41
1
41
1
41
1
41
1
41
1
41
1
41
1
41
1
41
1
41
1
41
1
41
1
41
1
41
1
41
1
41
1
41
1
41
1
41
1
41
1
41
1
41
1
41
1
41
1
41
1
41
1
41
1
41
1
41
1
41
1
41
1
41
1
41
1
41
1
41
1
41
1
41
1
41
1
41
1
41
1
41
1
41
1
41
1
41
1
41
1
41
1
41
1
41
1
41
1
41
1
41
1
41
1
41
1
41
1
41
1
41
1
10
13.189832899503626
20
18.751394714273513
30
0
10
13.187482370258795
20
18.760991276780466
30
0
10
13.182759207667091
20
18.780170485868119
30
0
10
13.175608151476615
20
18.808897551716083
30
0
10
13.16594074119266
20
18.84711678291427
30
0
10
13.153635080686371
20
18.894751360534073
30
0
10
13.141107614343932
20
18.942245987800163
30
0
10
13.128357858982294
20
18.989599894370926
30
0
10
13.115385305090374
20
19.036811986192365
30
0
10
13.102189472923493
20
19.083880789308118
30
0
10
13.088769904678855
20
19.130804538979138
30
0
10
13.075126149379411
20
19.177581286309959
30
0
10
13.061257751903605
20
19.224209002867362
30
0
10
13.047164241989758
20
19.270685679217603
30
0
10
13.032845124735646
20
19.317009447440544
30
0
10
13.018299873430019
20
19.363178553024539
30
0
10
13.003527924243476
20
19.40919128617692
30
0
10
12.988528671422097
20
19.455045925614904
30
0
10
12.973301464756869
20
19.500740683602583
30
0
10
12.957845605514191
20
19.546273638106197
30
0
10
12.942160356161505
20
19.591642744315774
30
0
10
12.926244955670811
20
19.636845880918983
30
0
10
12.910098636526088
20
19.681880889110005
30
0
10
12.893720638363579
20
19.726745609347756
30
0
10
12.877110235596604
20
19.771437936348363
30
0
10
12.86026671025434
20
19.815955792385395
30
0
10
12.843189294744375
20
19.86029705381085
30
0
10
12.825877121076758
20
19.904459488116675
30
0
10
12.808329178344874
20
19.948440698560209
30
0
10
12.790544245162218
20
19.992238040062769
30
0
10
12.772520933398042
20
20.035848662861927
30
0
10
12.7542578090716
20
20.079269645510124
30
0
10
12.735753502838559
20
20.122498114184729
30
0
10
12.717006803238014
20
20.165531344217914
30
0
10
12.698016816688808
20
20.208366931900898
30
0
10
12.678782864673972
20
20.251002686443652
30
0
10
12.659304173362663
20
20.293436300496786
30
0
10
12.63957959954411
20
20.335665059289664
30
0
10
12.61960739598635
20
20.377685590784726
30
0
10
12.599384831029381
20
20.4194934618858
30
0
10
12.57890839848519
20
20.46108339697836
30
0
10
12.558174514521298
20
20.502450010008072
30
0
10
12.537180137214941
20
20.543588454476783
30
0
10
12.515923293236034
20
20.584494975680194
30
0
10
12.494403959528428
20
20.625167835949725
30
0
10
12.472623515174508
20
20.665606735885795
30
0
10
12.450583057577592
20
20.705811040792568
30
0
10
12.428281906725642
20
20.745778204850328
30
0
10
12.405716329446895
20
20.78550242602757
30
0
10
12.382877434234512
20
20.824972429364866
30
0
10
12.359752557471451
20
20.864172918233784
30
0
10
12.33632910084042
20
20.903088600467687
30
0
10
12.312597973631544
20
20.94170779959946
30
0
10
12.288556503628257
20
20.980025506522985
30
0
10
12.264213326916646
20
21.018048512612303
30
0
10
12.239584367434935
20
21.055791170181312
30
0
10
12.21468373549313
20
21.093265807667358
30
0
10
12.189515475021819
20
21.13047403835623
30
0
10
12.1640664935491
20
21.167399310612389
30
0
10
12.138295078499322
20
21.203994821261055
30
0
10
12.112141986581261
20
21.240195140408105
30
0
10
12.085550968934006
20
21.275937739511512
30
0
10
12.05848769563158
20
21.311182854436272
30
0
10
12.030956216911154
20
21.345930722437881
30
0
10
12.003024643429701
20
21.380248599667112
30
0
10
11.974791343485848
20
21.41423471183494
30
0
10
11.946334929472533
20
21.447965033497901
30
0
10
11.917667944193905
20
21.481443956238543
30
0
10
11.888692881342052
20
21.514557504381678
30
0
10
11.859146591282288
20
21.547014042636924
30
0
10
11.828671773463636
20
21.578421678516861
30
0
10
11.803258907043244
20
21.602391684169802
30
0
10
11.783489641213428
20
21.619578794847548
30
0
10
11.769978314078426
20
21.63066770615805
30
0
10
11.763139695348057
20
21.636119870100025
30
0
0
LINE
5
122
100
AcDbEntity
8
0
100
AcDbLine
10
11.763139695348057
20
21.636119870100032
30
0
11
11.355712196243822
21
21.960945921553812
31
0
0
ARC
5
123
100
AcDbEntity
8
0
100
AcDbCircle
10
11.979100476535589
20
22.742858353987824
30
0
40
1.0000000000000016
210
0
220
0
230
1
100
AcDbArc
50
145.42167700482091
51
231.43601095527802
0
ARC
5
124
100
AcDbEntity
8
0
100
AcDbCircle
10
9.0205620750793969e-16
20
30.999999046325868
30
0
40
13.549199999999997
210
-1.2426283073003226e-46
220
-1.8027510857300148e-46
230
1
100
AcDbArc
50
325.42167700482076
51
327.07832299517929
0
ARC
5
125
100
AcDbEntity
8
0
100
AcDbCircle
10
12.212806569724119
20
23.092624239823817
30
0
40
0.99999999999999911
210
-3.8167656423352275e-31
220
-6.9037998819563815e-31
230
1
100
AcDbArc
50
61.063989044722049
51
147.07832299517924
0
LINE
5
126
100
AcDbEntity
8
0
100
AcDbLine
10
12.696639095467791
20
23.967784846245571
30
7.8886090522101216e-31
11
13.152654989829539
21
23.715676467132841
31
0
0
SPLINE
5
127
100
AcDbEntity
8
0
100
AcDbSpline
70
4
71
5
72
81
73
75
74
0
42
0.000000001
43
0.0000000001
44
0.0000000001
40
0
40
0
40
0
40
0
40
0
40
0
40
0.014285714285714285
40
0.028571428571428571
40
0.042857142857142858
40
0.057142857142857141
40
0.071428571428571425
40
0.085714285714285715
40
0.10000000000000001
40
0.1142857142857143
40
0.12857142857142859
40
0.14285714285714288
40
0.15714285714285717
40
0.17142857142857146
40
0.18571428571428575
40
0.20000000000000004
40
0.21428571428571433
40
0.22857142857142862
40
0.24285714285714291
40
0.25714285714285717
40
0.27142857142857146
40
0.28571428571428575
40
0.30000000000000004
40
0.31428571428571433
40
0.32857142857142863
40
0.34285714285714292
40
0.35714285714285721
40
0.3714285714285715
40
0.38571428571428579
40
0.40000000000000008
40
0.41428571428571437
40
0.42857142857142866
40
0.44285714285714295
40
0.45714285714285724
40
0.47142857142857153
40
0.48571428571428582
40
0.50000000000000011
40
0.51428571428571435
40
0.52857142857142858
40
0.54285714285714282
40
0.55714285714285705
40
0.57142857142857129
40
0.58571428571428552
40
0.59999999999999976
40
0.61428571428571399
40
0.62857142857142823
40
0.64285714285714246
40
0.6571428571428567
40
0.67142857142857093
40
0.68571428571428517
40
0.6999999999999994
40
0.71428571428571364
40
0.72857142857142787
40
0.74285714285714211
40
0.75714285714285634
40
0.77142857142857058
40
0.78571428571428481
40
0.79999999999999905
40
0.81428571428571328
40
0.82857142857142752
40
0.84285714285714175
40
0.85714285714285599
40
0.87142857142857022
40
0.88571428571428445
40
0.89999999999999869
40
0.91428571428571292
40
0.92857142857142716
40
0.94285714285714139
40
0.95714285714285563
40
0.97142857142856986
40
0.9857142857142841
40
1
40
1
40
1
40
1
40
1
40
1
41
1
41
1
41
1
41
1
41
1
41
1
41
1
41
1
41
1
41
1
41
1
41
1
41
1
41
1
41
1
41
1
41
1
41
1
41
1
41
1
41
1
41
1
41
1
41
1
41
1
41
1
41
1
41
1
41
1
41
1
41
1
41
1
41
1
41
1
41
1
41
1
41
1
41
1
41
1
41
1
41
1
41
1
41
1
41
1
41
1
41
1
41
1
41
1
41
1
41
1
41
1
41
1
41
1
41
1
41
1
41
1
41
1
41
1
41
1
41
1
41
1
41
1
41
1
41
1
41
1
41
1
41
1
41
1
41
1
41
1
41
1
41
1
41
1
41
1
41
1
10
13.152654989829539
20
23.715676467132841
30
0
10
13.160309158591799
20
23.711444860068337
30
0
10
13.175724537833236
20
23.703205564112739
30
0
10
13.199168728114504
20
23.691518366546397
30
0
10
13.231039208679427
20
23.67721286343523
30
0
10
13.271718288517011
20
23.661076984896575
30
0
10
13.313011095600926
20
23.646200351710924
30
0
10
13.354692301484338
20
23.632102890450067
30
0
10
13.396593173296925
20
23.618429878558619
30
0
10
13.438645725293776
20
23.605047615351808
30
0
10
13.480849214844774
20
23.591969369455562
30
0
10
13.523243749627337
20
23.579296843454781
30
0
10
13.565882434447243
20
23.567158507159427
30
0
10
13.608801341065647
20
23.555643024426068
30
0
10
13.651999138719372
20
23.544754227979666
30
0
10
13.69545222763187
20
23.534445184028591
30
0
10
13.739124364470129
20
23.524639996764428
30
0
10
13.782977771320175
20
23.515258893586527
30
0
10
13.826985170398402
20
23.506245426300421
30
0
10
13.871136280259591
20
23.497581165002583
30
0
10
13.915431043840222
20
23.489270463175473
30
0
10
13.959875451349365
20
23.48133107493441
30
0
10
14.004476668768735
20
23.473783204472745
30
0
10
14.049237665622744
20
23.466637429439977
30
0
10
14.094154836713777
20
23.459889364128003
30
0
10
14.139220873256914
20
23.453526141425506
30
0
10
14.184426468299698
20
23.447530269946203
30
0
10
14.229762335756629
20
23.4418841962672
30
0
10
14.275221461555834
20
23.436575390967157
30
0
10
14.320799913942128
20
23.431598184703759
30
0
10
14.366495601114128
20
23.426950974984777
30
0
10
14.412307516731278
20
23.422634532791093
30
0
10
14.458234856432444
20
23.418650017653427
30
0
10
14.504276023644405
20
23.414996743293713
30
0
10
14.550428304633433
20
23.411671449729539
30
0
10
14.596688385912524
20
23.408669471916173
30
0
10
14.643052662889637
20
23.405985437670385
30
0
10
14.689517603292551
20
23.403614088806556
30
0
10
14.73608015683547
20
23.401551205127461
30
0
10
14.782737876798633
20
23.399793881978354
30
0
10
14.829488692548837
20
23.398340024272436
30
0
10
14.876330768505454
20
23.39718803409886
30
0
10
14.923262340299619
20
23.396336446210633
30
0
10
14.970281529152693
20
23.395783515186896
30
0
10
15.017386281405837
20
23.395527079098461
30
0
10
15.064574466018554
20
23.395564773071825
30
0
10
15.111843932685897
20
23.395894154291959
30
0
10
15.159192579785334
20
23.396512849736389
30
0
10
15.206618430987184
20
23.397418718763351
30
0
10
15.254119658847172
20
23.398609910223197
30
0
10
15.301694532962173
20
23.400084767853929
30
0
10
15.349341385082171
20
23.401841769807731
30
0
10
15.397058570393771
20
23.403879457654554
30
0
10
15.444844421538299
20
23.40619635538248
30
0
10
15.492697234338561
20
23.408790934086397
30
0
10
15.540615308033704
20
23.411661658534729
30
0
10
15.588596974019499
20
23.414807013838214
30
0
10
15.636640625379357
20
23.418225536090706
30
0
10
15.684744753779395
20
23.421915844216059
30
0
10
15.732907956391212
20
23.425876653362568
30
0
10
15.781128874768868
20
23.430106745180176
30
0
10
15.829406145038082
20
23.434604944449116
30
0
10
15.877738347805126
20
23.439370093129096
30
0
10
15.926123946727689
20
23.444401019168005
30
0
10
15.974561265292429
20
23.449696519123687
30
0
10
16.023048603638884
20
23.455255396270871
30
0
10
16.071584333803862
20
23.461076488151086
30
0
10
16.120167000574636
20
23.467158696473312
30
0
10
16.168795425783426
20
23.473501013952568
30
0
10
16.217468793637579
20
23.480102551185649
30
0
10
16.266186577340402
20
23.486962566972661
30
0
10
16.305196100542268
20
23.492656911056201
30
0
10
16.334473039436315
20
23.497043568766461
30
0
10
16.353999794234362
20
23.500019501082974
30
0
10
16.363765370516287
20
23.501520340702168
30
0
0
ARC
5
128
100
AcDbEntity
8
0
100
AcDbCircle
10
9.0205620750793969e-16
20
30.999999046325868
30
0
40
18.000000000000004
210
-1.8242372734310465e-46
220
-3.9809929312979336e-46
230
1
100
AcDbArc
50
335.38100839275211
51
339.61899160724789
0
SPLINE
5
129
100
AcDbEntity
8
0
100
AcDbSpline
70
4
71
5
72
81
73
75
74
0
42
0.000000001
43
0.0000000001
44
0.0000000001
40
-1
40
-1
40
-1
40
-1
40
-1
40
-1
40
-0.9857142857142841
40
-0.97142857142856986
40
-0.95714285714285563
40
-0.94285714285714139
40
-0.92857142857142716
40
-0.91428571428571292
40
-0.89999999999999869
40
-0.88571428571428445
40
-0.87142857142857022
40
-0.85714285714285599
40
-0.84285714285714175
40
-0.82857142857142752
40
-0.81428571428571328
40
-0.79999999999999905
40
-0.78571428571428481
40
-0.77142857142857058
40
-0.75714285714285634
40
-0.74285714285714211
40
-0.72857142857142787
40
-0.71428571428571364
40
-0.6999999999999994
40
-0.68571428571428517
40
-0.67142857142857093
40
-0.6571428571428567
40
-0.64285714285714246
40
-0.62857142857142823
40
-0.61428571428571399
40
-0.59999999999999976
40
-0.58571428571428552
40
-0.57142857142857129
40
-0.55714285714285705
40
-0.54285714285714282
40
-0.52857142857142858
40
-0.51428571428571435
40
-0.50000000000000011
40
-0.48571428571428582
40
-0.47142857142857153
40
-0.45714285714285724
40
-0.44285714285714295
40
-0.42857142857142866
40
-0.41428571428571437
40
-0.40000000000000008
40
-0.38571428571428579
40
-0.3714285714285715
40
-0.35714285714285721
40
-0.34285714285714292
40
-0.32857142857142863
40
-0.31428571428571433
40
-0.30000000000000004
40
-0.28571428571428575
40
-0.27142857142857146
40
-0.25714285714285717
40
-0.24285714285714291
40
-0.22857142857142862
40
-0.21428571428571433
40
-0.20000000000000004
40
-0.18571428571428575
40
-0.17142857142857146
40
-0.15714285714285717
40
-0.14285714285714288
40
-0.12857142857142859
40
-0.1142857142857143
40
-0.10000000000000001
40
-0.085714285714285715
40
-0.071428571428571425
40
-0.057142857142857141
40
-0.042857142857142858
40
-0.028571428571428571
40
-0.014285714285714285
40
0
40
0
40
0
40
0
40
0
40
0
41
1
41
1
41
1
41
1
41
1
41
1
41
1
41
1
41
1
41
1
41
1
41
1
41
1
41
1
41
1
41
1
41
1
41
1
41
1
41
1
41
1
41
1
41
1
41
1
41
1
41
1
41
1
41
1
41
1
41
1
41
1
41
1
41
1
41
1
41
1
41
1
41
1
41
1
41
1
41
1
41
1
41
1
41
1
41
1
41
1
41
1
41
1
41
1
41
1
41
1
41
1
41
1
41
1
41
1
41
1
41
1
41
1
41
1
41
1
41
1
41
1
41
1
41
1
41
1
41
1
41
1
41
1
41
1
41
1
41
1
41
1
41
1
41
1
41
1
41
1
10
16.873154600567105
20
24.731294728417645
30
0
10
16.867310549228169
20
24.739261287500995
30
0
10
16.855607350417262
20
24.755173090154624
30
0
10
16.838007263806563
20
24.778976847592652
30
0
10
16.814449874735551
20
24.810587255295431
30
0
10
16.784851963196957
20
24.849886694198119
30
0
10
16.755102686467861
20
24.888971954414746
30
0
10
16.725201892942323
20
24.92784213933632
30
0
10
16.695149530569815
20
24.966496043207297
30
0
10
16.664945720182725
20
25.004932120679207
30
0
10
16.634590714162819
20
25.043148566152226
30
0
10
16.604084841671639
20
25.081143406500285
30
0
10
16.57342845847948
20
25.118914593527961
30
0
10
16.542621899098194
20
25.1564600907992
30
0
10
16.511665421119854
20
25.193777983189932
30
0
10
16.480559209349241
20
25.230866448179086
30
0
10
16.449303397185247
20
25.267723690356046
30
0
10
16.41789808369062
20
25.304347887650884
30
0
10
16.386343352287479
20
25.340737139586782
30
0
10
16.354639292960631
20
25.376889403042291
30
0
10
16.322786006833731
20
25.412802506617865
30
0
10
16.290783602599674
20
25.448474199243641
30
0
10
16.258632197305342
20
25.483902192727438
30
0
10
16.226331914886806
20
25.519084200934842
30
0
10
16.193882890646652
20
25.554018001167172
30
0
10
16.161285256377813
20
25.588701399099961
30
0
10
16.128539115602276
20
25.623132138993391
30
0
10
16.095644520745733
20
25.657307826113595
30
0
10
16.062601455045961
20
25.691225859301866
30
0
10
16.02940980231676
20
25.724883327419764
30
0
10
15.996069370649407
20
25.758277066415477
30
0
10
15.962579953208021
20
25.79140382846272
30
0
10
15.928941384647706
20
25.824260434470201
30
0
10
15.895153588409769
20
25.856843903567057
30
0
10
15.861216658792399
20
25.889151673057242
30
0
10
15.827130807306691
20
25.921181459257475
30
0
10
15.792896202010558
20
25.952930834322657
30
0
10
15.758512825612714
20
25.984396852643936
30
0
10
15.723980354304212
20
26.015575730228093
30
0
10
15.68929796083275
20
26.046462326067285
30
0
10
15.654464424793261
20
26.077050424369169
30
0
10
15.619478496310034
20
26.107333677595079
30
0
10
15.584339219687418
20
26.137306444071108
30
0
10
15.549046208669285
20
26.166964499742079
30
0
10
15.5136001069315
20
26.196306230388355
30
0
10
15.478002303155309
20
26.225331887152766
30
0
10
15.442254054096757
20
26.254041303610897
30
0
10
15.406355705749668
20
26.282431867502666
30
0
10
15.370306029454399
20
26.310496789826932
30
0
10
15.33410112526993
20
26.338222251247117
30
0
10
15.297735147305946
20
26.365589273364836
30
0
10
15.261202308293772
20
26.392578906893029
30
0
10
15.224498677903128
20
26.419176885318674
30
0
10
15.187623704229754
20
26.445377558218119
30
0
10
15.150582767030494
20
26.471190504889925
30
0
10
15.113385085713205
20
26.496635078970474
30
0
10
15.076038978615776
20
26.521728070232562
30
0
10
15.038547564465166
20
26.546472516703151
30
0
10
15.000905081431263
20
26.570848116392845
30
0
10
14.963090902918733
20
26.594795666094797
30
0
10
14.925075334199843
20
26.618232045042962
30
0
10
14.886830336740362
20
26.64107795889003
30
0
10
14.84833941089998
20
26.663283532871617
30
0
10
14.809606207816181
20
26.684850536141887
30
0
10
14.770667915716269
20
26.705867170101971
30
0
10
14.731577825705759
20
26.726461827393951
30
0
10
14.692379491961429
20
26.746734783015967
30
0
10
14.653082821937433
20
26.766694894184585
30
0
10
14.613641348154173
20
26.786199547057713
30
0
10
14.573923556044111
20
26.804878602754179
30
0
10
14.533749313703442
20
26.822233266824679
30
0
10
14.501097962518115
20
26.834653581493619
30
0
10
14.476256319938576
20
26.842967030768708
30
0
10
14.459529938699989
20
26.848041287922481
30
0
10
14.45112542601322
20
26.850461404507993
30
0
0
LINE
5
130
100
AcDbEntity
8
0
100
AcDbLine
10
14.451125426013222
20
26.850461404507993
30
0
11
13.950405950316622
21
26.99464579127547
31
0
0
ARC
5
131
100
AcDbEntity
8
0
100
AcDbCircle
10
14.22711668983281
20
27.955599050615589
30
0
40
1.0000000000000007
210
1.9284936887640678e-31
220
-4.126701358959334e-32
230
1
100
AcDbArc
50
167.92167700482096
51
253.93601095527796
0
ARC
5
132
100
AcDbEntity
8
0
100
AcDbCircle
10
9.0205620750793969e-16
20
30.999999046325868
30
0
40
13.549200000000001
210
1.5083478827060463e-31
220
7.7444319138476363e-31
230
1
100
AcDbArc
50
347.92167700482076
51
349.57832299517924
0
ARC
5
133
100
AcDbEntity
8
0
100
AcDbCircle
10
14.309183356236936
20
28.36817604361617
30
0
40
1.0000000000000018
210
0
220
-0
230
1
100
AcDbArc
50
83.563989044722121
51
169.57832299517889
0
LINE
5
134
100
AcDbEntity
8
0
100
AcDbLine
10
14.421276859198564
20
29.36187370719086
30
0
11
14.939058310346066
21
29.303465663421395
31
0
0
SPLINE
5
135
100
AcDbEntity
8
0
100
AcDbSpline
70
4
71
5
72
81
73
75
74
0
42
0.000000001
43
0.0000000001
44
0.0000000001
40
0
40
0
40
0
40
0
40
0
40
0
40
0.014285714285714285
40
0.028571428571428571
40
0.042857142857142858
40
0.057142857142857141
40
0.071428571428571425
40
0.085714285714285715
40
0.10000000000000001
40
0.1142857142857143
40
0.12857142857142859
40
0.14285714285714288
40
0.15714285714285717
40
0.17142857142857146
40
0.18571428571428575
40
0.20000000000000004
40
0.21428571428571433
40
0.22857142857142862
40
0.24285714285714291
40
0.25714285714285717
40
0.27142857142857146
40
0.28571428571428575
40
0.30000000000000004
40
0.31428571428571433
40
0.32857142857142863
40
0.34285714285714292
40
0.35714285714285721
40
0.3714285714285715
40
0.38571428571428579
40
0.40000000000000008
40
0.41428571428571437
40
0.42857142857142866
40
0.44285714285714295
40
0.45714285714285724
40
0.47142857142857153
40
0.48571428571428582
40
0.50000000000000011
40
0.51428571428571435
40
0.52857142857142858
40
0.54285714285714282
40
0.55714285714285705
40
0.57142857142857129
40
0.58571428571428552
40
0.59999999999999976
40
0.61428571428571399
40
0.62857142857142823
40
0.64285714285714246
40
0.6571428571428567
40
0.67142857142857093
40
0.68571428571428517
40
0.6999999999999994
40
0.71428571428571364
40
0.72857142857142787
40
0.74285714285714211
40
0.75714285714285634
40
0.77142857142857058
40
0.78571428571428481
40
0.79999999999999905
40
0.81428571428571328
40
0.82857142857142752
40
0.84285714285714175
40
0.85714285714285599
40
0.87142857142857022
40
0.88571428571428445
40
0.89999999999999869
40
0.91428571428571292
40
0.92857142857142716
40
0.94285714285714139
40
0.95714285714285563
40
0.97142857142856986
40
0.9857142857142841
40
1
40
1
40
1
40
1
40
1
40
1
41
1
41
1
41
1
41
1
41
1
41
1
41
1
41
1
41
1
41
1
41
1
41
1
41
1
41
1
41
1
41
1
41
1
41
1
41
1
41
1
41
1
41
1
41
1
41
1
41
1
41
1
41
1
41
1
41
1
41
1
41
1
41
1
41
1
41
1
41
1
41
1
41
1
41
1
41
1
41
1
41
1
41
1
41
1
41
1
41
1
41
1
41
1
41
1
41
1
41
1
41
1
41
1
41
1
41
1
41
1
41
1
41
1
41
1
41
1
41
1
41
1
41
1
41
1
41
1
41
1
41
1
41
1
41
1
41
1
41
1
41
1
41
1
41
1
41
1
41
1
10
14.939058310346066
20
29.303465663421395
30
0
10
14.947749206119774
20
29.30248529183871
30
0
10
14.965144201543392
20
29.300772385182356
30
0
10
14.991276305979977
20
29.298946525764258
30
0
10
15.026195269697503
20
29.297926269131281
30
0
10
15.069952772344234
20
29.298585871108031
30
0
10
15.11379539269852
20
29.300643727341988
30
0
10
15.157698670567532
20
29.303570078355293
30
0
10
15.201642463550954
20
29.30697263196533
30
0
10
15.245615126047502
20
29.310701847827751
30
0
10
15.289610894273114
20
29.314769700362216
30
0
10
15.333627902995776
20
29.319285499048988
30
0
10
15.377666051390795
20
29.324388256845388
30
0
10
15.421724735231042
20
29.330173692539137
30
0
10
15.465801258331318
20
29.336644837845366
30
0
10
15.509891778125569
20
29.343749300351107
30
0
10
15.553991854208697
20
29.351403091749294
30
0
10
15.598097111991837
20
29.359518054785131
30
0
10
15.642203951877827
20
29.36803159937125
30
0
10
15.686309927868596
20
29.376922763958259
30
0
10
15.730413321238734
20
29.386195548802224
30
0
10
15.774512872013988
20
29.395868648920676
30
0
10
15.818607468888148
20
29.405963472856801
30
0
10
15.862695807452818
20
29.416490929472275
30
0
10
15.906776235277542
20
29.427445587251736
30
0
10
15.950846923955845
20
29.43881276158351
30
0
10
15.994905968648588
20
29.450572730917287
30
0
10
16.038951507535558
20
29.462705724373876
30
0
10
16.082981855261277
20
29.475197482108232
30
0
10
16.126995548920981
20
29.48804126171347
30
0
10
16.170991269189411
20
29.501234782182078
30
0
10
16.214967791287513
20
29.514778370697652
30
0
10
16.258923928349308
20
29.528672790711227
30
0
10
16.302858467960711
20
29.542916797202402
30
0
10
16.346770150499946
20
29.557506339839232
30
0
10
16.390657699939513
20
29.572435840665779
30
0
10
16.434519841916114
20
29.587698957014265
30
0
10
16.478355325256267
20
29.603289479212552
30
0
10
16.522162946862913
20
29.619202341012979
30
0
10
16.565941557825003
20
29.635433922545339
30
0
10
16.609690046881898
20
29.651981495804812
30
0
10
16.653407329672223
20
29.668842882067977
30
0
10
16.697092336857466
20
29.686016052428389
30
0
10
16.740744000616129
20
29.703498675349984
30
0
10
16.784361250949328
20
29.721287967569424
30
0
10
16.827943024030272
20
29.739380928714588
30
0
10
16.871488268061078
20
29.757774479032587
30
0
10
16.914995949512083
20
29.776465621880416
30
0
10
16.95846506168089
20
29.795451623254316
30
0
10
17.001894624633426
20
29.814730073582382
30
0
10
17.045283673509704
20
29.834298780481454
30
0
10
17.088631249433607
20
29.854155699535823
30
0
10
17.131936390912731
20
29.874298853889002
30
0
10
17.17519812235383
20
29.894726241813228
30
0
10
17.218415454389131
20
29.915435798623985
30
0
10
17.26158740322818
20
29.936425455099265
30
0
10
17.304713007004704
20
29.957693173116667
30
0
10
17.347791341333981
20
29.979236985262926
30
0
10
17.390821541212176
20
30.001055038375654
30
0
10
17.433802802286298
20
30.023145608567482
30
0
10
17.476734335758334
20
30.045507050374979
30
0
10
17.519615331309875
20
30.068137756104541
30
0
10
17.562444920754945
20
30.091036112688009
30
0
10
17.605222133223258
20
30.114200449357661
30
0
10
17.64794588035582
20
30.137629012704043
30
0
10
17.690615049653278
20
30.161320046588749
30
0
10
17.73322858192736
20
30.185271854045624
30
0
10
17.775785553034588
20
30.209482863500288
30
0
10
17.818285259961133
20
30.233951693477465
30
0
10
17.860727289372736
20
30.258677210085416
30
0
10
17.903111438217636
20
30.283658526948361
30
0
10
17.936972407137905
20
30.303847713132036
30
0
10
17.962342070527523
20
30.319104255871792
30
0
10
17.97924359962844
20
30.329326224378228
30
0
10
17.987691469221584
20
30.334449943634581
30
0
0
ARC
5
136
100
AcDbEntity
8
0
100
AcDbCircle
10
9.0205620750793969e-16
20
30.999999046325868
30
0
40
18.000000000000004
210
2.1757387276456425e-48
220
5.880335018448671e-47
230
1
100
AcDbArc
50
-2.1189916072478612
51
2.1189916072478483
0
SPLINE
5
137
100
AcDbEntity
8
0
100
AcDbSpline
70
4
71
5
72
81
73
75
74
0
42
0.000000001
43
0.0000000001
44
0.0000000001
40
-1
40
-1
40
-1
40
-1
40
-1
40
-1
40
-0.9857142857142841
40
-0.97142857142856986
40
-0.95714285714285563
40
-0.94285714285714139
40
-0.92857142857142716
40
-0.91428571428571292
40
-0.89999999999999869
40
-0.88571428571428445
40
-0.87142857142857022
40
-0.85714285714285599
40
-0.84285714285714175
40
-0.82857142857142752
40
-0.81428571428571328
40
-0.79999999999999905
40
-0.78571428571428481
40
-0.77142857142857058
40
-0.75714285714285634
40
-0.74285714285714211
40
-0.72857142857142787
40
-0.71428571428571364
40
-0.6999999999999994
40
-0.68571428571428517
40
-0.67142857142857093
40
-0.6571428571428567
40
-0.64285714285714246
40
-0.62857142857142823
40
-0.61428571428571399
40
-0.59999999999999976
40
-0.58571428571428552
40
-0.57142857142857129
40
-0.55714285714285705
40
-0.54285714285714282
40
-0.52857142857142858
40
-0.51428571428571435
40
-0.50000000000000011
40
-0.48571428571428582
40
-0.47142857142857153
40
-0.45714285714285724
40
-0.44285714285714295
40
-0.42857142857142866
40
-0.41428571428571437
40
-0.40000000000000008
40
-0.38571428571428579
40
-0.3714285714285715
40
-0.35714285714285721
40
-0.34285714285714292
40
-0.32857142857142863
40
-0.31428571428571433
40
-0.30000000000000004
40
-0.28571428571428575
40
-0.27142857142857146
40
-0.25714285714285717
40
-0.24285714285714291
40
-0.22857142857142862
40
-0.21428571428571433
40
-0.20000000000000004
40
-0.18571428571428575
40
-0.17142857142857146
40
-0.15714285714285717
40
-0.14285714285714288
40
-0.12857142857142859
40
-0.1142857142857143
40
-0.10000000000000001
40
-0.085714285714285715
40
-0.071428571428571425
40
-0.057142857142857141
40
-0.042857142857142858
40
-0.028571428571428571
40
-0.014285714285714285
40
0
40
0
40
0
40
0
40
0
40
0
41
1
41
1
41
1
41
1
41
1
41
1
41
1
41
1
41
1
41
1
41
1
41
1
41
1
41
1
41
1
41
1
41
1
41
1
41
1
41
1
41
1
41
1
41
1
41
1
41
1
41
1
41
1
41
1
41
1
41
1
41
1
41
1
41
1
41
1
41
1
41
1
41
1
41
1
41
1
41
1
41
1
41
1
41
1
41
1
41
1
41
1
41
1
41
1
41
1
41
1
41
1
41
1
41
1
41
1
41
1
41
1
41
1
41
1
41
1
41
1
41
1
41
1
41
1
41
1
41
1
41
1
41
1
41
1
41
1
41
1
41
1
41
1
41
1
41
1
41
1
10
17.987691469221581
20
31.665548149017159
30
0
10
17.979243599628436
20
31.670671868273512
30
0
10
17.962342070527523
20
31.680893836779944
30
0
10
17.936972407137901
20
31.6961503795197
30
0
10
17.903111438217636
20
31.716339565703375
30
0
10
17.860727289372736
20
31.74132088256632
30
0
10
17.818285259961129
20
31.766046399174272
30
0
10
17.775785553034588
20
31.790515229151449
30
0
10
17.73322858192736
20
31.814726238606109
30
0
10
17.690615049653275
20
31.838678046062991
30
0
10
17.647945880355817
20
31.86236907994769
30
0
10
17.605222133223258
20
31.885797643294076
30
0
10
17.562444920754945
20
31.908961979963728
30
0
10
17.519615331309872
20
31.931860336547192
30
0
10
17.476734335758334
20
31.954491042276764
30
0
10
17.433802802286298
20
31.976852484084255
30
0
10
17.390821541212176
20
31.998943054276083
30
0
10
17.347791341333981
20
32.020761107388807
30
0
10
17.304713007004704
20
32.04230491953507
30
0
10
17.26158740322818
20
32.063572637552468
30
0
10
17.218415454389131
20
32.084562294027748
30
0
10
17.17519812235383
20
32.105271850838506
30
0
10
17.131936390912731
20
32.125699238762742
30
0
10
17.088631249433607
20
32.14584239311592
30
0
10
17.045283673509701
20
32.165699312170283
30
0
10
17.001894624633429
20
32.185268019069355
30
0
10
16.95846506168089
20
32.204546469397421
30
0
10
16.914995949512086
20
32.223532470771325
30
0
10
16.871488268061078
20
32.242223613619153
30
0
10
16.827943024030272
20
32.260617163937148
30
0
10
16.784361250949328
20
32.27871012508232
30
0
10
16.740744000616129
20
32.29649941730176
30
0
10
16.697092336857466
20
32.313982040223344
30
0
10
16.653407329672227
20
32.331155210583759
30
0
10
16.609690046881894
20
32.348016596846925
30
0
10
16.565941557825006
20
32.364564170106398
30
0
10
16.522162946862913
20
32.380795751638757
30
0
10
16.478355325256263
20
32.396708613439181
30
0
10
16.434519841916114
20
32.412299135637475
30
0
10
16.39065769993951
20
32.427562251985961
30
0
10
16.346770150499946
20
32.442491752812508
30
0
10
16.302858467960714
20
32.457081295449335
30
0
10
16.258923928349308
20
32.47132530194051
30
0
10
16.214967791287517
20
32.485219721954081
30
0
10
16.170991269189411
20
32.498763310469656
30
0
10
16.126995548920981
20
32.511956830938267
30
0
10
16.082981855261277
20
32.524800610543508
30
0
10
16.038951507535554
20
32.537292368277868
30
0
10
15.99490596864859
20
32.54942536173445
30
0
10
15.950846923955845
20
32.561185331068224
30
0
10
15.906776235277544
20
32.572552505399997
30
0
10
15.862695807452816
20
32.583507163179462
30
0
10
15.81860746888815
20
32.59403461979494
30
0
10
15.774512872013988
20
32.604129443731068
30
0
10
15.730413321238734
20
32.613802543849516
30
0
10
15.686309927868598
20
32.623075328693474
30
0
10
15.642203951877827
20
32.631966493280487
30
0
10
15.598097111991837
20
32.64048003786661
30
0
10
15.5539918542087
20
32.648595000902446
30
0
10
15.509891778125569
20
32.65624879230063
30
0
10
15.46580125833132
20
32.663353254806367
30
0
10
15.421724735231042
20
32.669824400112603
30
0
10
15.377666051390795
20
32.675609835806348
30
0
10
15.333627902995779
20
32.680712593602749
30
0
10
15.289610894273114
20
32.685228392289524
30
0
10
15.245615126047502
20
32.689296244823993
30
0
10
15.201642463550954
20
32.693025460686407
30
0
10
15.157698670567532
20
32.696428014296444
30
0
10
15.11379539269852
20
32.699354365309745
30
0
10
15.069952772344235
20
32.701412221543713
30
0
10
15.026195269697499
20
32.702071823520463
30
0
10
14.99127630597998
20
32.701051566887486
30
0
10
14.965144201543394
20
32.699225707469381
30
0
10
14.947749206119775
20
32.697512800813023
30
0
10
14.939058310346072
20
32.696532429230338
30
0
0
LINE
5
138
100
AcDbEntity
8
0
100
AcDbLine
10
14.939058310346072
20
32.696532429230338
30
0
11
14.421276859198564
21
32.638124385460884
31
0
0
ARC
5
139
100
AcDbEntity
8
0
100
AcDbCircle
10
14.309183356236936
20
33.63182204903557
30
0
40
1.0000000000000011
210
-1.9396178716655374e-31
220
-3.5674509187774131e-32
230
1
100
AcDbArc
50
190.42167700482111
51
276.43601095527788
0
ARC
5
140
100
AcDbEntity
8
0
100
AcDbCircle
10
9.0205620750793969e-16
20
30.999999046325868
30
0
40
13.549200000000001
210
-1.2838266852518248e-31
220
7.7848010922387037e-31
230
1
100
AcDbArc
50
10.421677004820735
51
12.078322995179269
0
ARC
5
141
100
AcDbEntity
8
0
100
AcDbCircle
10
14.22711668983281
20
34.044399042036147
30
0
40
1.0000000000000011
210
-3.7902922901906504e-31
220
-1.0914314222955878e-31
230
1
100
AcDbArc
50
106.06398904472208
51
192.07832299517906
0
LINE
5
142
100
AcDbEntity
8
0
100
AcDbLine
10
13.95040595031662
20
35.00535230137627
30
7.2455698691354671e-47
11
14.45112542601322
21
35.149536688143748
31
0
0
SPLINE
5
143
100
AcDbEntity
8
0
100
AcDbSpline
70
4
71
5
72
81
73
75
74
0
42
0.000000001
43
0.0000000001
44
0.0000000001
40
0
40
0
40
0
40
0
40
0
40
0
40
0.014285714285714285
40
0.028571428571428571
40
0.042857142857142858
40
0.057142857142857141
40
0.071428571428571425
40
0.085714285714285715
40
0.10000000000000001
40
0.1142857142857143
40
0.12857142857142859
40
0.14285714285714288
40
0.15714285714285717
40
0.17142857142857146
40
0.18571428571428575
40
0.20000000000000004
40
0.21428571428571433
40
0.22857142857142862
40
0.24285714285714291
40
0.25714285714285717
40
0.27142857142857146
40
0.28571428571428575
40
0.30000000000000004
40
0.31428571428571433
40
0.32857142857142863
40
0.34285714285714292
40
0.35714285714285721
40
0.3714285714285715
40
0.38571428571428579
40
0.40000000000000008
40
0.41428571428571437
40
0.42857142857142866
40
0.44285714285714295
40
0.45714285714285724
40
0.47142857142857153
40
0.48571428571428582
40
0.50000000000000011
40
0.51428571428571435
40
0.52857142857142858
40
0.54285714285714282
40
0.55714285714285705
40
0.57142857142857129
40
0.58571428571428552
40
0.59999999999999976
40
0.61428571428571399
40
0.62857142857142823
40
0.64285714285714246
40
0.6571428571428567
40
0.67142857142857093
40
0.68571428571428517
40
0.6999999999999994
40
0.71428571428571364
40
0.72857142857142787
40
0.74285714285714211
40
0.75714285714285634
40
0.77142857142857058
40
0.78571428571428481
40
0.79999999999999905
40
0.81428571428571328
40
0.82857142857142752
40
0.84285714285714175
40
0.85714285714285599
40
0.87142857142857022
40
0.88571428571428445
40
0.89999999999999869
40
0.91428571428571292
40
0.92857142857142716
40
0.94285714285714139
40
0.95714285714285563
40
0.97142857142856986
40
0.9857142857142841
40
1
40
1
40
1
40
1
40
1
40
1
41
1
41
1
41
1
41
1
41
1
41
1
41
1
41
1
41
1
41
1
41
1
41
1
41
1
41
1
41
1
41
1
41
1
41
1
41
1
41
1
41
1
41
1
41
1
41
1
41
1
41
1
41
1
41
1
41
1
41
1
41
1
41
1
41
1
41
1
41
1
41
1
41
1
41
1
41
1
41
1
41
1
41
1
41
1
41
1
41
1
41
1
41
1
41
1
41
1
41
1
41
1
41
1
41
1
41
1
41
1
41
1
41
1
41
1
41
1
41
1
41
1
41
1
41
1
41
1
41
1
41
1
41
1
41
1
41
1
41
1
41
1
41
1
41
1
41
1
41
1
10
14.45112542601322
20
35.149536688143748
30
0
10
14.45952993869999
20
35.151956804729259
30
0
10
14.476256319938576
20
35.157031061883032
30
0
10
14.501097962518116
20
35.165344511158125
30
0
10
14.533749313703442
20
35.177764825827055
30
0
10
14.573923556044111
20
35.195119489897557
30
0
10
14.613641348154173
20
35.213798545594017
30
0
10
14.653082821937431
20
35.233303198467148
30
0
10
14.692379491961429
20
35.25326330963577
30
0
10
14.731577825705759
20
35.273536265257789
30
0
10
14.770667915716269
20
35.294130922549769
30
0
10
14.809606207816184
20
35.315147556509856
30
0
10
14.84833941089998
20
35.33671455978012
30
0
10
14.88683033674036
20
35.358920133761707
30
0
10
14.925075334199844
20
35.381766047608771
30
0
10
14.963090902918733
20
35.40520242655694
30
0
10
15.000905081431261
20
35.429149976258898
30
0
10
15.038547564465167
20
35.453525575948589
30
0
10
15.076038978615776
20
35.478270022419174
30
0
10
15.113385085713203
20
35.503363013681259
30
0
10
15.150582767030496
20
35.528807587761811
30
0
10
15.187623704229754
20
35.554620534433617
30
0
10
15.224498677903128
20
35.580821207333067
30
0
10
15.261202308293772
20
35.607419185758708
30
0
10
15.297735147305946
20
35.634408819286904
30
0
10
15.33410112526993
20
35.661775841404626
30
0
10
15.370306029454399
20
35.689501302824802
30
0
10
15.406355705749668
20
35.717566225149071
30
0
10
15.442254054096757
20
35.745956789040847
30
0
10
15.478002303155307
20
35.774666205498974
30
0
10
15.513600106931499
20
35.803691862263385
30
0
10
15.549046208669285
20
35.833033592909665
30
0
10
15.58433921968742
20
35.862691648580636
30
0
10
15.61947849631003
20
35.892664415056657
30
0
10
15.654464424793261
20
35.922947668282575
30
0
10
15.68929796083275
20
35.953535766584451
30
0
10
15.723980354304212
20
35.984422362423643
30
0
10
15.758512825612712
20
36.015601240007797
30
0
10
15.792896202010558
20
36.047067258329079
30
0
10
15.827130807306691
20
36.078816633394261
30
0
10
15.861216658792397
20
36.110846419594495
30
0
10
15.895153588409769
20
36.143154189084676
30
0
10
15.928941384647706
20
36.175737658181532
30
0
10
15.962579953208023
20
36.208594264189017
30
0
10
15.996069370649407
20
36.241721026236263
30
0
10
16.02940980231676
20
36.275114765231969
30
0
10
16.062601455045961
20
36.30877223334987
30
0
10
16.095644520745733
20
36.342690266538142
30
0
10
16.128539115602276
20
36.376865953658346
30
0
10
16.161285256377813
20
36.411296693551776
30
0
10
16.193882890646652
20
36.445980091484564
30
0
10
16.226331914886806
20
36.480913891716895
30
0
10
16.258632197305339
20
36.516095899924302
30
0
10
16.290783602599671
20
36.551523893408103
30
0
10
16.322786006833731
20
36.587195586033872
30
0
10
16.354639292960627
20
36.623108689609445
30
0
10
16.386343352287479
20
36.659260953064958
30
0
10
16.41789808369062
20
36.695650205000852
30
0
10
16.449303397185247
20
36.732274402295694
30
0
10
16.480559209349241
20
36.769131644472651
30
0
10
16.511665421119858
20
36.806220109461812
30
0
10
16.542621899098194
20
36.843538001852536
30
0
10
16.573428458479476
20
36.881083499123775
30
0
10
16.604084841671639
20
36.918854686151448
30
0
10
16.634590714162819
20
36.956849526499504
30
0
10
16.664945720182725
20
36.995065971972537
30
0
10
16.695149530569815
20
37.033502049444436
30
0
10
16.725201892942323
20
37.072155953315416
30
0
10
16.755102686467861
20
37.111026138236987
30
0
10
16.784851963196953
20
37.150111398453618
30
0
10
16.814449874735551
20
37.189410837356306
30
0
10
16.838007263806563
20
37.221021245059084
30
0
10
16.855607350417262
20
37.244825002497109
30
0
10
16.867310549228169
20
37.260736805150742
30
0
10
16.873154600567105
20
37.268703364234092
30
0
0
ARC
5
144
100
AcDbEntity
8
0
100
AcDbCircle
10
9.0205620750793969e-16
20
30.999999046325868
30
0
40
18.000000000000004
210
-2.7472976459933036e-31
220
7.3947622289652463e-31
230
1
100
AcDbArc
50
20.381008392752044
51
24.618991607247867
0
SPLINE
5
145
100
AcDbEntity
8
0
100
AcDbSpline
70
4
71
5
72
81
73
75
74
0
42
0.000000001
43
0.0000000001
44
0.0000000001
40
-1
40
-1
40
-1
40
-1
40
-1
40
-1
40
-0.9857142857142841
40
-0.97142857142856986
40
-0.95714285714285563
40
-0.94285714285714139
40
-0.92857142857142716
40
-0.91428571428571292
40
-0.89999999999999869
40
-0.88571428571428445
40
-0.87142857142857022
40
-0.85714285714285599
40
-0.84285714285714175
40
-0.82857142857142752
40
-0.81428571428571328
40
-0.79999999999999905
40
-0.78571428571428481
40
-0.77142857142857058
40
-0.75714285714285634
40
-0.74285714285714211
40
-0.72857142857142787
40
-0.71428571428571364
40
-0.6999999999999994
40
-0.68571428571428517
40
-0.67142857142857093
40
-0.6571428571428567
40
-0.64285714285714246
40
-0.62857142857142823
40
-0.61428571428571399
40
-0.59999999999999976
40
-0.58571428571428552
40
-0.57142857142857129
40
-0.55714285714285705
40
-0.54285714285714282
40
-0.52857142857142858
40
-0.51428571428571435
40
-0.50000000000000011
40
-0.48571428571428582
40
-0.47142857142857153
40
-0.45714285714285724
40
-0.44285714285714295
40
-0.42857142857142866
40
-0.41428571428571437
40
-0.40000000000000008
40
-0.38571428571428579
40
-0.3714285714285715
40
-0.35714285714285721
40
-0.34285714285714292
40
-0.32857142857142863
40
-0.31428571428571433
40
-0.30000000000000004
40
-0.28571428571428575
40
-0.27142857142857146
40
-0.25714285714285717
40
-0.24285714285714291
40
-0.22857142857142862
40
-0.21428571428571433
40
-0.20000000000000004
40
-0.18571428571428575
40
-0.17142857142857146
40
-0.15714285714285717
40
-0.14285714285714288
40
-0.12857142857142859
40
-0.1142857142857143
40
-0.10000000000000001
40
-0.085714285714285715
40
-0.071428571428571425
40
-0.057142857142857141
40
-0.042857142857142858
40
-0.028571428571428571
40
-0.014285714285714285
40
0
40
0
40
0
40
0
40
0
40
0
41
1
41
1
41
1
41
1
41
1
41
1
41
1
41
1
41
1
41
1
41
1
41
1
41
1
41
1
41
1
41
1
41
1
41
1
41
1
41
1
41
1
41
1
41
1
41
1
41
1
41
1
41
1
41
1
41
1
41
1
41
1
41
1
41
1
41
1
41
1
41
1
41
1
41
1
41
1
41
1
41
1
41
1
41
1
41
1
41
1
41
1
41
1
41
1
41
1
41
1
41
1
41
1
41
1
41
1
41
1
41
1
41
1
41
1
41
1
41
1
41
1
41
1
41
1
41
1
41
1
41
1
41
1
41
1
41
1
41
1
41
1
41
1
41
1
41
1
41
1
10
16.363765370516287
20
38.498477751949565
30
0
10
16.353999794234362
20
38.499978591568762
30
0
10
16.334473039436311
20
38.502954523885279
30
0
10
16.305196100542268
20
38.507341181595528
30
0
10
16.266186577340402
20
38.513035525679072
30
0
10
16.217468793637579
20
38.519895541466092
30
0
10
16.168795425783426
20
38.526497078699173
30
0
10
16.120167000574639
20
38.532839396178424
30
0
10
16.071584333803862
20
38.538921604500644
30
0
10
16.023048603638884
20
38.544742696380865
30
0
10
15.974561265292426
20
38.550301573528053
30
0
10
15.926123946727689
20
38.555597073483739
30
0
10
15.877738347805124
20
38.560627999522637
30
0
10
15.829406145038082
20
38.565393148202624
30
0
10
15.781128874768871
20
38.569891347471554
30
0
10
15.732907956391209
20
38.574121439289172
30
0
10
15.684744753779396
20
38.578082248435678
30
0
10
15.636640625379357
20
38.581772556561035
30
0
10
15.588596974019502
20
38.585191078813523
30
0
10
15.540615308033708
20
38.588336434117011
30
0
10
15.492697234338559
20
38.591207158565346
30
0
10
15.444844421538299
20
38.593801737269253
30
0
10
15.397058570393771
20
38.596118634997183
30
0
10
15.349341385082171
20
38.598156322844012
30
0
10
15.301694532962173
20
38.599913324797811
30
0
10
15.25411965884717
20
38.601388182428543
30
0
10
15.206618430987184
20
38.602579373888389
30
0
10
15.159192579785334
20
38.60348524291534
30
0
10
15.111843932685895
20
38.604103938359778
30
0
10
15.064574466018552
20
38.604433319579911
30
0
10
15.017386281405837
20
38.60447101355328
30
0
10
14.970281529152693
20
38.604214577464845
30
0
10
14.923262340299619
20
38.603661646441104
30
0
10
14.876330768505454
20
38.602810058552876
30
0
10
14.829488692548839
20
38.601658068379308
30
0
10
14.782737876798635
20
38.600204210673382
30
0
10
14.73608015683547
20
38.598446887524275
30
0
10
14.689517603292551
20
38.596384003845181
30
0
10
14.643052662889636
20
38.594012654981348
30
0
10
14.596688385912524
20
38.591328620735567
30
0
10
14.550428304633433
20
38.588326642922198
30
0
10
14.504276023644403
20
38.585001349358031
30
0
10
14.458234856432446
20
38.58134807499831
30
0
10
14.41230751673128
20
38.577363559860643
30
0
10
14.366495601114128
20
38.57304711766696
30
0
10
14.320799913942128
20
38.568399907947978
30
0
10
14.275221461555832
20
38.56342270168458
30
0
10
14.229762335756625
20
38.558113896384533
30
0
10
14.184426468299698
20
38.552467822705538
30
0
10
14.139220873256914
20
38.546471951226223
30
0
10
14.094154836713777
20
38.540108728523734
30
0
10
14.049237665622744
20
38.533360663211759
30
0
10
14.004476668768735
20
38.526214888178998
30
0
10
13.959875451349363
20
38.518667017717327
30
0
10
13.915431043840222
20
38.510727629476264
30
0
10
13.871136280259588
20
38.502416927649151
30
0
10
13.826985170398402
20
38.49375266635132
30
0
10
13.782977771320175
20
38.48473919906521
30
0
10
13.739124364470127
20
38.475358095887309
30
0
10
13.69545222763187
20
38.465552908623152
30
0
10
13.651999138719372
20
38.45524386467207
30
0
10
13.608801341065643
20
38.444355068225669
30
0
10
13.565882434447243
20
38.43283958549231
30
0
10
13.523243749627339
20
38.420701249196959
30
0
10
13.480849214844774
20
38.408028723196182
30
0
10
13.438645725293776
20
38.394950477299929
30
0
10
13.396593173296926
20
38.381568214093122
30
0
10
13.354692301484338
20
38.367895202201666
30
0
10
13.313011095600926
20
38.353797740940813
30
0
10
13.271718288517011
20
38.338921107755162
30
0
10
13.23103920867943
20
38.322785229216507
30
0
10
13.199168728114506
20
38.30847972610534
30
0
10
13.175724537833233
20
38.296792528539001
30
0
10
13.160309158591801
20
38.288553232583403
30
0
10
13.152654989829539
20
38.284321625518899
30
0
0
LINE
5
146
100
AcDbEntity
8
0
100
AcDbLine
10
13.152654989829539
20
38.284321625518899
30
0
11
12.696639095467795
21
38.032213246406165
31
0
0
ARC
5
147
100
AcDbEntity
8
0
100
AcDbCircle
10
12.212806569724123
20
38.907373852827916
30
0
40
1.0000000000000002
210
3.3109056325714435e-31
220
2.1436982266306877e-31
230
1
100
AcDbArc
50
212.92167700482048
51
298.93601095527805
0
ARC
5
148
100
AcDbEntity
8
0
100
AcDbCircle
10
9.0205620750793969e-16
20
30.999999046325868
30
0
40
13.549199999999999
210
-2.443617064159813e-32
220
-1.5821585234779436e-32
230
1
100
AcDbArc
50
32.921677004820751
51
34.578322995179256
0
ARC
5
149
100
AcDbEntity
8
0
100
AcDbCircle
10
11.979100476535592
20
39.257139738663916
30
0
40
1.0000000000000029
210
0
220
0
230
1
100
AcDbArc
50
128.56398904472218
51
214.57832299517892
0
LINE
5
150
100
AcDbEntity
8
0
100
AcDbLine
10
11.355712196243822
20
40.039052171097929
30
0
11
11.763139695348057
21
40.363878222551712
31
0
0
SPLINE
5
151
100
AcDbEntity
8
0
100
AcDbSpline
70
4
71
5
72
81
73
75
74
0
42
0.000000001
43
0.0000000001
44
0.0000000001
40
0
40
0
40
0
40
0
40
0
40
0
40
0.014285714285714285
40
0.028571428571428571
40
0.042857142857142858
40
0.057142857142857141
40
0.071428571428571425
40
0.085714285714285715
40
0.10000000000000001
40
0.1142857142857143
40
0.12857142857142859
40
0.14285714285714288
40
0.15714285714285717
40
0.17142857142857146
40
0.18571428571428575
40
0.20000000000000004
40
0.21428571428571433
40
0.22857142857142862
40
0.24285714285714291
40
0.25714285714285717
40
0.27142857142857146
40
0.28571428571428575
40
0.30000000000000004
40
0.31428571428571433
40
0.32857142857142863
40
0.34285714285714292
40
0.35714285714285721
40
0.3714285714285715
40
0.38571428571428579
40
0.40000000000000008
40
0.41428571428571437
40
0.42857142857142866
40
0.44285714285714295
40
0.45714285714285724
40
0.47142857142857153
40
0.48571428571428582
40
0.50000000000000011
40
0.51428571428571435
40
0.52857142857142858
40
0.54285714285714282
40
0.55714285714285705
40
0.57142857142857129
40
0.58571428571428552
40
0.59999999999999976
40
0.61428571428571399
40
0.62857142857142823
40
0.64285714285714246
40
0.6571428571428567
40
0.67142857142857093
40
0.68571428571428517
40
0.6999999999999994
40
0.71428571428571364
40
0.72857142857142787
40
0.74285714285714211
40
0.75714285714285634
40
0.77142857142857058
40
0.78571428571428481
40
0.79999999999999905
40
0.81428571428571328
40
0.82857142857142752
40
0.84285714285714175
40
0.85714285714285599
40
0.87142857142857022
40
0.88571428571428445
40
0.89999999999999869
40
0.91428571428571292
40
0.92857142857142716
40
0.94285714285714139
40
0.95714285714285563
40
0.97142857142856986
40
0.9857142857142841
40
1
40
1
40
1
40
1
40
1
40
1
41
1
41
1
41
1
41
1
41
1
41
1
41
1
41
1
41
1
41
1
41
1
41
1
41
1
41
1
41
1
41
1
41
1
41
1
41
1
41
1
41
1
41
1
41
1
41
1
41
1
41
1
41
1
41
1
41
1
41
1
41
1
41
1
41
1
41
1
41
1
41
1
41
1
41
1
41
1
41
1
41
1
41
1
41
1
41
1
41
1
41
1
41
1
41
1
41
1
41
1
41
1
41
1
41
1
41
1
41
1
41
1
41
1
41
1
41
1
41
1
41
1
41
1
41
1
41
1
41
1
41
1
41
1
41
1
41
1
41
1
41
1
41
1
41
1
41
1
41
1
10
11.763139695348057
20
40.363878222551719
30
0
10
11.769978314078429
20
40.369330386493694
30
0
10
11.783489641213428
20
40.380419297804195
30
0
10
11.803258907043244
20
40.397606408481941
30
0
10
11.82867177346364
20
40.421576414134883
30
0
10
11.85914659128229
20
40.45298405001482
30
0
10
11.888692881342052
20
40.485440588270066
30
0
10
11.917667944193909
20
40.518554136413201
30
0
10
11.946334929472535
20
40.552033059153842
30
0
10
11.974791343485849
20
40.5857633808168
30
0
10
12.003024643429702
20
40.619749492984631
30
0
10
12.030956216911157
20
40.654067370213866
30
0
10
12.058487695631586
20
40.688815238215469
30
0
10
12.085550968934008
20
40.724060353140231
30
0
10
12.112141986581262
20
40.759802952243632
30
0
10
12.138295078499322
20
40.796003271390688
30
0
10
12.164066493549102
20
40.832598782039362
30
0
10
12.189515475021821
20
40.86952405429551
30
0
10
12.214683735493132
20
40.906732284984386
30
0
10
12.239584367434936
20
40.944206922470428
30
0
10
12.264213326916648
20
40.981949580039441
30
0
10
12.288556503628257
20
41.019972586128759
30
0
10
12.312597973631545
20
41.058290293052281
30
0
10
12.33632910084042
20
41.096909492184054
30
0
10
12.359752557471456
20
41.13582517441796
30
0
10
12.382877434234514
20
41.175025663286881
30
0
10
12.405716329446896
20
41.214495666624174
30
0
10
12.428281906725642
20
41.254219887801412
30
0
10
12.450583057577596
20
41.294187051859168
30
0
10
12.47262351517451
20
41.334391356765948
30
0
10
12.494403959528428
20
41.374830256702012
30
0
10
12.515923293236034
20
41.41550311697155
30
0
10
12.537180137214941
20
41.456409638174961
30
0
10
12.558174514521301
20
41.497548082643675
30
0
10
12.578908398485186
20
41.538914695673384
30
0
10
12.599384831029381
20
41.580504630765944
30
0
10
12.619607395986353
20
41.622312501867015
30
0
10
12.639579599544113
20
41.664333033362084
30
0
10
12.659304173362667
20
41.706561792154957
30
0
10
12.678782864673973
20
41.748995406208103
30
0
10
12.69801681668881
20
41.791631160750846
30
0
10
12.717006803238011
20
41.834466748433826
30
0
10
12.735753502838561
20
41.877499978467014
30
0
10
12.7542578090716
20
41.92072844714162
30
0
10
12.772520933398043
20
41.964149429789821
30
0
10
12.79054424516222
20
42.007760052588978
30
0
10
12.808329178344874
20
42.051557394091539
30
0
10
12.825877121076761
20
42.095538604535072
30
0
10
12.843189294744377
20
42.139701038840897
30
0
10
12.860266710254342
20
42.184042300266348
30
0
10
12.877110235596604
20
42.228560156303381
30
0
10
12.893720638363583
20
42.273252483303985
30
0
10
12.91009863652609
20
42.318117203541739
30
0
10
12.926244955670816
20
42.363152211732753
30
0
10
12.942160356161507
20
42.408355348335967
30
0
10
12.957845605514191
20
42.453724454545551
30
0
10
12.973301464756871
20
42.49925740904915
30
0
10
12.988528671422097
20
42.54495216703684
30
0
10
13.003527924243478
20
42.590806806474824
30
0
10
13.018299873430021
20
42.636819539627204
30
0
10
13.032845124735651
20
42.682988645211204
30
0
10
13.047164241989757
20
42.729312413434144
30
0
10
13.061257751903607
20
42.775789089784382
30
0
10
13.075126149379413
20
42.822416806341785
30
0
10
13.088769904678855
20
42.869193553672602
30
0
10
13.102189472923493
20
42.916117303343626
30
0
10
13.115385305090378
20
42.963186106459375
30
0
10
13.128357858982294
20
43.010398198280825
30
0
10
13.14110761434393
20
43.057752104851581
30
0
10
13.153635080686373
20
43.105246732117671
30
0
10
13.16594074119266
20
43.152881309737474
30
0
10
13.175608151476613
20
43.191100540935665
30
0
10
13.182759207667091
20
43.219827606783625
30
0
10
13.187482370258795
20
43.239006815871271
30
0
10
13.189832899503626
20
43.248603378378228
30
0
0
ARC
5
152
100
AcDbEntity
8
0
100
AcDbCircle
10
9.0205620750793969e-16
20
30.999999046325868
30
0
40
18
210
0
220
-0
230
1
100
AcDbArc
50
42.881008392752044
51
47.118991607247885
0
SPLINE
5
153
100
AcDbEntity
8
0
100
AcDbSpline
70
4
71
5
72
81
73
75
74
0
42
0.000000001
43
0.0000000001
44
0.0000000001
40
-1
40
-1
40
-1
40
-1
40
-1
40
-1
40
-0.9857142857142841
40
-0.97142857142856986
40
-0.95714285714285563
40
-0.94285714285714139
40
-0.92857142857142716
40
-0.91428571428571292
40
-0.89999999999999869
40
-0.88571428571428445
40
-0.87142857142857022
40
-0.85714285714285599
40
-0.84285714285714175
40
-0.82857142857142752
40
-0.81428571428571328
40
-0.79999999999999905
40
-0.78571428571428481
40
-0.77142857142857058
40
-0.75714285714285634
40
-0.74285714285714211
40
-0.72857142857142787
40
-0.71428571428571364
40
-0.6999999999999994
40
-0.68571428571428517
40
-0.67142857142857093
40
-0.6571428571428567
40
-0.64285714285714246
40
-0.62857142857142823
40
-0.61428571428571399
40
-0.59999999999999976
40
-0.58571428571428552
40
-0.57142857142857129
40
-0.55714285714285705
40
-0.54285714285714282
40
-0.52857142857142858
40
-0.51428571428571435
40
-0.50000000000000011
40
-0.48571428571428582
40
-0.47142857142857153
40
-0.45714285714285724
40
-0.44285714285714295
40
-0.42857142857142866
40
-0.41428571428571437
40
-0.40000000000000008
40
-0.38571428571428579
40
-0.3714285714285715
40
-0.35714285714285721
40
-0.34285714285714292
40
-0.32857142857142863
40
-0.31428571428571433
40
-0.30000000000000004
40
-0.28571428571428575
40
-0.27142857142857146
40
-0.25714285714285717
40
-0.24285714285714291
40
-0.22857142857142862
40
-0.21428571428571433
40
-0.20000000000000004
40
-0.18571428571428575
40
-0.17142857142857146
40
-0.15714285714285717
40
-0.14285714285714288
40
-0.12857142857142859
40
-0.1142857142857143
40
-0.10000000000000001
40
-0.085714285714285715
40
-0.071428571428571425
40
-0.057142857142857141
40
-0.042857142857142858
40
-0.028571428571428571
40
-0.014285714285714285
40
0
40
0
40
0
40
0
40
0
40
0
41
1
41
1
41
1
41
1
41
1
41
1
41
1
41
1
41
1
41
1
41
1
41
1
41
1
41
1
41
1
41
1
41
1
41
1
41
1
41
1
41
1
41
1
41
1
41
1
41
1
41
1
41
1
41
1
41
1
41
1
41
1
41
1
41
1
41
1
41
1
41
1
41
1
41
1
41
1
41
1
41
1
41
1
41
1
41
1
41
1
41
1
41
1
41
1
41
1
41
1
41
1
41
1
41
1
41
1
41
1
41
1
41
1
41
1
41
1
41
1
41
1
41
1
41
1
41
1
41
1
41
1
41
1
41
1
41
1
41
1
41
1
41
1
41
1
41
1
41
1
10
12.248604332052359
20
44.189831945829496
30
0
10
12.239007769545406
20
44.187481416584674
30
0
10
12.219828560457753
20
44.182758253992972
30
0
10
12.191101494609789
20
44.175607197802485
30
0
10
12.152882263411602
20
44.165939787518539
30
0
10
12.105247685791801
20
44.153634127012246
30
0
10
12.05775305852571
20
44.141106660669806
30
0
10
12.010399151954946
20
44.128356905308166
30
0
10
11.963187060133507
20
44.115384351416239
30
0
10
11.916118257017756
20
44.102188519249367
30
0
10
11.869194507346734
20
44.088768951004731
30
0
10
11.822417760015913
20
44.075125195705283
30
0
10
11.775790043458512
20
44.061256798229479
30
0
10
11.729313367108269
20
44.04716328831563
30
0
10
11.68298959888533
20
44.032844171061512
30
0
10
11.636820493301332
20
44.018298919755892
30
0
10
11.590807760148953
20
44.003526970569347
30
0
10
11.544953120710968
20
43.988527717747971
30
0
10
11.499258362723289
20
43.973300511082741
30
0
10
11.453725408219677
20
43.957844651840063
30
0
10
11.408356302010098
20
43.942159402487377
30
0
10
11.363153165406889
20
43.926244001996686
30
0
10
11.318118157215867
20
43.910097682851955
30
0
10
11.273253436978116
20
43.893719684689444
30
0
10
11.228561109977509
20
43.877109281922479
30
0
10
11.184043253940477
20
43.860265756580212
30
0
10
11.139701992515024
20
43.843188341070245
30
0
10
11.095539558209197
20
43.825876167402633
30
0
10
11.051558347765663
20
43.808328224670745
30
0
10
11.007761006263104
20
43.790543291488092
30
0
10
10.964150383463945
20
43.77251997972391
30
0
10
10.920729400815752
20
43.754256855397472
30
0
10
10.877500932141139
20
43.735752549164431
30
0
10
10.834467702107954
20
43.71700584956389
30
0
10
10.791632114424976
20
43.698015863014689
30
0
10
10.748996359882224
20
43.678781910999845
30
0
10
10.706562745829089
20
43.659303219688539
30
0
10
10.664333987036212
20
43.639578645869989
30
0
10
10.622313455541148
20
43.619606442312218
30
0
10
10.580505584440074
20
43.599383877355251
30
0
10
10.538915649347516
20
43.578907444811065
30
0
10
10.497549036317796
20
43.558173560847173
30
0
10
10.456410591849092
20
43.537179183540815
30
0
10
10.41550407064568
20
43.515922339561904
30
0
10
10.374831210376147
20
43.494403005854295
30
0
10
10.334392310440077
20
43.47262256150038
30
0
10
10.294188005533302
20
43.450582103903471
30
0
10
10.25422084147554
20
43.428280953051512
30
0
10
10.214496620298306
20
43.405715375772765
30
0
10
10.175026616961009
20
43.382876480560384
30
0
10
10.13582612809209
20
43.359751603797321
30
0
10
10.096910445858187
20
43.336328147166292
30
0
10
10.058291246726414
20
43.312597019957416
30
0
10
10.019973539802889
20
43.288555549954133
30
0
10
9.9819505337135723
20
43.264212373242515
30
0
10
9.94420787614456
20
43.239583413760805
30
0
10
9.9067332386585178
20
43.214682781819
30
0
10
9.8695250079696439
20
43.189514521347689
30
0
10
9.8325997357134849
20
43.164065539874976
30
0
10
9.7960042250648165
20
43.138294124825194
30
0
10
9.7598039059177708
20
43.112141032907132
30
0
10
9.7240613068143595
20
43.085550015259884
30
0
10
9.6888161918895985
20
43.058486741957452
30
0
10
9.6540683238879961
20
43.030955263237026
30
0
10
9.6197504466587613
20
43.003023689755572
30
0
10
9.5857643344909338
20
42.974790389811723
30
0
10
9.5520340128279706
20
42.946333975798403
30
0
10
9.5185550900873288
20
42.917666990519777
30
0
10
9.4854415419441942
20
42.888691927667928
30
0
10
9.4529850036889513
20
42.859145637608158
30
0
10
9.4215773678090144
20
42.828670819789508
30
0
10
9.397607362156073
20
42.803257953369112
30
0
10
9.3804202514783217
20
42.783488687539304
30
0
10
9.3693313401678235
20
42.769977360404297
30
0
10
9.3638791762258489
20
42.763138741673927
30
0
0
LINE
5
154
100
AcDbEntity
8
0
100
AcDbLine
10
9.3638791762258506
20
42.763138741673927
30
0
11
9.039053124772062
21
42.355711242569697
31
0
0
ARC
5
155
100
AcDbEntity
8
0
100
AcDbCircle
10
8.2571406923380497
20
42.979099522861461
30
0
40
0.999999999999998
210
0
220
0
230
1
100
AcDbArc
50
235.42167700482059
51
321.43601095527816
0
ARC
5
156
100
AcDbEntity
8
0
100
AcDbCircle
10
9.0205620750793969e-16
20
30.999999046325868
30
0
40
13.549200000000001
210
-6.4950952943483632e-31
220
4.4770403053742093e-31
230
1
100
AcDbArc
50
55.421677004820772
51
57.078322995179263
0
ARC
5
157
100
AcDbEntity
8
0
100
AcDbCircle
10
7.907374806502057
20
43.212805616049991
30
0
40
1
210
-7.2686655833134095e-31
220
-4.9954170607887623e-31
230
1
100
AcDbArc
50
151.06398904472255
51
237.07832299517889
0
LINE
5
158
100
AcDbEntity
8
0
100
AcDbLine
10
7.0322142000802979
20
43.696638141793656
30
-3.9443045261050809e-31
11
7.2843225791930335
21
44.152654036155418
31
0
0
SPLINE
5
159
100
AcDbEntity
8
0
100
AcDbSpline
70
4
71
5
72
81
73
75
74
0
42
0.000000001
43
0.0000000001
44
0.0000000001
40
0
40
0
40
0
40
0
40
0
40
0
40
0.014285714285714285
40
0.028571428571428571
40
0.042857142857142858
40
0.057142857142857141
40
0.071428571428571425
40
0.085714285714285715
40
0.10000000000000001
40
0.1142857142857143
40
0.12857142857142859
40
0.14285714285714288
40
0.15714285714285717
40
0.17142857142857146
40
0.18571428571428575
40
0.20000000000000004
40
0.21428571428571433
40
0.22857142857142862
40
0.24285714285714291
40
0.25714285714285717
40
0.27142857142857146
40
0.28571428571428575
40
0.30000000000000004
40
0.31428571428571433
40
0.32857142857142863
40
0.34285714285714292
40
0.35714285714285721
40
0.3714285714285715
40
0.38571428571428579
40
0.40000000000000008
40
0.41428571428571437
40
0.42857142857142866
40
0.44285714285714295
40
0.45714285714285724
40
0.47142857142857153
40
0.48571428571428582
40
0.50000000000000011
40
0.51428571428571435
40
0.52857142857142858
40
0.54285714285714282
40
0.55714285714285705
40
0.57142857142857129
40
0.58571428571428552
40
0.59999999999999976
40
0.61428571428571399
40
0.62857142857142823
40
0.64285714285714246
40
0.6571428571428567
40
0.67142857142857093
40
0.68571428571428517
40
0.6999999999999994
40
0.71428571428571364
40
0.72857142857142787
40
0.74285714285714211
40
0.75714285714285634
40
0.77142857142857058
40
0.78571428571428481
40
0.79999999999999905
40
0.81428571428571328
40
0.82857142857142752
40
0.84285714285714175
40
0.85714285714285599
40
0.87142857142857022
40
0.88571428571428445
40
0.89999999999999869
40
0.91428571428571292
40
0.92857142857142716
40
0.94285714285714139
40
0.95714285714285563
40
0.97142857142856986
40
0.9857142857142841
40
1
40
1
40
1
40
1
40
1
40
1
41
1
41
1
41
1
41
1
41
1
41
1
41
1
41
1
41
1
41
1
41
1
41
1
41
1
41
1
41
1
41
1
41
1
41
1
41
1
41
1
41
1
41
1
41
1
41
1
41
1
41
1
41
1
41
1
41
1
41
1
41
1
41
1
41
1
41
1
41
1
41
1
41
1
41
1
41
1
41
1
41
1
41
1
41
1
41
1
41
1
41
1
41
1
41
1
41
1
41
1
41
1
41
1
41
1
41
1
41
1
41
1
41
1
41
1
41
1
41
1
41
1
41
1
41
1
41
1
41
1
41
1
41
1
41
1
41
1
41
1
41
1
41
1
41
1
41
1
41
1
10
7.2843225791930335
20
44.152654036155411
30
0
10
7.2885541862575378
20
44.160308204917669
30
0
10
7.2967934822131344
20
44.175723584159108
30
0
10
7.3084806797794748
20
44.199167774440376
30
0
10
7.3227861828906438
20
44.231038255005295
30
0
10
7.3389220614292974
20
44.271717334842876
30
0
10
7.3537986946149498
20
44.313010141926803
30
0
10
7.3678961558758047
20
44.354691347810217
30
0
10
7.3815691677672532
20
44.396592219622796
30
0
10
7.3949514309740616
20
44.43864477161965
30
0
10
7.4080296768703127
20
44.480848261170642
30
0
10
7.4207022028710936
20
44.523242795953209
30
0
10
7.4328405391664463
20
44.565881480773115
30
0
10
7.4443560218998064
20
44.608800387391518
30
0
10
7.4552448183462037
20
44.651998185045244
30
0
10
7.4655538622972841
20
44.695451273957744
30
0
10
7.4753590495614439
20
44.739123410796005
30
0
10
7.4847401527393451
20
44.782976817646052
30
0
10
7.4937536200254531
20
44.826984216724277
30
0
10
7.5024178813232876
20
44.871135326585467
30
0
10
7.5107285831504011
20
44.915430090166097
30
0
10
7.5186679713914604
20
44.959874497675244
30
0
10
7.5262158418531291
20
45.004475715094607
30
0
10
7.5333616168858955
20
45.049236711948609
30
0
10
7.5401096821978708
20
45.094153883039645
30
0
10
7.546472904900364
20
45.139219919582786
30
0
10
7.5524687763796692
20
45.184425514625566
30
0
10
7.5581148500586739
20
45.229761382082501
30
0
10
7.5634236553587169
20
45.275220507881706
30
0
10
7.5684008616221154
20
45.320798960268
30
0
10
7.5730480713410966
20
45.366494647440007
30
0
10
7.5773645135347811
20
45.41230656305715
30
0
10
7.5813490286724434
20
45.458233902758316
30
0
10
7.5850023030321632
20
45.504275069970276
30
0
10
7.5883275965963328
20
45.550427350959311
30
0
10
7.5913295744097011
20
45.596687432238397
30
0
10
7.5940136086554899
20
45.643051709215506
30
0
10
7.5963849575193167
20
45.689516649618426
30
0
10
7.5984478411984089
20
45.736079203161346
30
0
10
7.6002051643475212
20
45.782736923124503
30
0
10
7.6016590220534397
20
45.829487738874718
30
0
10
7.6028110122270132
20
45.876329814831323
30
0
10
7.603662600115241
20
45.923261386625491
30
0
10
7.604215531138979
20
45.970280575478562
30
0
10
7.6044719672274139
20
46.017385327731702
30
0
10
7.6044342732540473
20
46.064573512344424
30
0
10
7.6041048920339112
20
46.111842979011769
30
0
10
7.6034861965894827
20
46.159191626111209
30
0
10
7.6025803275625217
20
46.206617477313053
30
0
10
7.6013891361026777
20
46.254118705173042
30
0
10
7.5999142784719451
20
46.301693579288042
30
0
10
7.5981572765181449
20
46.349340431408038
30
0
10
7.596119588671316
20
46.397057616719636
30
0
10
7.5938026909433933
20
46.444843467864168
30
0
10
7.5912081122394772
20
46.492696280664433
30
0
10
7.5883373877911442
20
46.540614354359576
30
0
10
7.5851920324876607
20
46.588596020345378
30
0
10
7.5817735102351689
20
46.636639671705225
30
0
10
7.5780832021098146
20
46.684743800105259
30
0
10
7.5741223929633037
20
46.732907002717084
30
0
10
7.5698923011456962
20
46.781127921094736
30
0
10
7.5653941018767581
20
46.829405191363946
30
0
10
7.5606289531967761
20
46.877737394130996
30
0
10
7.5555980271578713
20
46.926122993053561
30
0
10
7.5503025272021871
20
46.974560311618291
30
0
10
7.5447436500549987
20
47.023047649964752
30
0
10
7.5389225581747841
20
47.071583380129738
30
0
10
7.5328403498525622
20
47.120166046900508
30
0
10
7.5264980323733077
20
47.168794472109298
30
0
10
7.5198964951402258
20
47.217467839963447
30
0
10
7.513036479353211
20
47.266185623666274
30
0
10
7.5073421352696688
20
47.30519514686813
30
0
10
7.5029554775594134
20
47.334472085762187
30
0
10
7.4999795452428977
20
47.35399884056023
30
0
10
7.4984787056237021
20
47.363764416842159
30
0
0
ARC
5
160
100
AcDbEntity
8
0
100
AcDbCircle
10
9.0205620750793969e-16
20
30.999999046325868
30
0
40
18
210
3.5857596563915892e-31
220
-1.6431268609718872e-31
230
1
100
AcDbArc
50
65.381008392752022
51
69.61899160724785
0
SPLINE
5
161
100
AcDbEntity
8
0
100
AcDbSpline
70
4
71
5
72
81
73
75
74
0
42
0.000000001
43
0.0000000001
44
0.0000000001
40
-1
40
-1
40
-1
40
-1
40
-1
40
-1
40
-0.9857142857142841
40
-0.97142857142856986
40
-0.95714285714285563
40
-0.94285714285714139
40
-0.92857142857142716
40
-0.91428571428571292
40
-0.89999999999999869
40
-0.88571428571428445
40
-0.87142857142857022
40
-0.85714285714285599
40
-0.84285714285714175
40
-0.82857142857142752
40
-0.81428571428571328
40
-0.79999999999999905
40
-0.78571428571428481
40
-0.77142857142857058
40
-0.75714285714285634
40
-0.74285714285714211
40
-0.72857142857142787
40
-0.71428571428571364
40
-0.6999999999999994
40
-0.68571428571428517
40
-0.67142857142857093
40
-0.6571428571428567
40
-0.64285714285714246
40
-0.62857142857142823
40
-0.61428571428571399
40
-0.59999999999999976
40
-0.58571428571428552
40
-0.57142857142857129
40
-0.55714285714285705
40
-0.54285714285714282
40
-0.52857142857142858
40
-0.51428571428571435
40
-0.50000000000000011
40
-0.48571428571428582
40
-0.47142857142857153
40
-0.45714285714285724
40
-0.44285714285714295
40
-0.42857142857142866
40
-0.41428571428571437
40
-0.40000000000000008
40
-0.38571428571428579
40
-0.3714285714285715
40
-0.35714285714285721
40
-0.34285714285714292
40
-0.32857142857142863
40
-0.31428571428571433
40
-0.30000000000000004
40
-0.28571428571428575
40
-0.27142857142857146
40
-0.25714285714285717
40
-0.24285714285714291
40
-0.22857142857142862
40
-0.21428571428571433
40
-0.20000000000000004
40
-0.18571428571428575
40
-0.17142857142857146
40
-0.15714285714285717
40
-0.14285714285714288
40
-0.12857142857142859
40
-0.1142857142857143
40
-0.10000000000000001
40
-0.085714285714285715
40
-0.071428571428571425
40
-0.057142857142857141
40
-0.042857142857142858
40
-0.028571428571428571
40
-0.014285714285714285
40
0
40
0
40
0
40
0
40
0
40
0
41
1
41
1
41
1
41
1
41
1
41
1
41
1
41
1
41
1
41
1
41
1
41
1
41
1
41
1
41
1
41
1
41
1
41
1
41
1
41
1
41
1
41
1
41
1
41
1
41
1
41
1
41
1
41
1
41
1
41
1
41
1
41
1
41
1
41
1
41
1
41
1
41
1
41
1
41
1
41
1
41
1
41
1
41
1
41
1
41
1
41
1
41
1
41
1
41
1
41
1
41
1
41
1
41
1
41
1
41
1
41
1
41
1
41
1
41
1
41
1
41
1
41
1
41
1
41
1
41
1
41
1
41
1
41
1
41
1
41
1
41
1
41
1
41
1
41
1
41
1
10
6.2687043179082282
20
47.87315364689298
30
0
10
6.2607377588248747
20
47.867309595554048
30
0
10
6.2448259561712476
20
47.855606396743141
30
0
10
6.221022198733217
20
47.838006310132428
30
0
10
6.1894117910304427
20
47.814448921061427
30
0
10
6.1501123521277501
20
47.784851009522825
30
0
10
6.111027091911124
20
47.755101732793726
30
0
10
6.0721569069895507
20
47.725200939268191
30
0
10
6.0335030031185779
20
47.695148576895683
30
0
10
5.9950669256466682
20
47.66494476650859
30
0
10
5.9568504801736433
20
47.634589760488694
30
0
10
5.9188556398255852
20
47.604083887997518
30
0
10
5.8810844527979098
20
47.573427504805352
30
0
10
5.8435389555266717
20
47.542620945424062
30
0
10
5.8062210631359434
20
47.511664467445726
30
0
10
5.7691325981467854
20
47.480558255675113
30
0
10
5.7322753559698274
20
47.449302443511115
30
0
10
5.6956511586749867
20
47.417897130016485
30
0
10
5.6592619067390917
20
47.386342398613344
30
0
10
5.6231096432835779
20
47.354638339286495
30
0
10
5.5871965397080068
20
47.322785053159606
30
0
10
5.5515248470822343
20
47.290782648925543
30
0
10
5.5160968535984347
20
47.258631243631214
30
0
10
5.4809148453910304
20
47.226330961212675
30
0
10
5.4459810451587023
20
47.193881936972524
30
0
10
5.4112976472259087
20
47.161284302703677
30
0
10
5.3768669073324808
20
47.128538161928148
30
0
10
5.342691220212278
20
47.095643567071605
30
0
10
5.3087731870240074
20
47.062600501371826
30
0
10
5.2751157189061084
20
47.029408848642632
30
0
10
5.2417219799103965
20
46.996068416975277
30
0
10
5.2085952178631558
20
46.962578999533889
30
0
10
5.1757386118556727
20
46.928940430973576
30
0
10
5.1431551427588147
20
46.895152634735638
30
0
10
5.1108473732686335
20
46.861215705118269
30
0
10
5.0788175870683974
20
46.827129853632563
30
0
10
5.0470682120032127
20
46.792895248336428
30
0
10
5.0156021936819375
20
46.75851187193858
30
0
10
4.9844233160977796
20
46.723979400630078
30
0
10
4.9535367202585876
20
46.689297007158629
30
0
10
4.9229486219567038
20
46.654463471119136
30
0
10
4.8926653687307935
20
46.619477542635899
30
0
10
4.8626926022547678
20
46.584338266013283
30
0
10
4.8330345465837947
20
46.549045254995164
30
0
10
4.8036928159375174
20
46.513599153257374
30
0
10
4.7746671591731076
20
46.478001349481175
30
0
10
4.7459577427149764
20
46.442253100422626
30
0
10
4.7175671788232076
20
46.406354752075536
30
0
10
4.6895022564989413
20
46.370305075780266
30
0
10
4.6617767950787572
20
46.3341001715958
30
0
10
4.6344097729610354
20
46.297734193631818
30
0
10
4.6074201394328416
20
46.261201354619637
30
0
10
4.5808221610071991
20
46.224497724229003
30
0
10
4.5546214881077516
20
46.187622750555626
30
0
10
4.5288085414359482
20
46.150581813356368
30
0
10
4.5033639673553978
20
46.113384132039073
30
0
10
4.4782709760933095
20
46.076038024941646
30
0
10
4.4535265296227227
20
46.038546610791037
30
0
10
4.4291509299330274
20
46.000904127757138
30
0
10
4.405203380231077
20
45.963089949244605
30
0
10
4.3817670012829097
20
45.925074380525714
30
0
10
4.3589210874358413
20
45.886829383066242
30
0
10
4.336715513454255
20
45.84833845722585
30
0
10
4.3151485101839873
20
45.809605254142056
30
0
10
4.2941318762239025
20
45.770666962042142
30
0
10
4.2735372189319225
20
45.731576872031631
30
0
10
4.2532642633099051
20
45.692378538287301
30
0
10
4.2333041521412849
20
45.6530818682633
30
0
10
4.2137994992681582
20
45.613640394480051
30
0
10
4.1951204435716942
20
45.573922602369983
30
0
10
4.1777657795011951
20
45.533748360029314
30
0
10
4.1653454648322565
20
45.501097008843985
30
0
10
4.1570320155571663
20
45.476255366264446
30
0
10
4.1519577584033929
20
45.459528985025855
30
0
10
4.1495376418178811
20
45.451124472339089
30
0
0
LINE
5
162
100
AcDbEntity
8
0
100
AcDbLine
10
4.1495376418178811
20
45.451124472339089
30
0
11
4.0053532550504025
21
44.95040499664249
31
0
0
ARC
5
163
100
AcDbEntity
8
0
100
AcDbCircle
10
3.0443999957102799
20
45.227115736158687
30
0
40
1.0000000000000009
210
1.9284936887640682e-31
220
-4.1267013589593417e-32
230
1
100
AcDbArc
50
257.92167700482071
51
343.93601095527754
0
ARC
5
164
100
AcDbEntity
8
0
100
AcDbCircle
10
9.0205620750793969e-16
20
30.999999046325868
30
0
40
13.549200000000008
210
-5.5948893037447922e-49
220
-2.6146085633699272e-48
230
1
100
AcDbArc
50
77.921677004820751
51
79.578322995179249
0
ARC
5
165
100
AcDbEntity
8
0
100
AcDbCircle
10
2.6318230027097029
20
45.309182402562804
30
0
40
1
210
0
220
0
230
1
100
AcDbArc
50
173.56398904472221
51
259.57832299517895
0
LINE
5
166
100
AcDbEntity
8
0
100
AcDbLine
10
1.6381253391350159
20
45.421275905524432
30
0
11
1.6965333829044746
21
45.939057356671931
31
0
0
SPLINE
5
167
100
AcDbEntity
8
0
100
AcDbSpline
70
4
71
5
72
81
73
75
74
0
42
0.000000001
43
0.0000000001
44
0.0000000001
40
0
40
0
40
0
40
0
40
0
40
0
40
0.014285714285714285
40
0.028571428571428571
40
0.042857142857142858
40
0.057142857142857141
40
0.071428571428571425
40
0.085714285714285715
40
0.10000000000000001
40
0.1142857142857143
40
0.12857142857142859
40
0.14285714285714288
40
0.15714285714285717
40
0.17142857142857146
40
0.18571428571428575
40
0.20000000000000004
40
0.21428571428571433
40
0.22857142857142862
40
0.24285714285714291
40
0.25714285714285717
40
0.27142857142857146
40
0.28571428571428575
40
0.30000000000000004
40
0.31428571428571433
40
0.32857142857142863
40
0.34285714285714292
40
0.35714285714285721
40
0.3714285714285715
40
0.38571428571428579
40
0.40000000000000008
40
0.41428571428571437
40
0.42857142857142866
40
0.44285714285714295
40
0.45714285714285724
40
0.47142857142857153
40
0.48571428571428582
40
0.50000000000000011
40
0.51428571428571435
40
0.52857142857142858
40
0.54285714285714282
40
0.55714285714285705
40
0.57142857142857129
40
0.58571428571428552
40
0.59999999999999976
40
0.61428571428571399
40
0.62857142857142823
40
0.64285714285714246
40
0.6571428571428567
40
0.67142857142857093
40
0.68571428571428517
40
0.6999999999999994
40
0.71428571428571364
40
0.72857142857142787
40
0.74285714285714211
40
0.75714285714285634
40
0.77142857142857058
40
0.78571428571428481
40
0.79999999999999905
40
0.81428571428571328
40
0.82857142857142752
40
0.84285714285714175
40
0.85714285714285599
40
0.87142857142857022
40
0.88571428571428445
40
0.89999999999999869
40
0.91428571428571292
40
0.92857142857142716
40
0.94285714285714139
40
0.95714285714285563
40
0.97142857142856986
40
0.9857142857142841
40
1
40
1
40
1
40
1
40
1
40
1
41
1
41
1
41
1
41
1
41
1
41
1
41
1
41
1
41
1
41
1
41
1
41
1
41
1
41
1
41
1
41
1
41
1
41
1
41
1
41
1
41
1
41
1
41
1
41
1
41
1
41
1
41
1
41
1
41
1
41
1
41
1
41
1
41
1
41
1
41
1
41
1
41
1
41
1
41
1
41
1
41
1
41
1
41
1
41
1
41
1
41
1
41
1
41
1
41
1
41
1
41
1
41
1
41
1
41
1
41
1
41
1
41
1
41
1
41
1
41
1
41
1
41
1
41
1
41
1
41
1
41
1
41
1
41
1
41
1
41
1
41
1
41
1
41
1
41
1
41
1
10
1.6965333829044746
20
45.939057356671938
30
0
10
1.6975137544871586
20
45.947748252445642
30
0
10
1.6992266611435167
20
45.965143247869271
30
0
10
1.7010525205616154
20
45.991275352305848
30
0
10
1.7020727771945907
20
46.026194316023364
30
0
10
1.7014131752178427
20
46.069951818670106
30
0
10
1.6993553189838826
20
46.113794439024396
30
0
10
1.6964289679705766
20
46.157697716893402
30
0
10
1.6930264143605409
20
46.201641509876822
30
0
10
1.6892971984981229
20
46.245614172373372
30
0
10
1.6852293459636578
20
46.289609940598986
30
0
10
1.680713547276885
20
46.333626949321655
30
0
10
1.6756107894804837
20
46.377665097716665
30
0
10
1.6698253537867356
20
46.421723781556913
30
0
10
1.663354208480504
20
46.465800304657193
30
0
10
1.6562497459747658
20
46.509890824451439
30
0
10
1.6485959545765803
20
46.553990900534572
30
0
10
1.6404809915407423
20
46.598096158317702
30
0
10
1.6319674469546206
20
46.6422029982037
30
0
10
1.6230762823676124
20
46.686308974194468
30
0
10
1.6138034975236502
20
46.730412367564604
30
0
10
1.6041303974051966
20
46.774511918339854
30
0
10
1.5940355734690701
20
46.818606515214015
30
0
10
1.5835081168535967
20
46.862694853778692
30
0
10
1.5725534590741361
20
46.906775281603416
30
0
10
1.5611862847423605
20
46.950845970281712
30
0
10
1.5494263154085839
20
46.994905014974464
30
0
10
1.5372933219519989
20
47.038950553861426
30
0
10
1.5248015642176402
20
47.082980901587142
30
0
10
1.5119577846124019
20
47.126994595246856
30
0
10
1.4987642641437935
20
47.170990315515283
30
0
10
1.485220675628218
20
47.214966837613382
30
0
10
1.4713262556146454
20
47.258922974675173
30
0
10
1.4570822491234712
20
47.302857514286586
30
0
10
1.4424927064866397
20
47.346769196825811
30
0
10
1.4275632056600904
20
47.390656746265378
30
0
10
1.4123000893116076
20
47.434518888241982
30
0
10
1.3967095671133165
20
47.478354371582142
30
0
10
1.3807967053128953
20
47.522161993188789
30
0
10
1.3645651237805354
20
47.565940604150882
30
0
10
1.3480175505210577
20
47.60968909320777
30
0
10
1.3311561642578948
20
47.653406375998095
30
0
10
1.3139829938974821
20
47.697091383183334
30
0
10
1.2965003709758891
20
47.740743046941994
30
0
10
1.2787110787564502
20
47.7843602972752
30
0
10
1.2606181176112838
20
47.827942070356144
30
0
10
1.242224567293285
20
47.871487314386947
30
0
10
1.2235334244454596
20
47.914994995837958
30
0
10
1.2045474230715567
20
47.958464108006766
30
0
10
1.1852689727434882
20
48.001893670959305
30
0
10
1.1657002658444169
20
48.045282719835569
30
0
10
1.1458433467900495
20
48.088630295759472
30
0
10
1.1257001924368724
20
48.13193543723861
30
0
10
1.1052728045126456
20
48.175197168679702
30
0
10
1.0845632477018838
20
48.218414500714999
30
0
10
1.0635735912266051
20
48.261586449554052
30
0
10
1.0423058732092036
20
48.304712053330576
30
0
10
1.0207620610629473
20
48.347790387659856
30
0
10
0.9989440079502141
20
48.390820587538045
30
0
10
0.97685343775838684
20
48.43380184861217
30
0
10
0.95449199595089551
20
48.476733382084198
30
0
10
0.93186129022132835
20
48.51961437763574
30
0
10
0.90896293363786107
20
48.562443967080817
30
0
10
0.88579859696821228
20
48.605221179549133
30
0
10
0.86237003362182629
20
48.647944926681689
30
0
10
0.83867899973712445
20
48.69061409597915
30
0
10
0.81472719228024437
20
48.733227628253232
30
0
10
0.79051618282558334
20
48.775784599360456
30
0
10
0.76604735284840664
20
48.818284306287005
30
0
10
0.74132183624045478
20
48.860726335698601
30
0
10
0.71634051937751053
20
48.903110484543504
30
0
10
0.69615133319383271
20
48.936971453463769
30
0
10
0.6808947904540783
20
48.962341116853395
30
0
10
0.67067282194764521
20
48.979242645954308
30
0
10
0.66554910269129275
20
48.987690515547449
30
0
0
ARC
5
168
100
AcDbEntity
8
0
100
AcDbCircle
10
9.0205620750793969e-16
20
30.999999046325868
30
0
40
18
210
4.9270092275161152e-32
220
-1.8230057903405722e-33
230
1
100
AcDbArc
50
87.881008392752037
51
92.118991607247864
0
SPLINE
5
169
100
AcDbEntity
8
0
100
AcDbSpline
70
4
71
5
72
81
73
75
74
0
42
0.000000001
43
0.0000000001
44
0.0000000001
40
-1
40
-1
40
-1
40
-1
40
-1
40
-1
40
-0.9857142857142841
40
-0.97142857142856986
40
-0.95714285714285563
40
-0.94285714285714139
40
-0.92857142857142716
40
-0.91428571428571292
40
-0.89999999999999869
40
-0.88571428571428445
40
-0.87142857142857022
40
-0.85714285714285599
40
-0.84285714285714175
40
-0.82857142857142752
40
-0.81428571428571328
40
-0.79999999999999905
40
-0.78571428571428481
40
-0.77142857142857058
40
-0.75714285714285634
40
-0.74285714285714211
40
-0.72857142857142787
40
-0.71428571428571364
40
-0.6999999999999994
40
-0.68571428571428517
40
-0.67142857142857093
40
-0.6571428571428567
40
-0.64285714285714246
40
-0.62857142857142823
40
-0.61428571428571399
40
-0.59999999999999976
40
-0.58571428571428552
40
-0.57142857142857129
40
-0.55714285714285705
40
-0.54285714285714282
40
-0.52857142857142858
40
-0.51428571428571435
40
-0.50000000000000011
40
-0.48571428571428582
40
-0.47142857142857153
40
-0.45714285714285724
40
-0.44285714285714295
40
-0.42857142857142866
40
-0.41428571428571437
40
-0.40000000000000008
40
-0.38571428571428579
40
-0.3714285714285715
40
-0.35714285714285721
40
-0.34285714285714292
40
-0.32857142857142863
40
-0.31428571428571433
40
-0.30000000000000004
40
-0.28571428571428575
40
-0.27142857142857146
40
-0.25714285714285717
40
-0.24285714285714291
40
-0.22857142857142862
40
-0.21428571428571433
40
-0.20000000000000004
40
-0.18571428571428575
40
-0.17142857142857146
40
-0.15714285714285717
40
-0.14285714285714288
40
-0.12857142857142859
40
-0.1142857142857143
40
-0.10000000000000001
40
-0.085714285714285715
40
-0.071428571428571425
40
-0.057142857142857141
40
-0.042857142857142858
40
-0.028571428571428571
40
-0.014285714285714285
40
0
40
0
40
0
40
0
40
0
40
0
41
1
41
1
41
1
41
1
41
1
41
1
41
1
41
1
41
1
41
1
41
1
41
1
41
1
41
1
41
1
41
1
41
1
41
1
41
1
41
1
41
1
41
1
41
1
41
1
41
1
41
1
41
1
41
1
41
1
41
1
41
1
41
1
41
1
41
1
41
1
41
1
41
1
41
1
41
1
41
1
41
1
41
1
41
1
41
1
41
1
41
1
41
1
41
1
41
1
41
1
41
1
41
1
41
1
41
1
41
1
41
1
41
1
41
1
41
1
41
1
41
1
41
1
41
1
41
1
41
1
41
1
41
1
41
1
41
1
41
1
41
1
41
1
41
1
41
1
41
1
10
-0.66554910269128764
20
48.987690515547449
30
0
10
-0.670672821947639
20
48.979242645954308
30
0
10
-0.6808947904540732
20
48.962341116853395
30
0
10
-0.6961513331938276
20
48.936971453463769
30
0
10
-0.71634051937750542
20
48.903110484543504
30
0
10
-0.74132183624044967
20
48.860726335698608
30
0
10
-0.76604735284840153
20
48.818284306287005
30
0
10
-0.79051618282557823
20
48.775784599360463
30
0
10
-0.81472719228023927
20
48.733227628253232
30
0
10
-0.83867899973711935
20
48.69061409597915
30
0
10
-0.86237003362182008
20
48.647944926681689
30
0
10
-0.88579859696820606
20
48.605221179549133
30
0
10
-0.90896293363785707
20
48.562443967080817
30
0
10
-0.93186129022132214
20
48.51961437763574
30
0
10
-0.9544919959508904
20
48.476733382084205
30
0
10
-0.97685343775838174
20
48.43380184861217
30
0
10
-0.99894400795020788
20
48.390820587538045
30
0
10
-1.0207620610629422
20
48.347790387659856
30
0
10
-1.0423058732091985
20
48.304712053330576
30
0
10
-1.0635735912265989
20
48.261586449554052
30
0
10
-1.0845632477018765
20
48.218414500714999
30
0
10
-1.1052728045126394
20
48.175197168679702
30
0
10
-1.1257001924368673
20
48.13193543723861
30
0
10
-1.1458433467900455
20
48.088630295759472
30
0
10
-1.1657002658444129
20
48.045282719835569
30
0
10
-1.1852689727434838
20
48.001893670959305
30
0
10
-1.2045474230715505
20
47.958464108006766
30
0
10
-1.2235334244454545
20
47.914994995837958
30
0
10
-1.2422245672932795
20
47.871487314386947
30
0
10
-1.2606181176112798
20
47.827942070356144
30
0
10
-1.2787110787564446
20
47.7843602972752
30
0
10
-1.296500370975884
20
47.740743046941994
30
0
10
-1.3139829938974765
20
47.697091383183334
30
0
10
-1.3311561642578904
20
47.653406375998095
30
0
10
-1.3480175505210525
20
47.60968909320777
30
0
10
-1.3645651237805281
20
47.565940604150882
30
0
10
-1.3807967053128887
20
47.522161993188789
30
0
10
-1.3967095671133098
20
47.478354371582142
30
0
10
-1.4123000893116024
20
47.434518888241982
30
0
10
-1.4275632056600864
20
47.390656746265378
30
0
10
-1.4424927064866346
20
47.346769196825818
30
0
10
-1.457082249123465
20
47.302857514286586
30
0
10
-1.4713262556146409
20
47.25892297467518
30
0
10
-1.4852206756282136
20
47.214966837613382
30
0
10
-1.4987642641437895
20
47.170990315515283
30
0
10
-1.5119577846123964
20
47.126994595246856
30
0
10
-1.5248015642176347
20
47.082980901587142
30
0
10
-1.5372933219519938
20
47.038950553861426
30
0
10
-1.5494263154085783
20
46.994905014974464
30
0
10
-1.5611862847423543
20
46.950845970281712
30
0
10
-1.572553459074131
20
46.906775281603416
30
0
10
-1.5835081168535923
20
46.862694853778692
30
0
10
-1.5940355734690668
20
46.818606515214029
30
0
10
-1.6041303974051921
20
46.774511918339854
30
0
10
-1.6138034975236462
20
46.730412367564604
30
0
10
-1.6230762823676073
20
46.686308974194468
30
0
10
-1.6319674469546173
20
46.6422029982037
30
0
10
-1.640480991540739
20
46.598096158317702
30
0
10
-1.6485959545765747
20
46.553990900534572
30
0
10
-1.6562497459747618
20
46.509890824451439
30
0
10
-1.6633542084804989
20
46.465800304657193
30
0
10
-1.6698253537867316
20
46.421723781556913
30
0
10
-1.6756107894804793
20
46.377665097716665
30
0
10
-1.680713547276881
20
46.333626949321655
30
0
10
-1.6852293459636538
20
46.289609940598986
30
0
10
-1.6892971984981178
20
46.245614172373372
30
0
10
-1.6930264143605354
20
46.201641509876822
30
0
10
-1.6964289679705726
20
46.157697716893402
30
0
10
-1.6993553189838781
20
46.113794439024396
30
0
10
-1.7014131752178383
20
46.069951818670106
30
0
10
-1.7020727771945863
20
46.026194316023364
30
0
10
-1.7010525205616092
20
45.991275352305856
30
0
10
-1.6992266611435105
20
45.965143247869271
30
0
10
-1.6975137544871546
20
45.947748252445649
30
0
10
-1.6965333829044702
20
45.939057356671938
30
0
0
LINE
5
170
100
AcDbEntity
8
0
100
AcDbLine
10
-1.6965333829044702
20
45.939057356671931
30
0
11
-1.6381253391350115
21
45.421275905524439
31
0
0
ARC
5
171
100
AcDbEntity
8
0
100
AcDbCircle
10
-2.6318230027096945
20
45.309182402562811
30
0
40
0.99999999999999656
210
3.3665982391765066e-31
220
-7.4017263947844411e-31
230
1
100
AcDbArc
50
-79.578322995179249
51
6.4360109552779177
0
ARC
5
172
100
AcDbEntity
8
0
100
AcDbCircle
10
9.0205620750793969e-16
20
30.999999046325868
30
0
40
13.549200000000013
210
-1.0531842230618498e-32
220
5.7261472903655951e-32
230
1
100
AcDbArc
50
100.42167700482074
51
102.07832299517925
0
ARC
5
173
100
AcDbEntity
8
0
100
AcDbCircle
10
-3.0443999957102772
20
45.227115736158687
30
0
40
0.99999999999999978
210
-2.182862844591166e-31
220
7.5805845803813044e-31
230
1
100
AcDbArc
50
196.06398904472206
51
282.07832299517935
0
LINE
5
174
100
AcDbEntity
8
0
100
AcDbLine
10
-4.0053532550503999
20
44.950404996642497
30
-7.0064923216240846e-46
11
-4.1495376418178758
21
45.451124472339089
31
0
0
SPLINE
5
175
100
AcDbEntity
8
0
100
AcDbSpline
70
4
71
5
72
81
73
75
74
0
42
0.000000001
43
0.0000000001
44
0.0000000001
40
0
40
0
40
0
40
0
40
0
40
0
40
0.014285714285714285
40
0.028571428571428571
40
0.042857142857142858
40
0.057142857142857141
40
0.071428571428571425
40
0.085714285714285715
40
0.10000000000000001
40
0.1142857142857143
40
0.12857142857142859
40
0.14285714285714288
40
0.15714285714285717
40
0.17142857142857146
40
0.18571428571428575
40
0.20000000000000004
40
0.21428571428571433
40
0.22857142857142862
40
0.24285714285714291
40
0.25714285714285717
40
0.27142857142857146
40
0.28571428571428575
40
0.30000000000000004
40
0.31428571428571433
40
0.32857142857142863
40
0.34285714285714292
40
0.35714285714285721
40
0.3714285714285715
40
0.38571428571428579
40
0.40000000000000008
40
0.41428571428571437
40
0.42857142857142866
40
0.44285714285714295
40
0.45714285714285724
40
0.47142857142857153
40
0.48571428571428582
40
0.50000000000000011
40
0.51428571428571435
40
0.52857142857142858
40
0.54285714285714282
40
0.55714285714285705
40
0.57142857142857129
40
0.58571428571428552
40
0.59999999999999976
40
0.61428571428571399
40
0.62857142857142823
40
0.64285714285714246
40
0.6571428571428567
40
0.67142857142857093
40
0.68571428571428517
40
0.6999999999999994
40
0.71428571428571364
40
0.72857142857142787
40
0.74285714285714211
40
0.75714285714285634
40
0.77142857142857058
40
0.78571428571428481
40
0.79999999999999905
40
0.81428571428571328
40
0.82857142857142752
40
0.84285714285714175
40
0.85714285714285599
40
0.87142857142857022
40
0.88571428571428445
40
0.89999999999999869
40
0.91428571428571292
40
0.92857142857142716
40
0.94285714285714139
40
0.95714285714285563
40
0.97142857142856986
40
0.9857142857142841
40
1
40
1
40
1
40
1
40
1
40
1
41
1
41
1
41
1
41
1
41
1
41
1
41
1
41
1
41
1
41
1
41
1
41
1
41
1
41
1
41
1
41
1
41
1
41
1
41
1
41
1
41
1
41
1
41
1
41
1
41
1
41
1
41
1
41
1
41
1
41
1
41
1
41
1
41
1
41
1
41
1
41
1
41
1
41
1
41
1
41
1
41
1
41
1
41
1
41
1
41
1
41
1
41
1
41
1
41
1
41
1
41
1
41
1
41
1
41
1
41
1
41
1
41
1
41
1
41
1
41
1
41
1
41
1
41
1
41
1
41
1
41
1
41
1
41
1
41
1
41
1
41
1
41
1
41
1
41
1
41
1
10
-4.1495376418178758
20
45.451124472339089
30
0
10
-4.1519577584033858
20
45.459528985025855
30
0
10
-4.1570320155571601
20
45.476255366264446
30
0
10
-4.1653454648322521
20
45.501097008843985
30
0
10
-4.1777657795011889
20
45.533748360029314
30
0
10
-4.1951204435716889
20
45.573922602369983
30
0
10
-4.213799499268152
20
45.613640394480051
30
0
10
-4.2333041521412804
20
45.6530818682633
30
0
10
-4.2532642633099007
20
45.692378538287301
30
0
10
-4.2735372189319172
20
45.731576872031631
30
0
10
-4.2941318762238989
20
45.770666962042142
30
0
10
-4.3151485101839828
20
45.809605254142056
30
0
10
-4.3367155134542488
20
45.84833845722585
30
0
10
-4.3589210874358377
20
45.886829383066228
30
0
10
-4.3817670012829044
20
45.925074380525714
30
0
10
-4.4052033802310735
20
45.963089949244605
30
0
10
-4.429150929933023
20
46.000904127757131
30
0
10
-4.4535265296227173
20
46.038546610791037
30
0
10
-4.478270976093305
20
46.076038024941646
30
0
10
-4.5033639673553933
20
46.113384132039073
30
0
10
-4.528808541435942
20
46.150581813356368
30
0
10
-4.5546214881077454
20
46.187622750555626
30
0
10
-4.5808221610071964
20
46.224497724229003
30
0
10
-4.6074201394328362
20
46.261201354619637
30
0
10
-4.634409772961031
20
46.297734193631818
30
0
10
-4.6617767950787536
20
46.3341001715958
30
0
10
-4.6895022564989359
20
46.370305075780266
30
0
10
-4.7175671788232023
20
46.406354752075536
30
0
10
-4.7459577427149728
20
46.442253100422626
30
0
10
-4.7746671591731014
20
46.478001349481175
30
0
10
-4.8036928159375138
20
46.51359915325736
30
0
10
-4.8330345465837912
20
46.549045254995164
30
0
10
-4.8626926022547607
20
46.58433826601329
30
0
10
-4.8926653687307899
20
46.619477542635899
30
0
10
-4.9229486219566994
20
46.654463471119136
30
0
10
-4.9535367202585814
20
46.689297007158629
30
0
10
-4.9844233160977751
20
46.723979400630078
30
0
10
-5.0156021936819322
20
46.75851187193858
30
0
10
-5.0470682120032064
20
46.792895248336428
30
0
10
-5.0788175870683903
20
46.827129853632563
30
0
10
-5.1108473732686281
20
46.861215705118262
30
0
10
-5.1431551427588111
20
46.895152634735638
30
0
10
-5.1757386118556674
20
46.928940430973576
30
0
10
-5.2085952178631505
20
46.962578999533889
30
0
10
-5.2417219799103894
20
46.996068416975277
30
0
10
-5.2751157189061013
20
47.029408848642632
30
0
10
-5.308773187024002
20
47.062600501371826
30
0
10
-5.3426912202122701
20
47.095643567071605
30
0
10
-5.3768669073324729
20
47.128538161928148
30
0
10
-5.4112976472259033
20
47.161284302703677
30
0
10
-5.4459810451586952
20
47.193881936972524
30
0
10
-5.4809148453910259
20
47.226330961212675
30
0
10
-5.5160968535984303
20
47.258631243631214
30
0
10
-5.5515248470822289
20
47.290782648925543
30
0
10
-5.5871965397080023
20
47.322785053159599
30
0
10
-5.6231096432835725
20
47.354638339286495
30
0
10
-5.6592619067390872
20
47.386342398613351
30
0
10
-5.6956511586749805
20
47.417897130016485
30
0
10
-5.7322753559698221
20
47.449302443511115
30
0
10
-5.7691325981467809
20
47.480558255675113
30
0
10
-5.8062210631359381
20
47.511664467445726
30
0
10
-5.8435389555266681
20
47.542620945424062
30
0
10
-5.8810844527979045
20
47.573427504805352
30
0
10
-5.9188556398255798
20
47.604083887997504
30
0
10
-5.9568504801736371
20
47.634589760488694
30
0
10
-5.9950669256466629
20
47.664944766508597
30
0
10
-6.0335030031185708
20
47.695148576895683
30
0
10
-6.0721569069895454
20
47.725200939268191
30
0
10
-6.1110270919111178
20
47.755101732793726
30
0
10
-6.1501123521277457
20
47.784851009522825
30
0
10
-6.1894117910304374
20
47.814448921061427
30
0
10
-6.2210221987332126
20
47.838006310132428
30
0
10
-6.2448259561712414
20
47.855606396743127
30
0
10
-6.2607377588248694
20
47.867309595554048
30
0
10
-6.2687043179082211
20
47.873153646892973
30
0
0
ARC
5
176
100
AcDbEntity
8
0
100
AcDbCircle
10
9.0205620750793969e-16
20
30.999999046325868
30
0
40
17.999999999999996
210
6.9783599949918123e-46
220
2.5925961367682199e-46
230
1
100
AcDbArc
50
110.38100839275205
51
114.61899160724788
0
SPLINE
5
177
100
AcDbEntity
8
0
100
AcDbSpline
70
4
71
5
72
81
73
75
74
0
42
0.000000001
43
0.0000000001
44
0.0000000001
40
-1
40
-1
40
-1
40
-1
40
-1
40
-1
40
-0.9857142857142841
40
-0.97142857142856986
40
-0.95714285714285563
40
-0.94285714285714139
40
-0.92857142857142716
40
-0.91428571428571292
40
-0.89999999999999869
40
-0.88571428571428445
40
-0.87142857142857022
40
-0.85714285714285599
40
-0.84285714285714175
40
-0.82857142857142752
40
-0.81428571428571328
40
-0.79999999999999905
40
-0.78571428571428481
40
-0.77142857142857058
40
-0.75714285714285634
40
-0.74285714285714211
40
-0.72857142857142787
40
-0.71428571428571364
40
-0.6999999999999994
40
-0.68571428571428517
40
-0.67142857142857093
40
-0.6571428571428567
40
-0.64285714285714246
40
-0.62857142857142823
40
-0.61428571428571399
40
-0.59999999999999976
40
-0.58571428571428552
40
-0.57142857142857129
40
-0.55714285714285705
40
-0.54285714285714282
40
-0.52857142857142858
40
-0.51428571428571435
40
-0.50000000000000011
40
-0.48571428571428582
40
-0.47142857142857153
40
-0.45714285714285724
40
-0.44285714285714295
40
-0.42857142857142866
40
-0.41428571428571437
40
-0.40000000000000008
40
-0.38571428571428579
40
-0.3714285714285715
40
-0.35714285714285721
40
-0.34285714285714292
40
-0.32857142857142863
40
-0.31428571428571433
40
-0.30000000000000004
40
-0.28571428571428575
40
-0.27142857142857146
40
-0.25714285714285717
40
-0.24285714285714291
40
-0.22857142857142862
40
-0.21428571428571433
40
-0.20000000000000004
40
-0.18571428571428575
40
-0.17142857142857146
40
-0.15714285714285717
40
-0.14285714285714288
40
-0.12857142857142859
40
-0.1142857142857143
40
-0.10000000000000001
40
-0.085714285714285715
40
-0.071428571428571425
40
-0.057142857142857141
40
-0.042857142857142858
40
-0.028571428571428571
40
-0.014285714285714285
40
0
40
0
40
0
40
0
40
0
40
0
41
1
41
1
41
1
41
1
41
1
41
1
41
1
41
1
41
1
41
1
41
1
41
1
41
1
41
1
41
1
41
1
41
1
41
1
41
1
41
1
41
1
41
1
41
1
41
1
41
1
41
1
41
1
41
1
41
1
41
1
41
1
41
1
41
1
41
1
41
1
41
1
41
1
41
1
41
1
41
1
41
1
41
1
41
1
41
1
41
1
41
1
41
1
41
1
41
1
41
1
41
1
41
1
41
1
41
1
41
1
41
1
41
1
41
1
41
1
41
1
41
1
41
1
41
1
41
1
41
1
41
1
41
1
41
1
41
1
41
1
41
1
41
1
41
1
41
1
41
1
10
-7.4984787056236932
20
47.363764416842159
30
0
10
-7.4999795452428941
20
47.35399884056023
30
0
10
-7.5029554775594063
20
47.334472085762187
30
0
10
-7.5073421352696625
20
47.30519514686813
30
0
10
-7.5130364793532065
20
47.266185623666274
30
0
10
-7.5198964951402214
20
47.217467839963447
30
0
10
-7.5264980323733024
20
47.16879447210929
30
0
10
-7.5328403498525551
20
47.120166046900508
30
0
10
-7.5389225581747779
20
47.071583380129738
30
0
10
-7.5447436500549925
20
47.023047649964752
30
0
10
-7.5503025272021826
20
46.974560311618291
30
0
10
-7.5555980271578669
20
46.926122993053561
30
0
10
-7.5606289531967716
20
46.877737394130996
30
0
10
-7.5653941018767537
20
46.829405191363946
30
0
10
-7.56989230114569
20
46.781127921094736
30
0
10
-7.5741223929632984
20
46.732907002717077
30
0
10
-7.5780832021098075
20
46.684743800105267
30
0
10
-7.5817735102351635
20
46.636639671705225
30
0
10
-7.5851920324876563
20
46.588596020345378
30
0
10
-7.5883373877911389
20
46.540614354359576
30
0
10
-7.5912081122394737
20
46.492696280664426
30
0
10
-7.5938026909433853
20
46.444843467864168
30
0
10
-7.5961195886713115
20
46.397057616719636
30
0
10
-7.5981572765181413
20
46.349340431408038
30
0
10
-7.5999142784719389
20
46.301693579288042
30
0
10
-7.6013891361026733
20
46.254118705173042
30
0
10
-7.6025803275625172
20
46.206617477313053
30
0
10
-7.6034861965894756
20
46.159191626111209
30
0
10
-7.6041048920339085
20
46.111842979011762
30
0
10
-7.6044342732540402
20
46.064573512344424
30
0
10
-7.6044719672274086
20
46.017385327731702
30
0
10
-7.6042155311389745
20
45.970280575478562
30
0
10
-7.6036626001152339
20
45.923261386625491
30
0
10
-7.6028110122270087
20
45.876329814831323
30
0
10
-7.6016590220534344
20
45.829487738874718
30
0
10
-7.6002051643475168
20
45.782736923124503
30
0
10
-7.5984478411984036
20
45.736079203161346
30
0
10
-7.5963849575193105
20
45.689516649618426
30
0
10
-7.5940136086554846
20
45.643051709215506
30
0
10
-7.591329574409694
20
45.596687432238397
30
0
10
-7.5883275965963284
20
45.550427350959311
30
0
10
-7.5850023030321569
20
45.504275069970276
30
0
10
-7.5813490286724381
20
45.458233902758316
30
0
10
-7.5773645135347767
20
45.41230656305715
30
0
10
-7.5730480713410913
20
45.366494647440007
30
0
10
-7.5684008616221092
20
45.320798960268
30
0
10
-7.5634236553587115
20
45.275220507881706
30
0
10
-7.5581148500586695
20
45.229761382082501
30
0
10
-7.5524687763796674
20
45.184425514625566
30
0
10
-7.5464729049003578
20
45.139219919582786
30
0
10
-7.5401096821978664
20
45.094153883039645
30
0
10
-7.5333616168858883
20
45.049236711948609
30
0
10
-7.5262158418531246
20
45.004475715094607
30
0
10
-7.5186679713914559
20
44.959874497675244
30
0
10
-7.5107285831503958
20
44.915430090166097
30
0
10
-7.5024178813232814
20
44.87113532658546
30
0
10
-7.4937536200254486
20
44.826984216724277
30
0
10
-7.4847401527393407
20
44.782976817646052
30
0
10
-7.4753590495614377
20
44.739123410796005
30
0
10
-7.4655538622972797
20
44.695451273957744
30
0
10
-7.4552448183461983
20
44.651998185045244
30
0
10
-7.4443560218997993
20
44.608800387391518
30
0
10
-7.4328405391664409
20
44.565881480773115
30
0
10
-7.4207022028710892
20
44.523242795953209
30
0
10
-7.4080296768703082
20
44.480848261170642
30
0
10
-7.3949514309740572
20
44.43864477161965
30
0
10
-7.3815691677672488
20
44.396592219622804
30
0
10
-7.3678961558757985
20
44.354691347810217
30
0
10
-7.3537986946149445
20
44.313010141926803
30
0
10
-7.3389220614292929
20
44.271717334842876
30
0
10
-7.3227861828906367
20
44.231038255005302
30
0
10
-7.3084806797794677
20
44.199167774440376
30
0
10
-7.29679348221313
20
44.175723584159101
30
0
10
-7.2885541862575334
20
44.160308204917669
30
0
10
-7.2843225791930255
20
44.152654036155411
30
0
0
LINE
5
178
100
AcDbEntity
8
0
100
AcDbLine
10
-7.2843225791930255
20
44.152654036155411
30
0
11
-7.0322142000802943
21
43.69663814179367
31
0
0
ARC
5
179
100
AcDbEntity
8
0
100
AcDbCircle
10
-7.9073748065020544
20
43.212805616049991
30
0
40
0.99999999999999956
210
9.7649082068993006e-32
220
-8.7655094917735796e-31
230
1
100
AcDbArc
50
-57.078322995179164
51
28.936010955278167
0
ARC
5
180
100
AcDbEntity
8
0
100
AcDbCircle
10
9.0205620750793969e-16
20
30.999999046325868
30
0
40
13.549199999999999
210
-3.1643170469558111e-32
220
4.8872341283196655e-32
230
1
100
AcDbArc
50
122.92167700482075
51
124.57832299517922
0
ARC
5
181
100
AcDbEntity
8
0
100
AcDbCircle
10
-8.2571406923380426
20
42.979099522861468
30
0
40
0.99999999999999967
210
0
220
0
230
1
100
AcDbArc
50
218.56398904472175
51
304.57832299517918
0
LINE
5
182
100
AcDbEntity
8
0
100
AcDbLine
10
-9.0390531247720567
20
42.355711242569704
30
0
11
-9.3638791762258435
21
42.763138741673927
31
0
0
SPLINE
5
183
100
AcDbEntity
8
0
100
AcDbSpline
70
4
71
5
72
81
73
75
74
0
42
0.000000001
43
0.0000000001
44
0.0000000001
40
0
40
0
40
0
40
0
40
0
40
0
40
0.014285714285714285
40
0.028571428571428571
40
0.042857142857142858
40
0.057142857142857141
40
0.071428571428571425
40
0.085714285714285715
40
0.10000000000000001
40
0.1142857142857143
40
0.12857142857142859
40
0.14285714285714288
40
0.15714285714285717
40
0.17142857142857146
40
0.18571428571428575
40
0.20000000000000004
40
0.21428571428571433
40
0.22857142857142862
40
0.24285714285714291
40
0.25714285714285717
40
0.27142857142857146
40
0.28571428571428575
40
0.30000000000000004
40
0.31428571428571433
40
0.32857142857142863
40
0.34285714285714292
40
0.35714285714285721
40
0.3714285714285715
40
0.38571428571428579
40
0.40000000000000008
40
0.41428571428571437
40
0.42857142857142866
40
0.44285714285714295
40
0.45714285714285724
40
0.47142857142857153
40
0.48571428571428582
40
0.50000000000000011
40
0.51428571428571435
40
0.52857142857142858
40
0.54285714285714282
40
0.55714285714285705
40
0.57142857142857129
40
0.58571428571428552
40
0.59999999999999976
40
0.61428571428571399
40
0.62857142857142823
40
0.64285714285714246
40
0.6571428571428567
40
0.67142857142857093
40
0.68571428571428517
40
0.6999999999999994
40
0.71428571428571364
40
0.72857142857142787
40
0.74285714285714211
40
0.75714285714285634
40
0.77142857142857058
40
0.78571428571428481
40
0.79999999999999905
40
0.81428571428571328
40
0.82857142857142752
40
0.84285714285714175
40
0.85714285714285599
40
0.87142857142857022
40
0.88571428571428445
40
0.89999999999999869
40
0.91428571428571292
40
0.92857142857142716
40
0.94285714285714139
40
0.95714285714285563
40
0.97142857142856986
40
0.9857142857142841
40
1
40
1
40
1
40
1
40
1
40
1
41
1
41
1
41
1
41
1
41
1
41
1
41
1
41
1
41
1
41
1
41
1
41
1
41
1
41
1
41
1
41
1
41
1
41
1
41
1
41
1
41
1
41
1
41
1
41
1
41
1
41
1
41
1
41
1
41
1
41
1
41
1
41
1
41
1
41
1
41
1
41
1
41
1
41
1
41
1
41
1
41
1
41
1
41
1
41
1
41
1
41
1
41
1
41
1
41
1
41
1
41
1
41
1
41
1
41
1
41
1
41
1
41
1
41
1
41
1
41
1
41
1
41
1
41
1
41
1
41
1
41
1
41
1
41
1
41
1
41
1
41
1
41
1
41
1
41
1
41
1
10
-9.3638791762258435
20
42.763138741673927
30
0
10
-9.3693313401678164
20
42.769977360404297
30
0
10
-9.3804202514783181
20
42.783488687539304
30
0
10
-9.3976073621560712
20
42.803257953369126
30
0
10
-9.4215773678090073
20
42.828670819789508
30
0
10
-9.4529850036889478
20
42.859145637608165
30
0
10
-9.4854415419441889
20
42.888691927667928
30
0
10
-9.518555090087327
20
42.917666990519777
30
0
10
-9.552034012827967
20
42.946333975798403
30
0
10
-9.5857643344909302
20
42.974790389811723
30
0
10
-9.6197504466587578
20
43.00302368975558
30
0
10
-9.6540683238879907
20
43.030955263237026
30
0
10
-9.688816191889595
20
43.058486741957452
30
0
10
-9.724061306814356
20
43.085550015259884
30
0
10
-9.7598039059177673
20
43.112141032907132
30
0
10
-9.7960042250648129
20
43.138294124825194
30
0
10
-9.8325997357134831
20
43.164065539874976
30
0
10
-9.8695250079696386
20
43.189514521347689
30
0
10
-9.9067332386585107
20
43.214682781819
30
0
10
-9.9442078761445583
20
43.239583413760812
30
0
10
-9.9819505337135688
20
43.264212373242529
30
0
10
-10.019973539802887
20
43.288555549954133
30
0
10
-10.058291246726412
20
43.312597019957416
30
0
10
-10.096910445858187
20
43.336328147166299
30
0
10
-10.13582612809209
20
43.359751603797328
30
0
10
-10.175026616961006
20
43.382876480560384
30
0
10
-10.214496620298306
20
43.405715375772772
30
0
10
-10.254220841475538
20
43.428280953051512
30
0
10
-10.2941880055333
20
43.450582103903471
30
0
10
-10.334392310440075
20
43.472622561500387
30
0
10
-10.374831210376145
20
43.494403005854309
30
0
10
-10.415504070645678
20
43.515922339561904
30
0
10
-10.456410591849089
20
43.537179183540815
30
0
10
-10.4975490363178
20
43.558173560847173
30
0
10
-10.538915649347514
20
43.578907444811065
30
0
10
-10.58050558444007
20
43.599383877355251
30
0
10
-10.622313455541146
20
43.619606442312232
30
0
10
-10.66433398703621
20
43.639578645869989
30
0
10
-10.706562745829089
20
43.659303219688539
30
0
10
-10.748996359882225
20
43.678781910999845
30
0
10
-10.791632114424971
20
43.698015863014689
30
0
10
-10.834467702107954
20
43.71700584956389
30
0
10
-10.877500932141139
20
43.735752549164431
30
0
10
-10.92072940081575
20
43.754256855397472
30
0
10
-10.964150383463945
20
43.772519979723924
30
0
10
-11.007761006263102
20
43.790543291488092
30
0
10
-11.051558347765662
20
43.808328224670745
30
0
10
-11.095539558209197
20
43.825876167402633
30
0
10
-11.139701992515022
20
43.84318834107026
30
0
10
-11.184043253940477
20
43.860265756580219
30
0
10
-11.228561109977505
20
43.877109281922479
30
0
10
-11.273253436978115
20
43.893719684689458
30
0
10
-11.318118157215867
20
43.910097682851969
30
0
10
-11.363153165406887
20
43.926244001996686
30
0
10
-11.408356302010096
20
43.942159402487384
30
0
10
-11.453725408219672
20
43.95784465184007
30
0
10
-11.499258362723284
20
43.973300511082741
30
0
10
-11.544953120710964
20
43.988527717747978
30
0
10
-11.590807760148948
20
44.003526970569347
30
0
10
-11.636820493301329
20
44.018298919755892
30
0
10
-11.68298959888533
20
44.032844171061527
30
0
10
-11.729313367108267
20
44.04716328831563
30
0
10
-11.77579004345851
20
44.061256798229486
30
0
10
-11.822417760015909
20
44.075125195705283
30
0
10
-11.869194507346732
20
44.088768951004731
30
0
10
-11.916118257017754
20
44.102188519249367
30
0
10
-11.963187060133503
20
44.115384351416253
30
0
10
-12.010399151954946
20
44.128356905308166
30
0
10
-12.057753058525709
20
44.141106660669806
30
0
10
-12.105247685791799
20
44.153634127012246
30
0
10
-12.152882263411602
20
44.165939787518539
30
0
10
-12.191101494609786
20
44.175607197802485
30
0
10
-12.219828560457749
20
44.182758253992972
30
0
10
-12.239007769545402
20
44.187481416584674
30
0
10
-12.248604332052357
20
44.189831945829496
30
0
0
ARC
5
184
100
AcDbEntity
8
0
100
AcDbCircle
10
9.0205620750793969e-16
20
30.999999046325868
30
0
40
18
210
0
220
0
230
1
100
AcDbArc
50
132.88100839275205
51
137.11899160724786
0
SPLINE
5
185
100
AcDbEntity
8
0
100
AcDbSpline
70
4
71
5
72
81
73
75
74
0
42
0.000000001
43
0.0000000001
44
0.0000000001
40
-1
40
-1
40
-1
40
-1
40
-1
40
-1
40
-0.9857142857142841
40
-0.97142857142856986
40
-0.95714285714285563
40
-0.94285714285714139
40
-0.92857142857142716
40
-0.91428571428571292
40
-0.89999999999999869
40
-0.88571428571428445
40
-0.87142857142857022
40
-0.85714285714285599
40
-0.84285714285714175
40
-0.82857142857142752
40
-0.81428571428571328
40
-0.79999999999999905
40
-0.78571428571428481
40
-0.77142857142857058
40
-0.75714285714285634
40
-0.74285714285714211
40
-0.72857142857142787
40
-0.71428571428571364
40
-0.6999999999999994
40
-0.68571428571428517
40
-0.67142857142857093
40
-0.6571428571428567
40
-0.64285714285714246
40
-0.62857142857142823
40
-0.61428571428571399
40
-0.59999999999999976
40
-0.58571428571428552
40
-0.57142857142857129
40
-0.55714285714285705
40
-0.54285714285714282
40
-0.52857142857142858
40
-0.51428571428571435
40
-0.50000000000000011
40
-0.48571428571428582
40
-0.47142857142857153
40
-0.45714285714285724
40
-0.44285714285714295
40
-0.42857142857142866
40
-0.41428571428571437
40
-0.40000000000000008
40
-0.38571428571428579
40
-0.3714285714285715
40
-0.35714285714285721
40
-0.34285714285714292
40
-0.32857142857142863
40
-0.31428571428571433
40
-0.30000000000000004
40
-0.28571428571428575
40
-0.27142857142857146
40
-0.25714285714285717
40
-0.24285714285714291
40
-0.22857142857142862
40
-0.21428571428571433
40
-0.20000000000000004
40
-0.18571428571428575
40
-0.17142857142857146
40
-0.15714285714285717
40
-0.14285714285714288
40
-0.12857142857142859
40
-0.1142857142857143
40
-0.10000000000000001
40
-0.085714285714285715
40
-0.071428571428571425
40
-0.057142857142857141
40
-0.042857142857142858
40
-0.028571428571428571
40
-0.014285714285714285
40
0
40
0
40
0
40
0
40
0
40
0
41
1
41
1
41
1
41
1
41
1
41
1
41
1
41
1
41
1
41
1
41
1
41
1
41
1
41
1
41
1
41
1
41
1
41
1
41
1
41
1
41
1
41
1
41
1
41
1
41
1
41
1
41
1
41
1
41
1
41
1
41
1
41
1
41
1
41
1
41
1
41
1
41
1
41
1
41
1
41
1
41
1
41
1
41
1
41
1
41
1
41
1
41
1
41
1
41
1
41
1
41
1
41
1
41
1
41
1
41
1
41
1
41
1
41
1
41
1
41
1
41
1
41
1
41
1
41
1
41
1
41
1
41
1
41
1
41
1
41
1
41
1
41
1
41
1
41
1
41
1
10
-13.189832899503626
20
43.248603378378235
30
0
10
-13.187482370258795
20
43.239006815871278
30
0
10
-13.182759207667091
20
43.219827606783625
30
0
10
-13.175608151476613
20
43.191100540935665
30
0
10
-13.16594074119266
20
43.152881309737481
30
0
10
-13.153635080686373
20
43.105246732117671
30
0
10
-13.141107614343932
20
43.057752104851588
30
0
10
-13.128357858982291
20
43.010398198280825
30
0
10
-13.115385305090374
20
42.963186106459375
30
0
10
-13.102189472923493
20
42.916117303343633
30
0
10
-13.088769904678855
20
42.869193553672602
30
0
10
-13.075126149379413
20
42.822416806341792
30
0
10
-13.061257751903605
20
42.775789089784382
30
0
10
-13.047164241989758
20
42.729312413434144
30
0
10
-13.032845124735646
20
42.682988645211204
30
0
10
-13.018299873430019
20
42.636819539627204
30
0
10
-13.003527924243478
20
42.590806806474824
30
0
10
-12.988528671422095
20
42.544952167036847
30
0
10
-12.973301464756869
20
42.499257409049164
30
0
10
-12.957845605514194
20
42.453724454545551
30
0
10
-12.942160356161505
20
42.408355348335974
30
0
10
-12.926244955670811
20
42.363152211732768
30
0
10
-12.910098636526088
20
42.318117203541739
30
0
10
-12.893720638363577
20
42.273252483303992
30
0
10
-12.877110235596604
20
42.228560156303381
30
0
10
-12.86026671025434
20
42.184042300266356
30
0
10
-12.843189294744375
20
42.139701038840897
30
0
10
-12.825877121076758
20
42.095538604535072
30
0
10
-12.808329178344874
20
42.051557394091539
30
0
10
-12.790544245162218
20
42.007760052588978
30
0
10
-12.772520933398042
20
41.964149429789821
30
0
10
-12.7542578090716
20
41.920728447141627
30
0
10
-12.735753502838559
20
41.877499978467014
30
0
10
-12.717006803238014
20
41.834466748433826
30
0
10
-12.69801681668881
20
41.791631160750846
30
0
10
-12.678782864673972
20
41.748995406208103
30
0
10
-12.659304173362663
20
41.706561792154957
30
0
10
-12.63957959954411
20
41.664333033362091
30
0
10
-12.61960739598635
20
41.622312501867015
30
0
10
-12.599384831029381
20
41.580504630765951
30
0
10
-12.57890839848519
20
41.538914695673398
30
0
10
-12.558174514521298
20
41.497548082643675
30
0
10
-12.537180137214939
20
41.456409638174975
30
0
10
-12.515923293236034
20
41.415503116971557
30
0
10
-12.494403959528427
20
41.374830256702026
30
0
10
-12.472623515174508
20
41.334391356765956
30
0
10
-12.450583057577592
20
41.294187051859183
30
0
10
-12.428281906725642
20
41.254219887801412
30
0
10
-12.405716329446895
20
41.214495666624188
30
0
10
-12.382877434234514
20
41.175025663286881
30
0
10
-12.359752557471452
20
41.13582517441796
30
0
10
-12.33632910084042
20
41.096909492184068
30
0
10
-12.312597973631544
20
41.058290293052281
30
0
10
-12.288556503628257
20
41.019972586128759
30
0
10
-12.264213326916646
20
40.981949580039441
30
0
10
-12.239584367434935
20
40.944206922470428
30
0
10
-12.21468373549313
20
40.906732284984386
30
0
10
-12.189515475021819
20
40.86952405429551
30
0
10
-12.1640664935491
20
40.832598782039362
30
0
10
-12.138295078499318
20
40.796003271390688
30
0
10
-12.112141986581257
20
40.759802952243646
30
0
10
-12.085550968934006
20
40.724060353140239
30
0
10
-12.058487695631584
20
40.688815238215469
30
0
10
-12.030956216911154
20
40.654067370213866
30
0
10
-12.003024643429701
20
40.619749492984631
30
0
10
-11.974791343485848
20
40.5857633808168
30
0
10
-11.946334929472533
20
40.552033059153842
30
0
10
-11.917667944193905
20
40.518554136413201
30
0
10
-11.888692881342052
20
40.485440588270066
30
0
10
-11.859146591282288
20
40.45298405001482
30
0
10
-11.828671773463636
20
40.42157641413489
30
0
10
-11.803258907043244
20
40.397606408481948
30
0
10
-11.783489641213428
20
40.380419297804195
30
0
10
-11.769978314078426
20
40.369330386493694
30
0
10
-11.763139695348057
20
40.363878222551719
30
0
0
LINE
5
186
100
AcDbEntity
8
0
100
AcDbLine
10
-11.763139695348057
20
40.363878222551719
30
0
11
-11.355712196243818
21
40.039052171097929
31
0
0
ARC
5
187
100
AcDbEntity
8
0
100
AcDbCircle
10
-11.979100476535587
20
39.257139738663923
30
0
40
1.0000000000000016
210
-0
220
0
230
1
100
AcDbArc
50
-34.578322995179242
51
51.436010955277666
0
ARC
5
188
100
AcDbEntity
8
0
100
AcDbCircle
10
9.0205620750793969e-16
20
30.999999046325868
30
0
40
13.549199999999999
210
-4.4770403053742128e-31
220
-6.4950952943483606e-31
230
1
100
AcDbArc
50
145.42167700482074
51
147.07832299517924
0
ARC
5
189
100
AcDbEntity
8
0
100
AcDbCircle
10
-12.212806569724115
20
38.907373852827931
30
0
40
0.99999999999999911
210
3.451899940978186e-31
220
-1.9083828211676116e-31
230
1
100
AcDbArc
50
241.06398904472195
51
327.07832299517941
0
LINE
5
190
100
AcDbEntity
8
0
100
AcDbLine
10
-12.696639095467788
20
38.03221324640618
30
7.2455698691354661e-47
11
-13.152654989829532
21
38.284321625518899
31
0
0
SPLINE
5
191
100
AcDbEntity
8
0
100
AcDbSpline
70
4
71
5
72
81
73
75
74
0
42
0.000000001
43
0.0000000001
44
0.0000000001
40
0
40
0
40
0
40
0
40
0
40
0
40
0.014285714285714285
40
0.028571428571428571
40
0.042857142857142858
40
0.057142857142857141
40
0.071428571428571425
40
0.085714285714285715
40
0.10000000000000001
40
0.1142857142857143
40
0.12857142857142859
40
0.14285714285714288
40
0.15714285714285717
40
0.17142857142857146
40
0.18571428571428575
40
0.20000000000000004
40
0.21428571428571433
40
0.22857142857142862
40
0.24285714285714291
40
0.25714285714285717
40
0.27142857142857146
40
0.28571428571428575
40
0.30000000000000004
40
0.31428571428571433
40
0.32857142857142863
40
0.34285714285714292
40
0.35714285714285721
40
0.3714285714285715
40
0.38571428571428579
40
0.40000000000000008
40
0.41428571428571437
40
0.42857142857142866
40
0.44285714285714295
40
0.45714285714285724
40
0.47142857142857153
40
0.48571428571428582
40
0.50000000000000011
40
0.51428571428571435
40
0.52857142857142858
40
0.54285714285714282
40
0.55714285714285705
40
0.57142857142857129
40
0.58571428571428552
40
0.59999999999999976
40
0.61428571428571399
40
0.62857142857142823
40
0.64285714285714246
40
0.6571428571428567
40
0.67142857142857093
40
0.68571428571428517
40
0.6999999999999994
40
0.71428571428571364
40
0.72857142857142787
40
0.74285714285714211
40
0.75714285714285634
40
0.77142857142857058
40
0.78571428571428481
40
0.79999999999999905
40
0.81428571428571328
40
0.82857142857142752
40
0.84285714285714175
40
0.85714285714285599
40
0.87142857142857022
40
0.88571428571428445
40
0.89999999999999869
40
0.91428571428571292
40
0.92857142857142716
40
0.94285714285714139
40
0.95714285714285563
40
0.97142857142856986
40
0.9857142857142841
40
1
40
1
40
1
40
1
40
1
40
1
41
1
41
1
41
1
41
1
41
1
41
1
41
1
41
1
41
1
41
1
41
1
41
1
41
1
41
1
41
1
41
1
41
1
41
1
41
1
41
1
41
1
41
1
41
1
41
1
41
1
41
1
41
1
41
1
41
1
41
1
41
1
41
1
41
1
41
1
41
1
41
1
41
1
41
1
41
1
41
1
41
1
41
1
41
1
41
1
41
1
41
1
41
1
41
1
41
1
41
1
41
1
41
1
41
1
41
1
41
1
41
1
41
1
41
1
41
1
41
1
41
1
41
1
41
1
41
1
41
1
41
1
41
1
41
1
41
1
41
1
41
1
41
1
41
1
41
1
41
1
10
-13.152654989829532
20
38.284321625518906
30
0
10
-13.160309158591792
20
38.288553232583411
30
0
10
-13.175724537833229
20
38.296792528539008
30
0
10
-13.199168728114499
20
38.30847972610534
30
0
10
-13.23103920867942
20
38.322785229216521
30
0
10
-13.271718288517004
20
38.338921107755169
30
0
10
-13.31301109560092
20
38.35379774094082
30
0
10
-13.354692301484334
20
38.36789520220168
30
0
10
-13.396593173296921
20
38.381568214093129
30
0
10
-13.438645725293771
20
38.394950477299929
30
0
10
-13.480849214844767
20
38.408028723196189
30
0
10
-13.523243749627332
20
38.420701249196966
30
0
10
-13.565882434447236
20
38.432839585492317
30
0
10
-13.608801341065639
20
38.444355068225676
30
0
10
-13.651999138719367
20
38.455243864672077
30
0
10
-13.695452227631861
20
38.46555290862316
30
0
10
-13.739124364470126
20
38.475358095887316
30
0
10
-13.782977771320169
20
38.484739199065217
30
0
10
-13.826985170398396
20
38.493752666351327
30
0
10
-13.871136280259586
20
38.502416927649158
30
0
10
-13.915431043840218
20
38.510727629476271
30
0
10
-13.959875451349358
20
38.518667017717341
30
0
10
-14.004476668768726
20
38.526214888179005
30
0
10
-14.049237665622741
20
38.533360663211766
30
0
10
-14.094154836713773
20
38.540108728523748
30
0
10
-14.139220873256908
20
38.546471951226231
30
0
10
-14.184426468299691
20
38.552467822705545
30
0
10
-14.229762335756622
20
38.558113896384548
30
0
10
-14.275221461555825
20
38.563422701684594
30
0
10
-14.320799913942125
20
38.568399907947985
30
0
10
-14.366495601114124
20
38.573047117666967
30
0
10
-14.412307516731273
20
38.57736355986065
30
0
10
-14.458234856432437
20
38.581348074998317
30
0
10
-14.504276023644397
20
38.585001349358038
30
0
10
-14.55042830463343
20
38.588326642922205
30
0
10
-14.59668838591252
20
38.591328620735574
30
0
10
-14.643052662889634
20
38.594012654981363
30
0
10
-14.689517603292545
20
38.596384003845188
30
0
10
-14.736080156835463
20
38.598446887524283
30
0
10
-14.782737876798631
20
38.60020421067339
30
0
10
-14.829488692548834
20
38.601658068379315
30
0
10
-14.876330768505447
20
38.60281005855289
30
0
10
-14.923262340299612
20
38.603661646441111
30
0
10
-14.970281529152686
20
38.604214577464852
30
0
10
-15.01738628140583
20
38.604471013553287
30
0
10
-15.064574466018549
20
38.604433319579918
30
0
10
-15.11184393268589
20
38.604103938359785
30
0
10
-15.159192579785326
20
38.603485242915355
30
0
10
-15.206618430987181
20
38.602579373888389
30
0
10
-15.254119658847163
20
38.601388182428551
30
0
10
-15.301694532962165
20
38.599913324797818
30
0
10
-15.349341385082164
20
38.598156322844019
30
0
10
-15.397058570393767
20
38.59611863499719
30
0
10
-15.44484442153829
20
38.593801737269267
30
0
10
-15.492697234338554
20
38.591207158565354
30
0
10
-15.540615308033699
20
38.588336434117018
30
0
10
-15.588596974019493
20
38.585191078813537
30
0
10
-15.63664062537935
20
38.581772556561042
30
0
10
-15.684744753779389
20
38.578082248435685
30
0
10
-15.732907956391205
20
38.574121439289179
30
0
10
-15.781128874768861
20
38.569891347471568
30
0
10
-15.829406145038075
20
38.565393148202631
30
0
10
-15.877738347805117
20
38.560627999522652
30
0
10
-15.926123946727682
20
38.555597073483746
30
0
10
-15.974561265292422
20
38.55030157352806
30
0
10
-16.023048603638877
20
38.544742696380872
30
0
10
-16.071584333803855
20
38.538921604500658
30
0
10
-16.120167000574632
20
38.532839396178439
30
0
10
-16.168795425783419
20
38.52649707869918
30
0
10
-16.217468793637572
20
38.519895541466099
30
0
10
-16.266186577340392
20
38.513035525679086
30
0
10
-16.305196100542261
20
38.507341181595535
30
0
10
-16.334473039436308
20
38.502954523885286
30
0
10
-16.353999794234358
20
38.499978591568777
30
0
10
-16.363765370516283
20
38.498477751949579
30
0
0
ARC
5
192
100
AcDbEntity
8
0
100
AcDbCircle
10
9.0205620750793969e-16
20
30.999999046325868
30
0
40
18
210
1.9154491371026e-46
220
4.180042577862829e-46
230
1
100
AcDbArc
50
155.38100839275202
51
159.61899160724789
0
SPLINE
5
193
100
AcDbEntity
8
0
100
AcDbSpline
70
4
71
5
72
81
73
75
74
0
42
0.000000001
43
0.0000000001
44
0.0000000001
40
-1
40
-1
40
-1
40
-1
40
-1
40
-1
40
-0.9857142857142841
40
-0.97142857142856986
40
-0.95714285714285563
40
-0.94285714285714139
40
-0.92857142857142716
40
-0.91428571428571292
40
-0.89999999999999869
40
-0.88571428571428445
40
-0.87142857142857022
40
-0.85714285714285599
40
-0.84285714285714175
40
-0.82857142857142752
40
-0.81428571428571328
40
-0.79999999999999905
40
-0.78571428571428481
40
-0.77142857142857058
40
-0.75714285714285634
40
-0.74285714285714211
40
-0.72857142857142787
40
-0.71428571428571364
40
-0.6999999999999994
40
-0.68571428571428517
40
-0.67142857142857093
40
-0.6571428571428567
40
-0.64285714285714246
40
-0.62857142857142823
40
-0.61428571428571399
40
-0.59999999999999976
40
-0.58571428571428552
40
-0.57142857142857129
40
-0.55714285714285705
40
-0.54285714285714282
40
-0.52857142857142858
40
-0.51428571428571435
40
-0.50000000000000011
40
-0.48571428571428582
40
-0.47142857142857153
40
-0.45714285714285724
40
-0.44285714285714295
40
-0.42857142857142866
40
-0.41428571428571437
40
-0.40000000000000008
40
-0.38571428571428579
40
-0.3714285714285715
40
-0.35714285714285721
40
-0.34285714285714292
40
-0.32857142857142863
40
-0.31428571428571433
40
-0.30000000000000004
40
-0.28571428571428575
40
-0.27142857142857146
40
-0.25714285714285717
40
-0.24285714285714291
40
-0.22857142857142862
40
-0.21428571428571433
40
-0.20000000000000004
40
-0.18571428571428575
40
-0.17142857142857146
40
-0.15714285714285717
40
-0.14285714285714288
40
-0.12857142857142859
40
-0.1142857142857143
40
-0.10000000000000001
40
-0.085714285714285715
40
-0.071428571428571425
40
-0.057142857142857141
40
-0.042857142857142858
40
-0.028571428571428571
40
-0.014285714285714285
40
0
40
0
40
0
40
0
40
0
40
0
41
1
41
1
41
1
41
1
41
1
41
1
41
1
41
1
41
1
41
1
41
1
41
1
41
1
41
1
41
1
41
1
41
1
41
1
41
1
41
1
41
1
41
1
41
1
41
1
41
1
41
1
41
1
41
1
41
1
41
1
41
1
41
1
41
1
41
1
41
1
41
1
41
1
41
1
41
1
41
1
41
1
41
1
41
1
41
1
41
1
41
1
41
1
41
1
41
1
41
1
41
1
41
1
41
1
41
1
41
1
41
1
41
1
41
1
41
1
41
1
41
1
41
1
41
1
41
1
41
1
41
1
41
1
41
1
41
1
41
1
41
1
41
1
41
1
41
1
41
1
10
-16.873154600567101
20
37.268703364234099
30
0
10
-16.867310549228165
20
37.260736805150749
30
0
10
-16.855607350417255
20
37.244825002497123
30
0
10
-16.83800726380656
20
37.221021245059099
30
0
10
-16.814449874735548
20
37.18941083735632
30
0
10
-16.784851963196949
20
37.150111398453625
30
0
10
-16.755102686467858
20
37.111026138236994
30
0
10
-16.725201892942319
20
37.072155953315423
30
0
10
-16.695149530569807
20
37.033502049444451
30
0
10
-16.664945720182722
20
36.995065971972544
30
0
10
-16.634590714162819
20
36.956849526499518
30
0
10
-16.604084841671632
20
36.918854686151462
30
0
10
-16.573428458479469
20
36.881083499123783
30
0
10
-16.54262189909819
20
36.843538001852551
30
0
10
-16.511665421119847
20
36.806220109461819
30
0
10
-16.480559209349234
20
36.769131644472658
30
0
10
-16.449303397185243
20
36.732274402295701
30
0
10
-16.417898083690616
20
36.69565020500086
30
0
10
-16.386343352287472
20
36.659260953064965
30
0
10
-16.354639292960623
20
36.623108689609452
30
0
10
-16.322786006833724
20
36.587195586033879
30
0
10
-16.290783602599667
20
36.55152389340811
30
0
10
-16.258632197305335
20
36.516095899924309
30
0
10
-16.226331914886799
20
36.480913891716909
30
0
10
-16.193882890646645
20
36.445980091484572
30
0
10
-16.161285256377806
20
36.411296693551783
30
0
10
-16.128539115602269
20
36.376865953658353
30
0
10
-16.095644520745726
20
36.342690266538156
30
0
10
-16.062601455045957
20
36.308772233349885
30
0
10
-16.029409802316756
20
36.275114765231976
30
0
10
-15.996069370649399
20
36.24172102623627
30
0
10
-15.962579953208015
20
36.208594264189031
30
0
10
-15.9289413846477
20
36.175737658181546
30
0
10
-15.895153588409762
20
36.14315418908469
30
0
10
-15.861216658792392
20
36.110846419594509
30
0
10
-15.827130807306688
20
36.078816633394275
30
0
10
-15.792896202010557
20
36.047067258329086
30
0
10
-15.758512825612708
20
36.015601240007811
30
0
10
-15.723980354304208
20
35.984422362423658
30
0
10
-15.689297960832745
20
35.953535766584459
30
0
10
-15.654464424793257
20
35.922947668282575
30
0
10
-15.619478496310023
20
35.892664415056672
30
0
10
-15.584339219687415
20
35.862691648580643
30
0
10
-15.54904620866928
20
35.833033592909672
30
0
10
-15.513600106931493
20
35.803691862263392
30
0
10
-15.478002303155305
20
35.774666205498981
30
0
10
-15.442254054096754
20
35.745956789040854
30
0
10
-15.406355705749665
20
35.717566225149085
30
0
10
-15.370306029454394
20
35.689501302824816
30
0
10
-15.334101125269925
20
35.661775841404634
30
0
10
-15.297735147305938
20
35.634408819286911
30
0
10
-15.261202308293766
20
35.607419185758715
30
0
10
-15.224498677903124
20
35.580821207333074
30
0
10
-15.187623704229749
20
35.554620534433624
30
0
10
-15.150582767030492
20
35.528807587761818
30
0
10
-15.113385085713201
20
35.503363013681273
30
0
10
-15.076038978615768
20
35.478270022419181
30
0
10
-15.038547564465166
20
35.453525575948596
30
0
10
-15.000905081431259
20
35.429149976258905
30
0
10
-14.963090902918726
20
35.405202426556954
30
0
10
-14.925075334199839
20
35.381766047608785
30
0
10
-14.886830336740358
20
35.358920133761714
30
0
10
-14.848339410899975
20
35.336714559780127
30
0
10
-14.809606207816181
20
35.315147556509864
30
0
10
-14.770667915716263
20
35.294130922549776
30
0
10
-14.731577825705758
20
35.273536265257796
30
0
10
-14.692379491961425
20
35.253263309635784
30
0
10
-14.653082821937428
20
35.233303198467155
30
0
10
-14.61364134815417
20
35.213798545594031
30
0
10
-14.573923556044107
20
35.195119489897564
30
0
10
-14.533749313703437
20
35.177764825827069
30
0
10
-14.501097962518109
20
35.165344511158132
30
0
10
-14.476256319938571
20
35.157031061883039
30
0
10
-14.459529938699983
20
35.151956804729267
30
0
10
-14.451125426013217
20
35.149536688143755
30
0
0
LINE
5
194
100
AcDbEntity
8
0
100
AcDbLine
10
-14.451125426013219
20
35.149536688143755
30
0
11
-13.95040595031662
21
35.005352301376277
31
0
0
ARC
5
195
100
AcDbEntity
8
0
100
AcDbCircle
10
-14.227116689832808
20
34.044399042036162
30
0
40
1.0000000000000007
210
1.6506805435837389e-31
220
7.7139747550562755e-31
230
1
100
AcDbArc
50
-12.078322995179064
51
73.936010955277894
0
ARC
5
196
100
AcDbEntity
8
0
100
AcDbCircle
10
9.0205620750793969e-16
20
30.999999046325868
30
0
40
13.549200000000001
210
-1.6506805435837474e-31
220
-7.713974755056272e-31
230
1
100
AcDbArc
50
167.92167700482071
51
169.57832299517929
0
ARC
5
197
100
AcDbEntity
8
0
100
AcDbCircle
10
-14.309183356236936
20
33.631822049035577
30
0
40
1.0000000000000018
210
9.7986154800441486e-32
220
-1.1053272776962935e-32
230
1
100
AcDbArc
50
263.56398904472212
51
349.57832299517844
0
LINE
5
198
100
AcDbEntity
8
0
100
AcDbLine
10
-14.421276859198564
20
32.638124385460884
30
1.8113924672838673e-47
11
-14.939058310346066
21
32.696532429230345
31
0
0
SPLINE
5
199
100
AcDbEntity
8
0
100
AcDbSpline
70
4
71
5
72
81
73
75
74
0
42
0.000000001
43
0.0000000001
44
0.0000000001
40
0
40
0
40
0
40
0
40
0
40
0
40
0.014285714285714285
40
0.028571428571428571
40
0.042857142857142858
40
0.057142857142857141
40
0.071428571428571425
40
0.085714285714285715
40
0.10000000000000001
40
0.1142857142857143
40
0.12857142857142859
40
0.14285714285714288
40
0.15714285714285717
40
0.17142857142857146
40
0.18571428571428575
40
0.20000000000000004
40
0.21428571428571433
40
0.22857142857142862
40
0.24285714285714291
40
0.25714285714285717
40
0.27142857142857146
40
0.28571428571428575
40
0.30000000000000004
40
0.31428571428571433
40
0.32857142857142863
40
0.34285714285714292
40
0.35714285714285721
40
0.3714285714285715
40
0.38571428571428579
40
0.40000000000000008
40
0.41428571428571437
40
0.42857142857142866
40
0.44285714285714295
40
0.45714285714285724
40
0.47142857142857153
40
0.48571428571428582
40
0.50000000000000011
40
0.51428571428571435
40
0.52857142857142858
40
0.54285714285714282
40
0.55714285714285705
40
0.57142857142857129
40
0.58571428571428552
40
0.59999999999999976
40
0.61428571428571399
40
0.62857142857142823
40
0.64285714285714246
40
0.6571428571428567
40
0.67142857142857093
40
0.68571428571428517
40
0.6999999999999994
40
0.71428571428571364
40
0.72857142857142787
40
0.74285714285714211
40
0.75714285714285634
40
0.77142857142857058
40
0.78571428571428481
40
0.79999999999999905
40
0.81428571428571328
40
0.82857142857142752
40
0.84285714285714175
40
0.85714285714285599
40
0.87142857142857022
40
0.88571428571428445
40
0.89999999999999869
40
0.91428571428571292
40
0.92857142857142716
40
0.94285714285714139
40
0.95714285714285563
40
0.97142857142856986
40
0.9857142857142841
40
1
40
1
40
1
40
1
40
1
40
1
41
1
41
1
41
1
41
1
41
1
41
1
41
1
41
1
41
1
41
1
41
1
41
1
41
1
41
1
41
1
41
1
41
1
41
1
41
1
41
1
41
1
41
1
41
1
41
1
41
1
41
1
41
1
41
1
41
1
41
1
41
1
41
1
41
1
41
1
41
1
41
1
41
1
41
1
41
1
41
1
41
1
41
1
41
1
41
1
41
1
41
1
41
1
41
1
41
1
41
1
41
1
41
1
41
1
41
1
41
1
41
1
41
1
41
1
41
1
41
1
41
1
41
1
41
1
41
1
41
1
41
1
41
1
41
1
41
1
41
1
41
1
41
1
41
1
41
1
41
1
10
-14.939058310346066
20
32.696532429230345
30
0
10
-14.947749206119772
20
32.69751280081303
30
0
10
-14.965144201543392
20
32.699225707469388
30
0
10
-14.991276305979975
20
32.701051566887486
30
0
10
-15.026195269697499
20
32.702071823520463
30
0
10
-15.069952772344234
20
32.701412221543713
30
0
10
-15.11379539269852
20
32.699354365309752
30
0
10
-15.15769867056753
20
32.696428014296444
30
0
10
-15.201642463550948
20
32.693025460686414
30
0
10
-15.245615126047502
20
32.689296244823993
30
0
10
-15.28961089427311
20
32.685228392289531
30
0
10
-15.333627902995776
20
32.680712593602756
30
0
10
-15.377666051390795
20
32.675609835806355
30
0
10
-15.42172473523104
20
32.66982440011261
30
0
10
-15.465801258331314
20
32.663353254806374
30
0
10
-15.509891778125567
20
32.656248792300637
30
0
10
-15.553991854208697
20
32.648595000902453
30
0
10
-15.598097111991835
20
32.64048003786661
30
0
10
-15.642203951877827
20
32.631966493280494
30
0
10
-15.686309927868596
20
32.623075328693481
30
0
10
-15.730413321238732
20
32.613802543849523
30
0
10
-15.774512872013986
20
32.604129443731068
30
0
10
-15.818607468888148
20
32.59403461979494
30
0
10
-15.862695807452816
20
32.583507163179462
30
0
10
-15.90677623527754
20
32.572552505400004
30
0
10
-15.950846923955845
20
32.561185331068231
30
0
10
-15.994905968648588
20
32.549425361734457
30
0
10
-16.038951507535558
20
32.537292368277868
30
0
10
-16.082981855261274
20
32.524800610543508
30
0
10
-16.126995548920981
20
32.511956830938274
30
0
10
-16.170991269189411
20
32.498763310469663
30
0
10
-16.21496779128751
20
32.485219721954088
30
0
10
-16.258923928349304
20
32.471325301940517
30
0
10
-16.302858467960711
20
32.457081295449342
30
0
10
-16.346770150499946
20
32.442491752812508
30
0
10
-16.39065769993951
20
32.427562251985961
30
0
10
-16.434519841916114
20
32.412299135637483
30
0
10
-16.478355325256267
20
32.396708613439188
30
0
10
-16.522162946862913
20
32.380795751638765
30
0
10
-16.565941557825003
20
32.364564170106405
30
0
10
-16.609690046881894
20
32.348016596846925
30
0
10
-16.65340732967222
20
32.331155210583766
30
0
10
-16.697092336857462
20
32.313982040223351
30
0
10
-16.740744000616125
20
32.29649941730176
30
0
10
-16.784361250949328
20
32.27871012508232
30
0
10
-16.827943024030269
20
32.260617163937155
30
0
10
-16.871488268061078
20
32.24222361361916
30
0
10
-16.914995949512083
20
32.223532470771332
30
0
10
-16.958465061680887
20
32.204546469397421
30
0
10
-17.001894624633426
20
32.185268019069355
30
0
10
-17.045283673509701
20
32.16569931217029
30
0
10
-17.088631249433604
20
32.14584239311592
30
0
10
-17.131936390912731
20
32.125699238762742
30
0
10
-17.175198122353827
20
32.105271850838513
30
0
10
-17.218415454389131
20
32.084562294027755
30
0
10
-17.261587403228177
20
32.063572637552475
30
0
10
-17.3047130070047
20
32.042304919535077
30
0
10
-17.347791341333981
20
32.020761107388815
30
0
10
-17.390821541212176
20
31.998943054276086
30
0
10
-17.433802802286294
20
31.976852484084258
30
0
10
-17.47673433575833
20
31.954491042276768
30
0
10
-17.519615331309875
20
31.931860336547196
30
0
10
-17.562444920754942
20
31.908961979963731
30
0
10
-17.605222133223258
20
31.88579764329408
30
0
10
-17.64794588035582
20
31.862369079947698
30
0
10
-17.690615049653275
20
31.838678046062995
30
0
10
-17.733228581927357
20
31.814726238606113
30
0
10
-17.775785553034588
20
31.790515229151453
30
0
10
-17.818285259961129
20
31.766046399174279
30
0
10
-17.860727289372736
20
31.741320882566324
30
0
10
-17.903111438217632
20
31.716339565703379
30
0
10
-17.936972407137901
20
31.696150379519704
30
0
10
-17.962342070527523
20
31.680893836779948
30
0
10
-17.979243599628436
20
31.670671868273516
30
0
10
-17.987691469221581
20
31.665548149017162
30
0
0
ARC
5
200
100
AcDbEntity
8
0
100
AcDbCircle
10
9.0205620750793969e-16
20
30.999999046325868
30
0
40
18.000000000000004
210
0
220
0
230
1
100
AcDbArc
50
177.88100839275216
51
182.11899160724784
0
SPLINE
5
201
100
AcDbEntity
8
0
100
AcDbSpline
70
4
71
5
72
81
73
75
74
0
42
0.000000001
43
0.0000000001
44
0.0000000001
40
-1
40
-1
40
-1
40
-1
40
-1
40
-1
40
-0.9857142857142841
40
-0.97142857142856986
40
-0.95714285714285563
40
-0.94285714285714139
40
-0.92857142857142716
40
-0.91428571428571292
40
-0.89999999999999869
40
-0.88571428571428445
40
-0.87142857142857022
40
-0.85714285714285599
40
-0.84285714285714175
40
-0.82857142857142752
40
-0.81428571428571328
40
-0.79999999999999905
40
-0.78571428571428481
40
-0.77142857142857058
40
-0.75714285714285634
40
-0.74285714285714211
40
-0.72857142857142787
40
-0.71428571428571364
40
-0.6999999999999994
40
-0.68571428571428517
40
-0.67142857142857093
40
-0.6571428571428567
40
-0.64285714285714246
40
-0.62857142857142823
40
-0.61428571428571399
40
-0.59999999999999976
40
-0.58571428571428552
40
-0.57142857142857129
40
-0.55714285714285705
40
-0.54285714285714282
40
-0.52857142857142858
40
-0.51428571428571435
40
-0.50000000000000011
40
-0.48571428571428582
40
-0.47142857142857153
40
-0.45714285714285724
40
-0.44285714285714295
40
-0.42857142857142866
40
-0.41428571428571437
40
-0.40000000000000008
40
-0.38571428571428579
40
-0.3714285714285715
40
-0.35714285714285721
40
-0.34285714285714292
40
-0.32857142857142863
40
-0.31428571428571433
40
-0.30000000000000004
40
-0.28571428571428575
40
-0.27142857142857146
40
-0.25714285714285717
40
-0.24285714285714291
40
-0.22857142857142862
40
-0.21428571428571433
40
-0.20000000000000004
40
-0.18571428571428575
40
-0.17142857142857146
40
-0.15714285714285717
40
-0.14285714285714288
40
-0.12857142857142859
40
-0.1142857142857143
40
-0.10000000000000001
40
-0.085714285714285715
40
-0.071428571428571425
40
-0.057142857142857141
40
-0.042857142857142858
40
-0.028571428571428571
40
-0.014285714285714285
40
0
40
0
40
0
40
0
40
0
40
0
41
1
41
1
41
1
41
1
41
1
41
1
41
1
41
1
41
1
41
1
41
1
41
1
41
1
41
1
41
1
41
1
41
1
41
1
41
1
41
1
41
1
41
1
41
1
41
1
41
1
41
1
41
1
41
1
41
1
41
1
41
1
41
1
41
1
41
1
41
1
41
1
41
1
41
1
41
1
41
1
41
1
41
1
41
1
41
1
41
1
41
1
41
1
41
1
41
1
41
1
41
1
41
1
41
1
41
1
41
1
41
1
41
1
41
1
41
1
41
1
41
1
41
1
41
1
41
1
41
1
41
1
41
1
41
1
41
1
41
1
41
1
41
1
41
1
41
1
41
1
10
-17.987691469221581
20
30.334449943634585
30
0
10
-17.979243599628436
20
30.329326224378232
30
0
10
-17.962342070527523
20
30.319104255871796
30
0
10
-17.936972407137898
20
30.303847713132043
30
0
10
-17.903111438217632
20
30.283658526948365
30
0
10
-17.860727289372736
20
30.25867721008542
30
0
10
-17.818285259961129
20
30.233951693477469
30
0
10
-17.775785553034588
20
30.209482863500291
30
0
10
-17.733228581927357
20
30.185271854045631
30
0
10
-17.690615049653278
20
30.161320046588752
30
0
10
-17.647945880355817
20
30.137629012704046
30
0
10
-17.605222133223258
20
30.114200449357664
30
0
10
-17.562444920754942
20
30.091036112688016
30
0
10
-17.519615331309872
20
30.068137756104548
30
0
10
-17.476734335758334
20
30.045507050374983
30
0
10
-17.433802802286298
20
30.023145608567489
30
0
10
-17.390821541212176
20
30.001055038375664
30
0
10
-17.347791341333981
20
29.979236985262929
30
0
10
-17.304713007004704
20
29.957693173116674
30
0
10
-17.26158740322818
20
29.936425455099268
30
0
10
-17.218415454389131
20
29.915435798623996
30
0
10
-17.17519812235383
20
29.894726241813231
30
0
10
-17.131936390912731
20
29.874298853889002
30
0
10
-17.088631249433607
20
29.854155699535823
30
0
10
-17.045283673509701
20
29.834298780481458
30
0
10
-17.001894624633429
20
29.814730073582389
30
0
10
-16.958465061680887
20
29.795451623254323
30
0
10
-16.914995949512083
20
29.776465621880416
30
0
10
-16.871488268061078
20
29.757774479032591
30
0
10
-16.827943024030269
20
29.739380928714588
30
0
10
-16.784361250949328
20
29.721287967569427
30
0
10
-16.740744000616129
20
29.703498675349987
30
0
10
-16.697092336857462
20
29.686016052428393
30
0
10
-16.653407329672223
20
29.668842882067985
30
0
10
-16.609690046881894
20
29.651981495804819
30
0
10
-16.565941557825003
20
29.635433922545342
30
0
10
-16.522162946862913
20
29.619202341012979
30
0
10
-16.478355325256263
20
29.603289479212556
30
0
10
-16.434519841916114
20
29.587698957014265
30
0
10
-16.390657699939513
20
29.572435840665783
30
0
10
-16.346770150499946
20
29.557506339839236
30
0
10
-16.302858467960718
20
29.542916797202405
30
0
10
-16.258923928349308
20
29.52867279071123
30
0
10
-16.214967791287517
20
29.514778370697655
30
0
10
-16.170991269189411
20
29.501234782182081
30
0
10
-16.126995548920981
20
29.488041261713477
30
0
10
-16.082981855261277
20
29.475197482108236
30
0
10
-16.038951507535558
20
29.46270572437388
30
0
10
-15.994905968648588
20
29.45057273091729
30
0
10
-15.950846923955845
20
29.438812761583513
30
0
10
-15.906776235277542
20
29.427445587251739
30
0
10
-15.862695807452818
20
29.416490929472282
30
0
10
-15.818607468888148
20
29.405963472856804
30
0
10
-15.774512872013986
20
29.395868648920679
30
0
10
-15.730413321238732
20
29.386195548802228
30
0
10
-15.686309927868598
20
29.376922763958262
30
0
10
-15.642203951877827
20
29.368031599371257
30
0
10
-15.598097111991837
20
29.359518054785134
30
0
10
-15.553991854208702
20
29.351403091749297
30
0
10
-15.509891778125567
20
29.343749300351107
30
0
10
-15.465801258331318
20
29.33664483784537
30
0
10
-15.421724735231042
20
29.330173692539141
30
0
10
-15.377666051390795
20
29.324388256845392
30
0
10
-15.333627902995776
20
29.319285499048991
30
0
10
-15.28961089427311
20
29.314769700362216
30
0
10
-15.245615126047504
20
29.310701847827755
30
0
10
-15.20164246355095
20
29.306972631965333
30
0
10
-15.157698670567532
20
29.3035700783553
30
0
10
-15.11379539269852
20
29.300643727341992
30
0
10
-15.069952772344234
20
29.298585871108035
30
0
10
-15.026195269697499
20
29.297926269131285
30
0
10
-14.991276305979977
20
29.298946525764261
30
0
10
-14.965144201543396
20
29.300772385182363
30
0
10
-14.947749206119774
20
29.302485291838714
30
0
10
-14.939058310346072
20
29.303465663421399
30
0
0
LINE
5
202
100
AcDbEntity
8
0
100
AcDbLine
10
-14.939058310346072
20
29.303465663421399
30
0
11
-14.421276859198567
21
29.36187370719086
31
0
0
ARC
5
203
100
AcDbEntity
8
0
100
AcDbCircle
10
-14.309183356236939
20
28.36817604361617
30
0
40
1.0000000000000011
210
1.4269803675109641e-31
220
-7.7584714866621574e-31
230
1
100
AcDbArc
50
10.421677004820877
51
96.436010955277865
0
ARC
5
204
100
AcDbEntity
8
0
100
AcDbCircle
10
9.0205620750793969e-16
20
30.999999046325868
30
0
40
13.549200000000003
210
1.0828226026084444e-46
220
3.6612777188997839e-47
230
1
100
AcDbArc
50
190.42167700482071
51
192.07832299517924
0
ARC
5
205
100
AcDbEntity
8
0
100
AcDbCircle
10
-14.22711668983281
20
27.955599050615589
30
0
40
1.0000000000000011
210
-0
220
0
230
1
100
AcDbArc
50
-73.936010955277894
51
12.07832299517948
0
LINE
5
206
100
AcDbEntity
8
0
100
AcDbLine
10
-13.95040595031662
20
26.994645791275467
30
0
11
-14.451125426013219
21
26.850461404507989
31
0
0
SPLINE
5
207
100
AcDbEntity
8
0
100
AcDbSpline
70
4
71
5
72
81
73
75
74
0
42
0.000000001
43
0.0000000001
44
0.0000000001
40
0
40
0
40
0
40
0
40
0
40
0
40
0.014285714285714285
40
0.028571428571428571
40
0.042857142857142858
40
0.057142857142857141
40
0.071428571428571425
40
0.085714285714285715
40
0.10000000000000001
40
0.1142857142857143
40
0.12857142857142859
40
0.14285714285714288
40
0.15714285714285717
40
0.17142857142857146
40
0.18571428571428575
40
0.20000000000000004
40
0.21428571428571433
40
0.22857142857142862
40
0.24285714285714291
40
0.25714285714285717
40
0.27142857142857146
40
0.28571428571428575
40
0.30000000000000004
40
0.31428571428571433
40
0.32857142857142863
40
0.34285714285714292
40
0.35714285714285721
40
0.3714285714285715
40
0.38571428571428579
40
0.40000000000000008
40
0.41428571428571437
40
0.42857142857142866
40
0.44285714285714295
40
0.45714285714285724
40
0.47142857142857153
40
0.48571428571428582
40
0.50000000000000011
40
0.51428571428571435
40
0.52857142857142858
40
0.54285714285714282
40
0.55714285714285705
40
0.57142857142857129
40
0.58571428571428552
40
0.59999999999999976
40
0.61428571428571399
40
0.62857142857142823
40
0.64285714285714246
40
0.6571428571428567
40
0.67142857142857093
40
0.68571428571428517
40
0.6999999999999994
40
0.71428571428571364
40
0.72857142857142787
40
0.74285714285714211
40
0.75714285714285634
40
0.77142857142857058
40
0.78571428571428481
40
0.79999999999999905
40
0.81428571428571328
40
0.82857142857142752
40
0.84285714285714175
40
0.85714285714285599
40
0.87142857142857022
40
0.88571428571428445
40
0.89999999999999869
40
0.91428571428571292
40
0.92857142857142716
40
0.94285714285714139
40
0.95714285714285563
40
0.97142857142856986
40
0.9857142857142841
40
1
40
1
40
1
40
1
40
1
40
1
41
1
41
1
41
1
41
1
41
1
41
1
41
1
41
1
41
1
41
1
41
1
41
1
41
1
41
1
41
1
41
1
41
1
41
1
41
1
41
1
41
1
41
1
41
1
41
1
41
1
41
1
41
1
41
1
41
1
41
1
41
1
41
1
41
1
41
1
41
1
41
1
41
1
41
1
41
1
41
1
41
1
41
1
41
1
41
1
41
1
41
1
41
1
41
1
41
1
41
1
41
1
41
1
41
1
41
1
41
1
41
1
41
1
41
1
41
1
41
1
41
1
41
1
41
1
41
1
41
1
41
1
41
1
41
1
41
1
41
1
41
1
41
1
41
1
41
1
41
1
10
-14.451125426013219
20
26.850461404507989
30
0
10
-14.459529938699989
20
26.848041287922481
30
0
10
-14.476256319938575
20
26.842967030768708
30
0
10
-14.501097962518115
20
26.834653581493612
30
0
10
-14.533749313703439
20
26.822233266824679
30
0
10
-14.573923556044107
20
26.804878602754179
30
0
10
-14.613641348154172
20
26.786199547057713
30
0
10
-14.653082821937428
20
26.766694894184585
30
0
10
-14.692379491961427
20
26.746734783015963
30
0
10
-14.731577825705758
20
26.726461827393951
30
0
10
-14.770667915716267
20
26.705867170101968
30
0
10
-14.809606207816184
20
26.68485053614188
30
0
10
-14.84833941089998
20
26.663283532871617
30
0
10
-14.886830336740358
20
26.641077958890026
30
0
10
-14.925075334199843
20
26.618232045042962
30
0
10
-14.963090902918729
20
26.594795666094797
30
0
10
-15.000905081431259
20
26.570848116392845
30
0
10
-15.038547564465166
20
26.546472516703151
30
0
10
-15.076038978615774
20
26.521728070232559
30
0
10
-15.113385085713201
20
26.496635078970474
30
0
10
-15.150582767030494
20
26.471190504889925
30
0
10
-15.187623704229754
20
26.445377558218119
30
0
10
-15.224498677903128
20
26.41917688531867
30
0
10
-15.261202308293768
20
26.392578906893029
30
0
10
-15.297735147305945
20
26.365589273364836
30
0
10
-15.334101125269928
20
26.33822225124711
30
0
10
-15.370306029454397
20
26.310496789826932
30
0
10
-15.406355705749666
20
26.282431867502662
30
0
10
-15.442254054096756
20
26.25404130361089
30
0
10
-15.478002303155307
20
26.225331887152766
30
0
10
-15.513600106931495
20
26.196306230388352
30
0
10
-15.549046208669283
20
26.166964499742072
30
0
10
-15.584339219687418
20
26.137306444071108
30
0
10
-15.619478496310029
20
26.107333677595076
30
0
10
-15.654464424793259
20
26.077050424369169
30
0
10
-15.689297960832748
20
26.046462326067285
30
0
10
-15.72398035430421
20
26.01557573022809
30
0
10
-15.758512825612712
20
25.984396852643933
30
0
10
-15.792896202010557
20
25.952930834322657
30
0
10
-15.827130807306688
20
25.921181459257475
30
0
10
-15.861216658792397
20
25.889151673057242
30
0
10
-15.895153588409768
20
25.856843903567054
30
0
10
-15.928941384647706
20
25.824260434470201
30
0
10
-15.962579953208021
20
25.79140382846272
30
0
10
-15.996069370649405
20
25.758277066415477
30
0
10
-16.02940980231676
20
25.724883327419764
30
0
10
-16.062601455045957
20
25.691225859301863
30
0
10
-16.095644520745729
20
25.657307826113595
30
0
10
-16.128539115602273
20
25.623132138993391
30
0
10
-16.161285256377809
20
25.588701399099961
30
0
10
-16.193882890646648
20
25.554018001167172
30
0
10
-16.226331914886806
20
25.519084200934842
30
0
10
-16.258632197305335
20
25.483902192727435
30
0
10
-16.290783602599671
20
25.448474199243634
30
0
10
-16.322786006833727
20
25.412802506617865
30
0
10
-16.354639292960627
20
25.376889403042291
30
0
10
-16.386343352287479
20
25.340737139586778
30
0
10
-16.417898083690616
20
25.304347887650884
30
0
10
-16.449303397185247
20
25.267723690356046
30
0
10
-16.480559209349238
20
25.230866448179086
30
0
10
-16.511665421119854
20
25.193777983189925
30
0
10
-16.542621899098194
20
25.156460090799197
30
0
10
-16.573428458479476
20
25.118914593527961
30
0
10
-16.604084841671639
20
25.081143406500285
30
0
10
-16.634590714162819
20
25.043148566152226
30
0
10
-16.664945720182725
20
25.0049321206792
30
0
10
-16.695149530569815
20
24.966496043207297
30
0
10
-16.725201892942319
20
24.92784213933632
30
0
10
-16.755102686467861
20
24.888971954414746
30
0
10
-16.784851963196953
20
24.849886694198119
30
0
10
-16.814449874735551
20
24.810587255295427
30
0
10
-16.838007263806563
20
24.778976847592652
30
0
10
-16.855607350417259
20
24.755173090154624
30
0
10
-16.867310549228169
20
24.739261287500995
30
0
10
-16.873154600567105
20
24.731294728417645
30
0
0
ARC
5
208
100
AcDbEntity
8
0
100
AcDbCircle
10
9.0205620750793969e-16
20
30.999999046325868
30
0
40
18.000000000000004
210
-2.7472976459933053e-31
220
7.3947622289652445e-31
230
1
100
AcDbArc
50
200.38100839275205
51
204.61899160724789
0
SPLINE
5
209
100
AcDbEntity
8
0
100
AcDbSpline
70
4
71
5
72
81
73
75
74
0
42
0.000000001
43
0.0000000001
44
0.0000000001
40
-1
40
-1
40
-1
40
-1
40
-1
40
-1
40
-0.9857142857142841
40
-0.97142857142856986
40
-0.95714285714285563
40
-0.94285714285714139
40
-0.92857142857142716
40
-0.91428571428571292
40
-0.89999999999999869
40
-0.88571428571428445
40
-0.87142857142857022
40
-0.85714285714285599
40
-0.84285714285714175
40
-0.82857142857142752
40
-0.81428571428571328
40
-0.79999999999999905
40
-0.78571428571428481
40
-0.77142857142857058
40
-0.75714285714285634
40
-0.74285714285714211
40
-0.72857142857142787
40
-0.71428571428571364
40
-0.6999999999999994
40
-0.68571428571428517
40
-0.67142857142857093
40
-0.6571428571428567
40
-0.64285714285714246
40
-0.62857142857142823
40
-0.61428571428571399
40
-0.59999999999999976
40
-0.58571428571428552
40
-0.57142857142857129
40
-0.55714285714285705
40
-0.54285714285714282
40
-0.52857142857142858
40
-0.51428571428571435
40
-0.50000000000000011
40
-0.48571428571428582
40
-0.47142857142857153
40
-0.45714285714285724
40
-0.44285714285714295
40
-0.42857142857142866
40
-0.41428571428571437
40
-0.40000000000000008
40
-0.38571428571428579
40
-0.3714285714285715
40
-0.35714285714285721
40
-0.34285714285714292
40
-0.32857142857142863
40
-0.31428571428571433
40
-0.30000000000000004
40
-0.28571428571428575
40
-0.27142857142857146
40
-0.25714285714285717
40
-0.24285714285714291
40
-0.22857142857142862
40
-0.21428571428571433
40
-0.20000000000000004
40
-0.18571428571428575
40
-0.17142857142857146
40
-0.15714285714285717
40
-0.14285714285714288
40
-0.12857142857142859
40
-0.1142857142857143
40
-0.10000000000000001
40
-0.085714285714285715
40
-0.071428571428571425
40
-0.057142857142857141
40
-0.042857142857142858
40
-0.028571428571428571
40
-0.014285714285714285
40
0
40
0
40
0
40
0
40
0
40
0
41
1
41
1
41
1
41
1
41
1
41
1
41
1
41
1
41
1
41
1
41
1
41
1
41
1
41
1
41
1
41
1
41
1
41
1
41
1
41
1
41
1
41
1
41
1
41
1
41
1
41
1
41
1
41
1
41
1
41
1
41
1
41
1
41
1
41
1
41
1
41
1
41
1
41
1
41
1
41
1
41
1
41
1
41
1
41
1
41
1
41
1
41
1
41
1
41
1
41
1
41
1
41
1
41
1
41
1
41
1
41
1
41
1
41
1
41
1
41
1
41
1
41
1
41
1
41
1
41
1
41
1
41
1
41
1
41
1
41
1
41
1
41
1
41
1
41
1
41
1
10
-16.363765370516287
20
23.501520340702172
30
0
10
-16.353999794234358
20
23.500019501082971
30
0
10
-16.334473039436311
20
23.497043568766461
30
0
10
-16.305196100542265
20
23.492656911056201
30
0
10
-16.266186577340399
20
23.486962566972661
30
0
10
-16.217468793637579
20
23.480102551185645
30
0
10
-16.168795425783422
20
23.473501013952568
30
0
10
-16.120167000574636
20
23.467158696473312
30
0
10
-16.071584333803862
20
23.461076488151086
30
0
10
-16.02304860363888
20
23.455255396270871
30
0
10
-15.974561265292424
20
23.449696519123684
30
0
10
-15.926123946727685
20
23.444401019167998
30
0
10
-15.877738347805121
20
23.439370093129096
30
0
10
-15.829406145038078
20
23.434604944449116
30
0
10
-15.781128874768868
20
23.430106745180176
30
0
10
-15.732907956391209
20
23.425876653362568
30
0
10
-15.684744753779395
20
23.421915844216059
30
0
10
-15.636640625379354
20
23.418225536090702
30
0
10
-15.588596974019499
20
23.41480701383821
30
0
10
-15.540615308033704
20
23.411661658534729
30
0
10
-15.492697234338559
20
23.40879093408639
30
0
10
-15.444844421538297
20
23.40619635538248
30
0
10
-15.397058570393769
20
23.403879457654554
30
0
10
-15.34934138508217
20
23.401841769807724
30
0
10
-15.301694532962172
20
23.400084767853929
30
0
10
-15.25411965884717
20
23.398609910223197
30
0
10
-15.206618430987183
20
23.397418718763351
30
0
10
-15.159192579785332
20
23.396512849736393
30
0
10
-15.111843932685893
20
23.395894154291955
30
0
10
-15.064574466018552
20
23.395564773071825
30
0
10
-15.017386281405837
20
23.395527079098457
30
0
10
-14.970281529152691
20
23.395783515186892
30
0
10
-14.923262340299617
20
23.396336446210633
30
0
10
-14.876330768505452
20
23.397188034098857
30
0
10
-14.829488692548837
20
23.398340024272436
30
0
10
-14.782737876798635
20
23.399793881978347
30
0
10
-14.736080156835467
20
23.401551205127461
30
0
10
-14.689517603292547
20
23.403614088806556
30
0
10
-14.643052662889636
20
23.405985437670385
30
0
10
-14.596688385912522
20
23.408669471916173
30
0
10
-14.550428304633432
20
23.411671449729536
30
0
10
-14.504276023644403
20
23.414996743293713
30
0
10
-14.458234856432444
20
23.418650017653427
30
0
10
-14.412307516731278
20
23.42263453279109
30
0
10
-14.366495601114128
20
23.426950974984777
30
0
10
-14.320799913942126
20
23.431598184703759
30
0
10
-14.27522146155583
20
23.436575390967157
30
0
10
-14.229762335756623
20
23.441884196267196
30
0
10
-14.184426468299698
20
23.447530269946203
30
0
10
-14.139220873256912
20
23.453526141425506
30
0
10
-14.094154836713777
20
23.459889364128003
30
0
10
-14.049237665622742
20
23.466637429439977
30
0
10
-14.004476668768733
20
23.473783204472745
30
0
10
-13.959875451349362
20
23.48133107493441
30
0
10
-13.915431043840222
20
23.489270463175473
30
0
10
-13.871136280259588
20
23.497581165002583
30
0
10
-13.826985170398402
20
23.506245426300417
30
0
10
-13.782977771320173
20
23.515258893586527
30
0
10
-13.739124364470127
20
23.524639996764428
30
0
10
-13.695452227631868
20
23.534445184028584
30
0
10
-13.651999138719372
20
23.544754227979666
30
0
10
-13.608801341065643
20
23.555643024426068
30
0
10
-13.565882434447241
20
23.567158507159427
30
0
10
-13.523243749627337
20
23.579296843454777
30
0
10
-13.480849214844772
20
23.591969369455562
30
0
10
-13.438645725293776
20
23.605047615351808
30
0
10
-13.396593173296925
20
23.618429878558619
30
0
10
-13.354692301484336
20
23.632102890450067
30
0
10
-13.313011095600926
20
23.646200351710924
30
0
10
-13.271718288517011
20
23.661076984896571
30
0
10
-13.231039208679427
20
23.67721286343523
30
0
10
-13.199168728114506
20
23.691518366546397
30
0
10
-13.175724537833231
20
23.703205564112736
30
0
10
-13.160309158591799
20
23.711444860068337
30
0
10
-13.152654989829538
20
23.715676467132841
30
0
0
LINE
5
210
100
AcDbEntity
8
0
100
AcDbLine
10
-13.152654989829538
20
23.715676467132838
30
0
11
-12.696639095467791
21
23.967784846245571
31
0
0
ARC
5
211
100
AcDbEntity
8
0
100
AcDbCircle
10
-12.212806569724119
20
23.092624239823817
30
0
40
1.0000000000000002
210
3.3109056325714405e-31
220
2.1436982266306886e-31
230
1
100
AcDbArc
50
32.921677004820722
51
118.93601095527795
0
ARC
5
212
100
AcDbEntity
8
0
100
AcDbCircle
10
9.0205620750793969e-16
20
30.999999046325868
30
0
40
13.549200000000001
210
-2.4436170641598426e-32
220
-1.5821585234778941e-32
230
1
100
AcDbArc
50
212.92167700482074
51
214.57832299517921
0
ARC
5
213
100
AcDbEntity
8
0
100
AcDbCircle
10
-11.979100476535592
20
22.742858353987824
30
0
40
1.0000000000000013
210
-0
220
0
230
1
100
AcDbArc
50
-51.436010955277929
51
34.578322995179086
0
LINE
5
214
100
AcDbEntity
8
0
100
AcDbLine
10
-11.355712196243823
20
21.960945921553812
30
0
11
-11.763139695348059
21
21.636119870100025
31
0
0
SPLINE
5
215
100
AcDbEntity
8
0
100
AcDbSpline
70
4
71
5
72
81
73
75
74
0
42
0.000000001
43
0.0000000001
44
0.0000000001
40
0
40
0
40
0
40
0
40
0
40
0
40
0.014285714285714285
40
0.028571428571428571
40
0.042857142857142858
40
0.057142857142857141
40
0.071428571428571425
40
0.085714285714285715
40
0.10000000000000001
40
0.1142857142857143
40
0.12857142857142859
40
0.14285714285714288
40
0.15714285714285717
40
0.17142857142857146
40
0.18571428571428575
40
0.20000000000000004
40
0.21428571428571433
40
0.22857142857142862
40
0.24285714285714291
40
0.25714285714285717
40
0.27142857142857146
40
0.28571428571428575
40
0.30000000000000004
40
0.31428571428571433
40
0.32857142857142863
40
0.34285714285714292
40
0.35714285714285721
40
0.3714285714285715
40
0.38571428571428579
40
0.40000000000000008
40
0.41428571428571437
40
0.42857142857142866
40
0.44285714285714295
40
0.45714285714285724
40
0.47142857142857153
40
0.48571428571428582
40
0.50000000000000011
40
0.51428571428571435
40
0.52857142857142858
40
0.54285714285714282
40
0.55714285714285705
40
0.57142857142857129
40
0.58571428571428552
40
0.59999999999999976
40
0.61428571428571399
40
0.62857142857142823
40
0.64285714285714246
40
0.6571428571428567
40
0.67142857142857093
40
0.68571428571428517
40
0.6999999999999994
40
0.71428571428571364
40
0.72857142857142787
40
0.74285714285714211
40
0.75714285714285634
40
0.77142857142857058
40
0.78571428571428481
40
0.79999999999999905
40
0.81428571428571328
40
0.82857142857142752
40
0.84285714285714175
40
0.85714285714285599
40
0.87142857142857022
40
0.88571428571428445
40
0.89999999999999869
40
0.91428571428571292
40
0.92857142857142716
40
0.94285714285714139
40
0.95714285714285563
40
0.97142857142856986
40
0.9857142857142841
40
1
40
1
40
1
40
1
40
1
40
1
41
1
41
1
41
1
41
1
41
1
41
1
41
1
41
1
41
1
41
1
41
1
41
1
41
1
41
1
41
1
41
1
41
1
41
1
41
1
41
1
41
1
41
1
41
1
41
1
41
1
41
1
41
1
41
1
41
1
41
1
41
1
41
1
41
1
41
1
41
1
41
1
41
1
41
1
41
1
41
1
41
1
41
1
41
1
41
1
41
1
41
1
41
1
41
1
41
1
41
1
41
1
41
1
41
1
41
1
41
1
41
1
41
1
41
1
41
1
41
1
41
1
41
1
41
1
41
1
41
1
41
1
41
1
41
1
41
1
41
1
41
1
41
1
41
1
41
1
41
1
10
-11.763139695348059
20
21.636119870100025
30
0
10
-11.769978314078429
20
21.630667706158057
30
0
10
-11.783489641213432
20
21.619578794847556
30
0
10
-11.803258907043245
20
21.602391684169802
30
0
10
-11.82867177346364
20
21.578421678516865
30
0
10
-11.859146591282293
20
21.547014042636924
30
0
10
-11.888692881342052
20
21.514557504381685
30
0
10
-11.91766794419391
20
21.481443956238543
30
0
10
-11.946334929472535
20
21.447965033497901
30
0
10
-11.974791343485851
20
21.41423471183494
30
0
10
-12.003024643429702
20
21.380248599667112
30
0
10
-12.030956216911157
20
21.345930722437881
30
0
10
-12.058487695631586
20
21.311182854436275
30
0
10
-12.085550968934012
20
21.275937739511516
30
0
10
-12.112141986581262
20
21.240195140408105
30
0
10
-12.138295078499322
20
21.203994821261055
30
0
10
-12.164066493549104
20
21.167399310612389
30
0
10
-12.189515475021821
20
21.13047403835623
30
0
10
-12.214683735493132
20
21.093265807667358
30
0
10
-12.23958436743494
20
21.055791170181312
30
0
10
-12.26421332691665
20
21.018048512612303
30
0
10
-12.288556503628259
20
20.980025506522985
30
0
10
-12.312597973631545
20
20.94170779959946
30
0
10
-12.336329100840421
20
20.903088600467687
30
0
10
-12.359752557471458
20
20.864172918233784
30
0
10
-12.382877434234516
20
20.824972429364866
30
0
10
-12.405716329446898
20
20.78550242602757
30
0
10
-12.428281906725644
20
20.745778204850332
30
0
10
-12.450583057577598
20
20.705811040792575
30
0
10
-12.472623515174512
20
20.665606735885799
30
0
10
-12.494403959528434
20
20.625167835949728
30
0
10
-12.515923293236035
20
20.584494975680197
30
0
10
-12.537180137214943
20
20.543588454476783
30
0
10
-12.558174514521303
20
20.502450010008072
30
0
10
-12.57890839848519
20
20.46108339697836
30
0
10
-12.599384831029383
20
20.419493461885803
30
0
10
-12.619607395986357
20
20.377685590784726
30
0
10
-12.639579599544115
20
20.335665059289664
30
0
10
-12.659304173362669
20
20.293436300496786
30
0
10
-12.678782864673977
20
20.251002686443648
30
0
10
-12.698016816688815
20
20.208366931900898
30
0
10
-12.717006803238016
20
20.165531344217914
30
0
10
-12.735753502838563
20
20.122498114184729
30
0
10
-12.7542578090716
20
20.079269645510124
30
0
10
-12.772520933398045
20
20.035848662861927
30
0
10
-12.790544245162224
20
19.992238040062769
30
0
10
-12.808329178344875
20
19.948440698560212
30
0
10
-12.825877121076763
20
19.904459488116675
30
0
10
-12.843189294744379
20
19.86029705381085
30
0
10
-12.860266710254344
20
19.815955792385395
30
0
10
-12.877110235596605
20
19.771437936348367
30
0
10
-12.893720638363584
20
19.726745609347759
30
0
10
-12.910098636526094
20
19.681880889110005
30
0
10
-12.926244955670816
20
19.636845880918983
30
0
10
-12.942160356161509
20
19.591642744315777
30
0
10
-12.957845605514194
20
19.5462736381062
30
0
10
-12.973301464756871
20
19.50074068360259
30
0
10
-12.988528671422102
20
19.455045925614908
30
0
10
-13.003527924243478
20
19.409191286176924
30
0
10
-13.018299873430021
20
19.363178553024543
30
0
10
-13.032845124735653
20
19.317009447440544
30
0
10
-13.047164241989762
20
19.270685679217607
30
0
10
-13.061257751903611
20
19.224209002867362
30
0
10
-13.075126149379415
20
19.177581286309962
30
0
10
-13.088769904678861
20
19.130804538979142
30
0
10
-13.102189472923495
20
19.083880789308118
30
0
10
-13.115385305090379
20
19.036811986192369
30
0
10
-13.128357858982298
20
18.989599894370926
30
0
10
-13.141107614343932
20
18.942245987800163
30
0
10
-13.153635080686374
20
18.894751360534073
30
0
10
-13.165940741192665
20
18.84711678291427
30
0
10
-13.175608151476617
20
18.808897551716086
30
0
10
-13.182759207667093
20
18.780170485868123
30
0
10
-13.187482370258799
20
18.760991276780469
30
0
10
-13.189832899503628
20
18.751394714273516
30
0
0
ARC
5
216
100
AcDbEntity
8
0
100
AcDbCircle
10
9.0205620750793969e-16
20
30.999999046325868
30
0
40
18
210
0
220
0
230
1
100
AcDbArc
50
222.88100839275202
51
227.11899160724784
0
SPLINE
5
217
100
AcDbEntity
8
0
100
AcDbSpline
70
4
71
5
72
81
73
75
74
0
42
0.000000001
43
0.0000000001
44
0.0000000001
40
-1
40
-1
40
-1
40
-1
40
-1
40
-1
40
-0.9857142857142841
40
-0.97142857142856986
40
-0.95714285714285563
40
-0.94285714285714139
40
-0.92857142857142716
40
-0.91428571428571292
40
-0.89999999999999869
40
-0.88571428571428445
40
-0.87142857142857022
40
-0.85714285714285599
40
-0.84285714285714175
40
-0.82857142857142752
40
-0.81428571428571328
40
-0.79999999999999905
40
-0.78571428571428481
40
-0.77142857142857058
40
-0.75714285714285634
40
-0.74285714285714211
40
-0.72857142857142787
40
-0.71428571428571364
40
-0.6999999999999994
40
-0.68571428571428517
40
-0.67142857142857093
40
-0.6571428571428567
40
-0.64285714285714246
40
-0.62857142857142823
40
-0.61428571428571399
40
-0.59999999999999976
40
-0.58571428571428552
40
-0.57142857142857129
40
-0.55714285714285705
40
-0.54285714285714282
40
-0.52857142857142858
40
-0.51428571428571435
40
-0.50000000000000011
40
-0.48571428571428582
40
-0.47142857142857153
40
-0.45714285714285724
40
-0.44285714285714295
40
-0.42857142857142866
40
-0.41428571428571437
40
-0.40000000000000008
40
-0.38571428571428579
40
-0.3714285714285715
40
-0.35714285714285721
40
-0.34285714285714292
40
-0.32857142857142863
40
-0.31428571428571433
40
-0.30000000000000004
40
-0.28571428571428575
40
-0.27142857142857146
40
-0.25714285714285717
40
-0.24285714285714291
40
-0.22857142857142862
40
-0.21428571428571433
40
-0.20000000000000004
40
-0.18571428571428575
40
-0.17142857142857146
40
-0.15714285714285717
40
-0.14285714285714288
40
-0.12857142857142859
40
-0.1142857142857143
40
-0.10000000000000001
40
-0.085714285714285715
40
-0.071428571428571425
40
-0.057142857142857141
40
-0.042857142857142858
40
-0.028571428571428571
40
-0.014285714285714285
40
0
40
0
40
0
40
0
40
0
40
0
41
1
41
1
41
1
41
1
41
1
41
1
41
1
41
1
41
1
41
1
41
1
41
1
41
1
41
1
41
1
41
1
41
1
41
1
41
1
41
1
41
1
41
1
41
1
41
1
41
1
41
1
41
1
41
1
41
1
41
1
41
1
41
1
41
1
41
1
41
1
41
1
41
1
41
1
41
1
41
1
41
1
41
1
41
1
41
1
41
1
41
1
41
1
41
1
41
1
41
1
41
1
41
1
41
1
41
1
41
1
41
1
41
1
41
1
41
1
41
1
41
1
41
1
41
1
41
1
41
1
41
1
41
1
41
1
41
1
41
1
41
1
41
1
41
1
41
1
41
1
10
-12.248604332052363
20
17.810166146822247
30
0
10
-12.239007769545406
20
17.812516676067077
30
0
10
-12.219828560457753
20
17.817239838658779
30
0
10
-12.191101494609791
20
17.824390894849259
30
0
10
-12.152882263411605
20
17.834058305133212
30
0
10
-12.105247685791802
20
17.846363965639501
30
0
10
-12.057753058525712
20
17.858891431981942
30
0
10
-12.01039915195495
20
17.871641187343581
30
0
10
-11.963187060133507
20
17.884613741235498
30
0
10
-11.916118257017757
20
17.89780957340238
30
0
10
-11.869194507346734
20
17.911229141647016
30
0
10
-11.822417760015915
20
17.924872896946461
30
0
10
-11.775790043458514
20
17.938741294422268
30
0
10
-11.729313367108274
20
17.952834804336113
30
0
10
-11.682989598885332
20
17.967153921590228
30
0
10
-11.636820493301334
20
17.981699172895851
30
0
10
-11.590807760148955
20
17.996471122082394
30
0
10
-11.54495312071097
20
18.011470374903777
30
0
10
-11.499258362723289
20
18.026697581569003
30
0
10
-11.453725408219679
20
18.042153440811678
30
0
10
-11.408356302010102
20
18.057838690164367
30
0
10
-11.363153165406889
20
18.073754090655061
30
0
10
-11.318118157215871
20
18.089900409799785
30
0
10
-11.27325343697812
20
18.106278407962296
30
0
10
-11.228561109977511
20
18.122888810729268
30
0
10
-11.184043253940478
20
18.139732336071532
30
0
10
-11.139701992515025
20
18.156809751581498
30
0
10
-11.0955395582092
20
18.174121925249114
30
0
10
-11.051558347765667
20
18.191669867980998
30
0
10
-11.007761006263106
20
18.209454801163652
30
0
10
-10.964150383463947
20
18.22747811292783
30
0
10
-10.920729400815755
20
18.245741237254272
30
0
10
-10.877500932141144
20
18.264245543487313
30
0
10
-10.834467702107959
20
18.282992243087858
30
0
10
-10.791632114424978
20
18.301982229637062
30
0
10
-10.748996359882227
20
18.321216181651899
30
0
10
-10.706562745829089
20
18.340694872963208
30
0
10
-10.664333987036214
20
18.360419446781762
30
0
10
-10.622313455541148
20
18.380391650339522
30
0
10
-10.580505584440074
20
18.400614215296493
30
0
10
-10.538915649347517
20
18.421090647840682
30
0
10
-10.497549036317801
20
18.441824531804574
30
0
10
-10.456410591849094
20
18.462818909110933
30
0
10
-10.415504070645682
20
18.48407575308984
30
0
10
-10.374831210376151
20
18.505595086797445
30
0
10
-10.33439231044008
20
18.527375531151364
30
0
10
-10.294188005533304
20
18.549415988748279
30
0
10
-10.254220841475544
20
18.571717139600231
30
0
10
-10.214496620298307
20
18.594282716878979
30
0
10
-10.175026616961009
20
18.61712161209136
30
0
10
-10.135826128092091
20
18.640246488854419
30
0
10
-10.096910445858192
20
18.663669945485452
30
0
10
-10.058291246726414
20
18.687401072694328
30
0
10
-10.019973539802889
20
18.711442542697615
30
0
10
-9.9819505337135723
20
18.735785719409225
30
0
10
-9.94420787614456
20
18.760414678890939
30
0
10
-9.9067332386585143
20
18.785315310832743
30
0
10
-9.8695250079696422
20
18.810483571304054
30
0
10
-9.8325997357134867
20
18.835932552776772
30
0
10
-9.7960042250648165
20
18.861703967826553
30
0
10
-9.759803905917769
20
18.887857059744615
30
0
10
-9.7240613068143613
20
18.914448077391867
30
0
10
-9.6888161918895985
20
18.941511350694288
30
0
10
-9.6540683238879925
20
18.969042829414718
30
0
10
-9.6197504466587596
20
18.996974402896171
30
0
10
-9.585764334490932
20
19.025207702840024
30
0
10
-9.5520340128279706
20
19.053664116853341
30
0
10
-9.5185550900873288
20
19.082331102131967
30
0
10
-9.4854415419441924
20
19.111306164983819
30
0
10
-9.4529850036889513
20
19.140852455043586
30
0
10
-9.4215773678090127
20
19.171327272862236
30
0
10
-9.3976073621560747
20
19.196740139282628
30
0
10
-9.3804202514783217
20
19.216509405112443
30
0
10
-9.3693313401678218
20
19.230020732247446
30
0
10
-9.3638791762258489
20
19.236859350977817
30
0
0
LINE
5
218
100
AcDbEntity
8
0
100
AcDbLine
10
-9.3638791762258506
20
19.236859350977817
30
0
11
-9.0390531247720638
21
19.64428685008205
31
0
0
ARC
5
219
100
AcDbEntity
8
0
100
AcDbCircle
10
-8.2571406923380497
20
19.020898569790283
30
0
40
0.99999999999999911
210
4.4770403053742128e-31
220
6.4950952943483667e-31
230
1
100
AcDbArc
50
55.421677004820793
51
141.43601095527808
0
ARC
5
220
100
AcDbEntity
8
0
100
AcDbCircle
10
9.0205620750793969e-16
20
30.999999046325868
30
0
40
13.549200000000001
210
-3.3042838731247557e-32
220
-4.7937112850562171e-32
230
1
100
AcDbArc
50
235.42167700482071
51
237.07832299517924
0
ARC
5
221
100
AcDbEntity
8
0
100
AcDbCircle
10
-7.9073748065020606
20
18.787192476601756
30
0
40
1
210
-7.2686655833134122e-31
220
-4.9954170607887606e-31
230
1
100
AcDbArc
50
-28.936010955277897
51
57.078322995179391
0
LINE
5
222
100
AcDbEntity
8
0
100
AcDbLine
10
-7.0322142000803032
20
18.303359950858084
30
3.9443045261050652e-31
11
-7.2843225791930353
21
17.84734405649634
31
0
0
SPLINE
5
223
100
AcDbEntity
8
0
100
AcDbSpline
70
4
71
5
72
81
73
75
74
0
42
0.000000001
43
0.0000000001
44
0.0000000001
40
0
40
0
40
0
40
0
40
0
40
0
40
0.014285714285714285
40
0.028571428571428571
40
0.042857142857142858
40
0.057142857142857141
40
0.071428571428571425
40
0.085714285714285715
40
0.10000000000000001
40
0.1142857142857143
40
0.12857142857142859
40
0.14285714285714288
40
0.15714285714285717
40
0.17142857142857146
40
0.18571428571428575
40
0.20000000000000004
40
0.21428571428571433
40
0.22857142857142862
40
0.24285714285714291
40
0.25714285714285717
40
0.27142857142857146
40
0.28571428571428575
40
0.30000000000000004
40
0.31428571428571433
40
0.32857142857142863
40
0.34285714285714292
40
0.35714285714285721
40
0.3714285714285715
40
0.38571428571428579
40
0.40000000000000008
40
0.41428571428571437
40
0.42857142857142866
40
0.44285714285714295
40
0.45714285714285724
40
0.47142857142857153
40
0.48571428571428582
40
0.50000000000000011
40
0.51428571428571435
40
0.52857142857142858
40
0.54285714285714282
40
0.55714285714285705
40
0.57142857142857129
40
0.58571428571428552
40
0.59999999999999976
40
0.61428571428571399
40
0.62857142857142823
40
0.64285714285714246
40
0.6571428571428567
40
0.67142857142857093
40
0.68571428571428517
40
0.6999999999999994
40
0.71428571428571364
40
0.72857142857142787
40
0.74285714285714211
40
0.75714285714285634
40
0.77142857142857058
40
0.78571428571428481
40
0.79999999999999905
40
0.81428571428571328
40
0.82857142857142752
40
0.84285714285714175
40
0.85714285714285599
40
0.87142857142857022
40
0.88571428571428445
40
0.89999999999999869
40
0.91428571428571292
40
0.92857142857142716
40
0.94285714285714139
40
0.95714285714285563
40
0.97142857142856986
40
0.9857142857142841
40
1
40
1
40
1
40
1
40
1
40
1
41
1
41
1
41
1
41
1
41
1
41
1
41
1
41
1
41
1
41
1
41
1
41
1
41
1
41
1
41
1
41
1
41
1
41
1
41
1
41
1
41
1
41
1
41
1
41
1
41
1
41
1
41
1
41
1
41
1
41
1
41
1
41
1
41
1
41
1
41
1
41
1
41
1
41
1
41
1
41
1
41
1
41
1
41
1
41
1
41
1
41
1
41
1
41
1
41
1
41
1
41
1
41
1
41
1
41
1
41
1
41
1
41
1
41
1
41
1
41
1
41
1
41
1
41
1
41
1
41
1
41
1
41
1
41
1
41
1
41
1
41
1
41
1
41
1
41
1
41
1
10
-7.2843225791930353
20
17.84734405649634
30
0
10
-7.2885541862575423
20
17.839689887734082
30
0
10
-7.2967934822131397
20
17.824274508492643
30
0
10
-7.3084806797794766
20
17.800830318211375
30
0
10
-7.3227861828906491
20
17.768959837646449
30
0
10
-7.3389220614293018
20
17.728280757808864
30
0
10
-7.3537986946149534
20
17.686987950724951
30
0
10
-7.3678961558758074
20
17.645306744841537
30
0
10
-7.3815691677672586
20
17.603405873028951
30
0
10
-7.394951430974066
20
17.561353321032097
30
0
10
-7.4080296768703171
20
17.519149831481105
30
0
10
-7.4207022028710981
20
17.476755296698542
30
0
10
-7.4328405391664498
20
17.434116611878633
30
0
10
-7.4443560218998108
20
17.391197705260232
30
0
10
-7.4552448183462081
20
17.347999907606507
30
0
10
-7.4655538622972903
20
17.304546818694011
30
0
10
-7.4753590495614484
20
17.260874681855746
30
0
10
-7.4847401527393496
20
17.217021275005703
30
0
10
-7.4937536200254593
20
17.173013875927477
30
0
10
-7.5024178813232902
20
17.128862766066288
30
0
10
-7.5107285831504065
20
17.084568002485653
30
0
10
-7.5186679713914675
20
17.040123594976514
30
0
10
-7.5262158418531335
20
16.995522377557148
30
0
10
-7.5333616168858999
20
16.950761380703131
30
0
10
-7.5401096821978788
20
16.905844209612098
30
0
10
-7.5464729049003676
20
16.860778173068962
30
0
10
-7.5524687763796781
20
16.815572578026181
30
0
10
-7.5581148500586828
20
16.77023671056925
30
0
10
-7.563423655358724
20
16.724777584770049
30
0
10
-7.568400861622119
20
16.679199132383747
30
0
10
-7.5730480713410984
20
16.633503445211748
30
0
10
-7.5773645135347865
20
16.587691529594601
30
0
10
-7.5813490286724496
20
16.541764189893435
30
0
10
-7.5850023030321658
20
16.495723022681474
30
0
10
-7.5883275965963373
20
16.44957074169244
30
0
10
-7.5913295744097056
20
16.403310660413354
30
0
10
-7.5940136086554952
20
16.356946383436238
30
0
10
-7.5963849575193194
20
16.310481443033325
30
0
10
-7.5984478411984142
20
16.263918889490409
30
0
10
-7.6002051643475257
20
16.217261169527241
30
0
10
-7.601659022053445
20
16.17051035377704
30
0
10
-7.6028110122270212
20
16.123668277820425
30
0
10
-7.6036626001152454
20
16.076736706026256
30
0
10
-7.604215531138987
20
16.029717517173186
30
0
10
-7.6044719672274201
20
15.982612764920043
30
0
10
-7.6044342732540491
20
15.935424580307327
30
0
10
-7.60410489203392
20
15.888155113639986
30
0
10
-7.6034861965894871
20
15.840806466540547
30
0
10
-7.6025803275625279
20
15.793380615338696
30
0
10
-7.601389136102684
20
15.745879387478709
30
0
10
-7.5999142784719496
20
15.698304513363709
30
0
10
-7.5981572765181529
20
15.650657661243713
30
0
10
-7.5961195886713213
20
15.602940475932108
30
0
10
-7.5938026909433969
20
15.555154624787582
30
0
10
-7.5912081122394834
20
15.50730181198732
30
0
10
-7.5883373877911495
20
15.459383738292177
30
0
10
-7.5851920324876696
20
15.41140207230638
30
0
10
-7.5817735102351733
20
15.363358420946525
30
0
10
-7.578083202109819
20
15.315254292546484
30
0
10
-7.5741223929633108
20
15.26709108993467
30
0
10
-7.5698923011457033
20
15.218870171557011
30
0
10
-7.5653941018767643
20
15.170592901287801
30
0
10
-7.5606289531967832
20
15.122260698520755
30
0
10
-7.5555980271578775
20
15.073875099598194
30
0
10
-7.5503025272021942
20
15.02543778103345
30
0
10
-7.544743650055004
20
14.976950442686999
30
0
10
-7.5389225581747876
20
14.92841471252202
30
0
10
-7.5328403498525685
20
14.87983204575124
30
0
10
-7.5264980323733157
20
14.831203620542455
30
0
10
-7.5198964951402312
20
14.782530252688302
30
0
10
-7.5130364793532181
20
14.73381246898548
30
0
10
-7.5073421352696732
20
14.694802945783614
30
0
10
-7.5029554775594187
20
14.665526006889564
30
0
10
-7.4999795452429039
20
14.645999252091517
30
0
10
-7.4984787056237066
20
14.636233675809592
30
0
0
ARC
5
224
100
AcDbEntity
8
0
100
AcDbCircle
10
9.0205620750793969e-16
20
30.999999046325868
30
0
40
18
210
-3.5857596563915884e-31
220
1.6431268609718887e-31
230
1
100
AcDbArc
50
245.38100839275199
51
249.61899160724784
0
SPLINE
5
225
100
AcDbEntity
8
0
100
AcDbSpline
70
4
71
5
72
81
73
75
74
0
42
0.000000001
43
0.0000000001
44
0.0000000001
40
-1
40
-1
40
-1
40
-1
40
-1
40
-1
40
-0.9857142857142841
40
-0.97142857142856986
40
-0.95714285714285563
40
-0.94285714285714139
40
-0.92857142857142716
40
-0.91428571428571292
40
-0.89999999999999869
40
-0.88571428571428445
40
-0.87142857142857022
40
-0.85714285714285599
40
-0.84285714285714175
40
-0.82857142857142752
40
-0.81428571428571328
40
-0.79999999999999905
40
-0.78571428571428481
40
-0.77142857142857058
40
-0.75714285714285634
40
-0.74285714285714211
40
-0.72857142857142787
40
-0.71428571428571364
40
-0.6999999999999994
40
-0.68571428571428517
40
-0.67142857142857093
40
-0.6571428571428567
40
-0.64285714285714246
40
-0.62857142857142823
40
-0.61428571428571399
40
-0.59999999999999976
40
-0.58571428571428552
40
-0.57142857142857129
40
-0.55714285714285705
40
-0.54285714285714282
40
-0.52857142857142858
40
-0.51428571428571435
40
-0.50000000000000011
40
-0.48571428571428582
40
-0.47142857142857153
40
-0.45714285714285724
40
-0.44285714285714295
40
-0.42857142857142866
40
-0.41428571428571437
40
-0.40000000000000008
40
-0.38571428571428579
40
-0.3714285714285715
40
-0.35714285714285721
40
-0.34285714285714292
40
-0.32857142857142863
40
-0.31428571428571433
40
-0.30000000000000004
40
-0.28571428571428575
40
-0.27142857142857146
40
-0.25714285714285717
40
-0.24285714285714291
40
-0.22857142857142862
40
-0.21428571428571433
40
-0.20000000000000004
40
-0.18571428571428575
40
-0.17142857142857146
40
-0.15714285714285717
40
-0.14285714285714288
40
-0.12857142857142859
40
-0.1142857142857143
40
-0.10000000000000001
40
-0.085714285714285715
40
-0.071428571428571425
40
-0.057142857142857141
40
-0.042857142857142858
40
-0.028571428571428571
40
-0.014285714285714285
40
0
40
0
40
0
40
0
40
0
40
0
41
1
41
1
41
1
41
1
41
1
41
1
41
1
41
1
41
1
41
1
41
1
41
1
41
1
41
1
41
1
41
1
41
1
41
1
41
1
41
1
41
1
41
1
41
1
41
1
41
1
41
1
41
1
41
1
41
1
41
1
41
1
41
1
41
1
41
1
41
1
41
1
41
1
41
1
41
1
41
1
41
1
41
1
41
1
41
1
41
1
41
1
41
1
41
1
41
1
41
1
41
1
41
1
41
1
41
1
41
1
41
1
41
1
41
1
41
1
41
1
41
1
41
1
41
1
41
1
41
1
41
1
41
1
41
1
41
1
41
1
41
1
41
1
41
1
41
1
41
1
10
-6.2687043179082327
20
14.126844445758772
30
0
10
-6.2607377588248809
20
14.132688497097707
30
0
10
-6.2448259561712538
20
14.144391695908617
30
0
10
-6.2210221987332259
20
14.161991782519314
30
0
10
-6.189411791030448
20
14.185549171590328
30
0
10
-6.1501123521277581
20
14.215147083128926
30
0
10
-6.1110270919111311
20
14.244896359858018
30
0
10
-6.0721569069895587
20
14.274797153383556
30
0
10
-6.0335030031185832
20
14.304849515756066
30
0
10
-5.9950669256466727
20
14.335053326143152
30
0
10
-5.9568504801736477
20
14.365408332163057
30
0
10
-5.9188556398255905
20
14.395914204654243
30
0
10
-5.8810844527979143
20
14.426570587846401
30
0
10
-5.8435389555266806
20
14.457377147227682
30
0
10
-5.8062210631359488
20
14.488333625206026
30
0
10
-5.7691325981467925
20
14.519439836976639
30
0
10
-5.7322753559698372
20
14.55069564914063
30
0
10
-5.6956511586749938
20
14.582100962635259
30
0
10
-5.6592619067390988
20
14.613655694038401
30
0
10
-5.6231096432835823
20
14.64535975336525
30
0
10
-5.5871965397080139
20
14.67721303949215
30
0
10
-5.5515248470822396
20
14.709215443726206
30
0
10
-5.5160968535984436
20
14.741366849020539
30
0
10
-5.4809148453910375
20
14.773667131439073
30
0
10
-5.4459810451587067
20
14.806116155679231
30
0
10
-5.4112976472259158
20
14.838713789948066
30
0
10
-5.3768669073324835
20
14.871459930723603
30
0
10
-5.3426912202122834
20
14.904354525580148
30
0
10
-5.3087731870240153
20
14.937397591279918
30
0
10
-5.2751157189061111
20
14.970589244009116
30
0
10
-5.2417219799104
20
15.003929675676471
30
0
10
-5.2085952178631603
20
15.037419093117856
30
0
10
-5.1757386118556772
20
15.071057661678173
30
0
10
-5.1431551427588227
20
15.104845457916111
30
0
10
-5.1108473732686379
20
15.138782387533482
30
0
10
-5.0788175870684018
20
15.172868239019186
30
0
10
-5.0470682120032153
20
15.207102844315319
30
0
10
-5.0156021936819428
20
15.241486220713165
30
0
10
-4.984423316097784
20
15.276018692021667
30
0
10
-4.953536720258592
20
15.310701085493129
30
0
10
-4.9229486219567091
20
15.345534621532618
30
0
10
-4.8926653687308033
20
15.380520550015849
30
0
10
-4.8626926022547732
20
15.415659826638459
30
0
10
-4.8330345465838027
20
15.450952837656596
30
0
10
-4.8036928159375245
20
15.486398939394379
30
0
10
-4.7746671591731111
20
15.52199674317057
30
0
10
-4.7459577427149844
20
15.557744992229122
30
0
10
-4.7175671788232147
20
15.593643340576209
30
0
10
-4.6895022564989484
20
15.629693016871478
30
0
10
-4.6617767950787643
20
15.665897921055947
30
0
10
-4.6344097729610434
20
15.702263899019934
30
0
10
-4.607420139432846
20
15.738796738032107
30
0
10
-4.5808221610072071
20
15.775500368422751
30
0
10
-4.5546214881077551
20
15.812375342096125
30
0
10
-4.5288085414359518
20
15.849416279295383
30
0
10
-4.503363967355404
20
15.886613960612674
30
0
10
-4.4782709760933166
20
15.923960067710103
30
0
10
-4.453526529622728
20
15.96145148186071
30
0
10
-4.4291509299330354
20
15.999093964894616
30
0
10
-4.4052033802310842
20
16.036908143407146
30
0
10
-4.381767001282916
20
16.074923712126033
30
0
10
-4.3589210874358493
20
16.113168709585516
30
0
10
-4.3367155134542594
20
16.151659635425897
30
0
10
-4.3151485101839935
20
16.190392838509691
30
0
10
-4.2941318762239105
20
16.229331130609609
30
0
10
-4.2735372189319287
20
16.268421220620116
30
0
10
-4.2532642633099123
20
16.307619554364447
30
0
10
-4.2333041521412902
20
16.346916224388444
30
0
10
-4.2137994992681636
20
16.386357698171704
30
0
10
-4.1951204435716996
20
16.426075490281765
30
0
10
-4.1777657795011987
20
16.466249732622437
30
0
10
-4.165345464832261
20
16.498901083807763
30
0
10
-4.1570320155571707
20
16.523742726387301
30
0
10
-4.1519577584033955
20
16.540469107625885
30
0
10
-4.1495376418178873
20
16.548873620312655
30
0
0
LINE
5
226
100
AcDbEntity
8
0
100
AcDbLine
10
-4.1495376418178873
20
16.548873620312655
30
0
11
-4.0053532550504087
21
17.049593096009254
31
0
0
ARC
5
227
100
AcDbEntity
8
0
100
AcDbCircle
10
-3.0443999957102874
20
16.772882356493064
30
0
40
1.0000000000000024
210
2.2365400821124347e-30
220
1.0451818675120831e-29
230
1
100
AcDbArc
50
77.921677004820964
51
163.93601095527791
0
CIRCLE
5
228
100
AcDbEntity
8
0
100
AcDbCircle
10
9.0205620750793969e-16
20
30.999999046325868
30
0
40
2.5
210
0
220
-0
230
1
0
ARC
5
229
100
AcDbEntity
8
0
100
AcDbCircle
10
0.0030147438824743023
20
31.020635851863531
30
7.4443980917255907e-45
40
2.500000000000008
210
-1.6026174936588945e-30
220
-7.369700183515259e-31
230
1
100
AcDbArc
50
-231.26057540214433
51
51.260575402144248
0
ARC
5
230
100
AcDbEntity
8
0
100
AcDbCircle
10
0.0030147438824743023
20
31.020635851863531
30
7.4443980917255907e-45
40
2.500000000000008
210
3.4744747262525182e-31
220
8.2753088760789385e-31
230
1
100
AcDbArc
50
-231.26057540214433
51
51.260575402144248
0
LINE
5
231
100
AcDbEntity
8
0
100
AcDbLine
10
-1.5614340408337348
20
32.970635851863534
30
0
11
1.5674635285986729
21
32.970635851863534
31
2.826211597774369e-31
0
ENDSEC
0
SECTION
2
OBJECTS
0
DICTIONARY
5
C
100
AcDbDictionary
3
ACAD_GROUP
350
D
3
ACAD_MLINESTYLE
350
17
0
DICTIONARY
5
D
100
AcDbDictionary
0
DICTIONARY
5
1A
330
C
100
AcDbDictionary
0
DICTIONARY
5
17
100
AcDbDictionary
0
ENDSEC
0
EOF
