0
SECTION
2
HEADER
9
$INSUNITS
70
4
9
$ACADVER
1
AC1014
9
$HANDSEED
5
FFFF
0
ENDSEC
0
SECTION
2
TABLES
0
TABLE
2
VPORT
5
8
100
AcDbSymbolTable
0
ENDTAB
0
TABLE
2
LTYPE
5
5
100
AcDbSymbolTable
0
LTYPE
5
14
100
AcDbSymbolTableRecord
100
AcDbLinetypeTableRecord
2
BYBLOCK
70
0
0
LTYPE
5
15
100
AcDbSymbolTableRecord
100
AcDbLinetypeTableRecord
2
BYLAYER
70
0
0
ENDTAB
0
TABLE
2
LAYER
5
2
100
AcDbSymbolTable
70
2
0
LAYER
5
50
100
AcDbSymbolTableRecord
100
AcDbLayerTableRecord
2
0
70
0
6
CONTINUOUS
0
ENDTAB
0
TABLE
2
STYLE
5
3
100
AcDbSymbolTable
70
1
0
STYLE
5
11
100
AcDbSymbolTableRecord
100
AcDbTextStyleTableRecord
2
STANDARD
70
0
0
ENDTAB
0
TABLE
2
VIEW
5
6
100
AcDbSymbolTable
70
0
0
ENDTAB
0
TABLE
2
UCS
5
7
100
AcDbSymbolTable
70
0
0
ENDTAB
0
TABLE
2
APPID
5
9
100
AcDbSymbolTable
70
2
0
APPID
5
12
100
AcDbSymbolTableRecord
100
AcDbRegAppTableRecord
2
ACAD
70
0
0
ENDTAB
0
TABLE
2
DIMSTYLE
5
A
100
AcDbSymbolTable
70
1
0
ENDTAB
0
TABLE
2
BLOCK_RECORD
5
1
100
AcDbSymbolTable
70
1
0
BLOCK_RECORD
5
1F
100
AcDbSymbolTableRecord
100
AcDbBlockTableRecord
2
*MODEL_SPACE
0
BLOCK_RECORD
5
1B
100
AcDbSymbolTableRecord
100
AcDbBlockTableRecord
2
*PAPER_SPACE
0
ENDTAB
0
ENDSEC
0
SECTION
2
BLOCKS
0
BLOCK
5
20
100
AcDbEntity
100
AcDbBlockBegin
2
*MODEL_SPACE
0
ENDBLK
5
21
100
AcDbEntity
100
AcDbBlockEnd
0
BLOCK
5
1C
100
AcDbEntity
100
AcDbBlockBegin
2
*PAPER_SPACE
0
ENDBLK
5
1D
100
AcDbEntity
100
AcDbBlockEnd
0
ENDSEC
0
SECTION
2
ENTITIES
0
LWPOLYLINE
5
100
100
AcDbEntity
8
0
100
AcDbPolyline
90
4
70
1
43
0.0
10
-152.99998891915121
20
94.199997809677399
10
-172.99998891915118
20
94.199997809677399
10
-172.99998891915112
20
91.679997809677403
10
-152.99998891915121
20
91.679997809677388
0
CIRCLE
5
101
100
AcDbEntity
8
0
100
AcDbCircle
10
-162.99998891915098
20
81.899994069635085
30
0
40
2.4999999999999947
210
-0
220
0
230
1
0
ARC
5
102
100
AcDbEntity
8
0
100
AcDbCircle
10
-157.09733792334015
20
64.315013777873247
30
0
40
0.99999999999999445
210
-1.4995252937326529e-31
220
-1.7575613439835135e-30
230
1
100
AcDbArc
50
21.688469910289907
51
108.55506637139551
0
LINE
5
103
100
AcDbEntity
8
0
100
AcDbLine
10
-156.16813096351154
20
64.684573550854665
30
7.8886090522100454e-31
11
-156.06747070663786
21
64.431477250598377
31
-4.9303806576313238e-31
0
SPLINE
5
104
100
AcDbEntity
8
0
100
AcDbSpline
70
4
71
5
72
81
73
75
74
0
42
0.000000001
43
0.0000000001
44
0.0000000001
40
0
40
0
40
0
40
0
40
0
40
0
40
0.014285714285714285
40
0.028571428571428571
40
0.042857142857142858
40
0.057142857142857141
40
0.071428571428571425
40
0.085714285714285715
40
0.10000000000000001
40
0.1142857142857143
40
0.12857142857142859
40
0.14285714285714288
40
0.15714285714285717
40
0.17142857142857146
40
0.18571428571428575
40
0.20000000000000004
40
0.21428571428571433
40
0.22857142857142862
40
0.24285714285714291
40
0.25714285714285717
40
0.27142857142857146
40
0.28571428571428575
40
0.30000000000000004
40
0.31428571428571433
40
0.32857142857142863
40
0.34285714285714292
40
0.35714285714285721
40
0.3714285714285715
40
0.38571428571428579
40
0.40000000000000008
40
0.41428571428571437
40
0.42857142857142866
40
0.44285714285714295
40
0.45714285714285724
40
0.47142857142857153
40
0.48571428571428582
40
0.50000000000000011
40
0.51428571428571435
40
0.52857142857142858
40
0.54285714285714282
40
0.55714285714285705
40
0.57142857142857129
40
0.58571428571428552
40
0.59999999999999976
40
0.61428571428571399
40
0.62857142857142823
40
0.64285714285714246
40
0.6571428571428567
40
0.67142857142857093
40
0.68571428571428517
40
0.6999999999999994
40
0.71428571428571364
40
0.72857142857142787
40
0.74285714285714211
40
0.75714285714285634
40
0.77142857142857058
40
0.78571428571428481
40
0.79999999999999905
40
0.81428571428571328
40
0.82857142857142752
40
0.84285714285714175
40
0.85714285714285599
40
0.87142857142857022
40
0.88571428571428445
40
0.89999999999999869
40
0.91428571428571292
40
0.92857142857142716
40
0.94285714285714139
40
0.95714285714285563
40
0.97142857142856986
40
0.9857142857142841
40
1
40
1
40
1
40
1
40
1
40
1
41
1
41
1
41
1
41
1
41
1
41
1
41
1
41
1
41
1
41
1
41
1
41
1
41
1
41
1
41
1
41
1
41
1
41
1
41
1
41
1
41
1
41
1
41
1
41
1
41
1
41
1
41
1
41
1
41
1
41
1
41
1
41
1
41
1
41
1
41
1
41
1
41
1
41
1
41
1
41
1
41
1
41
1
41
1
41
1
41
1
41
1
41
1
41
1
41
1
41
1
41
1
41
1
41
1
41
1
41
1
41
1
41
1
41
1
41
1
41
1
41
1
41
1
41
1
41
1
41
1
41
1
41
1
41
1
41
1
41
1
41
1
41
1
41
1
41
1
41
1
10
-156.06747070663786
20
64.431477250598377
30
0
10
-156.06398756664046
20
64.422719376597286
30
0
10
-156.05679630228428
20
64.405307860261004
30
0
10
-156.04533445985771
20
64.379503277289913
30
0
10
-156.02876755772112
20
64.345691431334657
30
0
10
-156.00629815585722
20
64.304236754350711
30
8.8817841970012523e-15
10
-155.98255193818534
20
64.263363177375027
30
8.8817841970012523e-15
10
-155.95800781989081
20
64.222845141678661
30
0
10
-155.93302338220181
20
64.182516251239278
30
0
10
-155.907738632356
20
64.14231530020318
30
0
10
-155.88214758082205
20
64.102251433397655
30
0
10
-155.85615579977531
20
64.06237605262983
30
0
10
-155.82964085361166
20
64.022753361866734
30
0
10
-155.80251695265096
20
63.983428821186962
30
0
10
-155.77478104471032
20
63.944406707090124
30
0
10
-155.74648016976366
20
63.905666257888292
30
0
10
-155.71769007456288
20
63.867172305005518
30
0
10
-155.68849078413098
20
63.82888738636251
30
0
10
-155.65894038413495
20
63.790784756809146
30
0
10
-155.62905951757014
20
63.752856085372002
30
0
10
-155.59884608990129
20
63.715104187471788
30
0
10
-155.56828448189248
20
63.677538477558535
30
0
10
-155.53735625378226
20
63.640169682377106
30
0
10
-155.50605180963927
20
63.603004079869187
30
-8.8817841970012523e-15
10
-155.47437627128903
20
63.566040601501406
30
-8.8817841970012523e-15
10
-155.44234318233504
20
63.529273953568776
30
-8.8817841970012523e-15
10
-155.40997073972804
20
63.492696488311466
30
-8.8817841970012523e-15
10
-155.3772773325426
20
63.456300417283053
30
-8.8817841970012523e-15
10
-155.34427663469398
20
63.42008024579718
30
0
10
-155.31097549473031
20
63.384033821740935
30
0
10
-155.27737667179611
20
63.348160984028105
30
0
10
-155.24348048995046
20
63.31246274663166
30
0
10
-155.20928678698832
20
63.27694033649135
30
0
10
-155.17479707672712
20
63.241594125776444
30
0
10
-155.14001541111315
20
63.206423207077471
30
0
10
-155.10494723167866
20
63.17142596307437
30
0
10
-155.06959869062928
20
63.136600403651109
30
0
10
-155.03397584473208
20
63.101944565861061
30
0
10
-154.99808376163011
20
63.067456956746845
30
8.8817841970012523e-15
10
-154.96192618540357
20
63.033136720240876
30
8.8817841970012523e-15
10
-154.92550603750476
20
62.998983391849023
30
8.8817841970012523e-15
10
-154.8888257227967
20
62.964996749319994
30
0
10
-154.85188748971456
20
62.93117663625867
30
0
10
-154.81469383164975
20
62.897522765572063
30
0
10
-154.77724764813468
20
62.86403463992503
30
0
10
-154.73955203252157
20
62.830711654575921
30
0
10
-154.70161014822287
20
62.797553156464893
30
0
10
-154.6634250815134
20
62.764558515064891
30
0
10
-154.62499968097853
20
62.731727198190619
30
0
10
-154.58633649195104
20
62.69905880547195
30
0
10
-154.54743785646869
20
62.666553027383713
30
0
10
-154.50830597809292
20
62.63420962006122
30
0
10
-154.46894299698366
20
62.602028374416093
30
0
10
-154.42935107521936
20
62.570009082325477
30
0
10
-154.38953243580463
20
62.538151517078191
30
0
10
-154.3494893035076
20
62.506455445992735
30
0
10
-154.30922386683187
20
62.47492063488076
30
0
10
-154.26873823653136
20
62.443546854839227
30
0
10
-154.22803439905996
20
62.412333886282781
30
0
10
-154.18711419956929
20
62.381281524775474
30
0
10
-154.14597940448209
20
62.350389590924571
30
-8.8817841970012523e-15
10
-154.10463175217694
20
62.319657939051112
30
0
10
-154.06307300585621
20
62.289086464282626
30
0
10
-154.02130501661287
20
62.258675111389941
30
0
10
-153.97932975475905
20
62.22842387505014
30
0
10
-153.9371492031494
20
62.198332767785949
30
0
10
-153.89476527140692
20
62.168401791144149
30
0
10
-153.85217970498684
20
62.138630905654352
30
0
10
-153.80939399405293
20
62.109019997246769
30
0
10
-153.76640929436371
20
62.079568852102234
30
0
10
-153.72322645952761
20
62.050277214585819
30
0
10
-153.68852214312773
20
62.026971312401038
30
0
10
-153.66240514887545
20
62.009563467893187
30
0
10
-153.64495438493262
20
61.997990041925334
30
0
10
-153.63621914435132
20
61.992211279867988
30
0
0
ARC
5
105
100
AcDbEntity
8
0
100
AcDbCircle
10
-162.99998891915098
20
81.899994069635085
30
0
40
21.999999999999989
210
9.0127821589533988e-32
220
4.2392273443048215e-32
230
1
100
AcDbArc
50
295.19028719973193
51
298.80971359828175
0
SPLINE
5
106
100
AcDbEntity
8
0
100
AcDbSpline
70
4
71
5
72
81
73
75
74
0
42
0.000000001
43
0.0000000001
44
0.0000000001
40
0
40
0
40
0
40
0
40
0
40
0
40
0.014285714285714285
40
0.028571428571428571
40
0.042857142857142858
40
0.057142857142857141
40
0.071428571428571425
40
0.085714285714285715
40
0.10000000000000001
40
0.1142857142857143
40
0.12857142857142859
40
0.14285714285714288
40
0.15714285714285717
40
0.17142857142857146
40
0.18571428571428575
40
0.20000000000000004
40
0.21428571428571433
40
0.22857142857142862
40
0.24285714285714291
40
0.25714285714285717
40
0.27142857142857146
40
0.28571428571428575
40
0.30000000000000004
40
0.31428571428571433
40
0.32857142857142863
40
0.34285714285714292
40
0.35714285714285721
40
0.3714285714285715
40
0.38571428571428579
40
0.40000000000000008
40
0.41428571428571437
40
0.42857142857142866
40
0.44285714285714295
40
0.45714285714285724
40
0.47142857142857153
40
0.48571428571428582
40
0.50000000000000011
40
0.51428571428571435
40
0.52857142857142858
40
0.54285714285714282
40
0.55714285714285705
40
0.57142857142857129
40
0.58571428571428552
40
0.59999999999999976
40
0.61428571428571399
40
0.62857142857142823
40
0.64285714285714246
40
0.6571428571428567
40
0.67142857142857093
40
0.68571428571428517
40
0.6999999999999994
40
0.71428571428571364
40
0.72857142857142787
40
0.74285714285714211
40
0.75714285714285634
40
0.77142857142857058
40
0.78571428571428481
40
0.79999999999999905
40
0.81428571428571328
40
0.82857142857142752
40
0.84285714285714175
40
0.85714285714285599
40
0.87142857142857022
40
0.88571428571428445
40
0.89999999999999869
40
0.91428571428571292
40
0.92857142857142716
40
0.94285714285714139
40
0.95714285714285563
40
0.97142857142856986
40
0.9857142857142841
40
1
40
1
40
1
40
1
40
1
40
1
41
1
41
1
41
1
41
1
41
1
41
1
41
1
41
1
41
1
41
1
41
1
41
1
41
1
41
1
41
1
41
1
41
1
41
1
41
1
41
1
41
1
41
1
41
1
41
1
41
1
41
1
41
1
41
1
41
1
41
1
41
1
41
1
41
1
41
1
41
1
41
1
41
1
41
1
41
1
41
1
41
1
41
1
41
1
41
1
41
1
41
1
41
1
41
1
41
1
41
1
41
1
41
1
41
1
41
1
41
1
41
1
41
1
41
1
41
1
41
1
41
1
41
1
41
1
41
1
41
1
41
1
41
1
41
1
41
1
41
1
41
1
41
1
41
1
41
1
41
1
10
-152.94249369146581
20
66.023732596325786
30
0
10
-152.93745576077555
20
66.015766927764986
30
0
10
-152.92759646707196
20
65.999714840304634
30
0
10
-152.91345722251765
20
65.975274461879621
30
0
10
-152.89584064481724
20
65.941997452347067
30
0
10
-152.87551028909181
20
65.899452876899161
30
0
10
-152.85640054664066
20
65.856216897761911
30
0
10
-152.83804743733936
20
65.812544385371126
30
0
10
-152.82010616300832
20
65.768626823894124
30
0
10
-152.80244491288335
20
65.724541505669166
30
0
10
-152.78507460584328
20
65.68028896025811
30
0
10
-152.7680923301057
20
65.635823007168895
30
0
10
-152.75162199361264
20
65.591082332060267
30
8.8817841970012523e-15
10
-152.73575080024852
20
65.546024250385614
30
8.8817841970012523e-15
10
-152.7204840038022
20
65.500648806540468
30
0
10
-152.70577715831277
20
65.454981853249762
30
0
10
-152.6915572889815
20
65.409063999353762
30
0
10
-152.67774705082186
20
65.362937966799436
30
0
10
-152.66429066465494
20
65.316635027474462
30
0
10
-152.65116925693354
20
65.270166985089844
30
0
10
-152.63838633651784
20
65.223533799993675
30
0
10
-152.62595870061426
20
65.176728369633295
30
0
10
-152.61390586596144
20
65.129742080950507
30
0
10
-152.60223855186783
20
65.082570860755155
30
0
10
-152.59095288333825
20
65.035218224623023
30
0
10
-152.58003661694514
20
64.987692017997915
30
0
10
-152.56947286962168
20
64.940002467282071
30
0
10
-152.55924453155566
20
64.892159871615576
30
0
10
-152.5493391201268
20
64.844172063732913
30
0
10
-152.53975086876372
20
64.796043319245641
30
0
10
-152.53047802536042
20
64.747775775664536
30
0
10
-152.52152121976115
20
64.69937029115728
30
0
10
-152.51288153992283
20
64.650827455674261
30
0
10
-152.50455839713709
20
64.602148712675159
30
0
10
-152.49654867562001
20
64.553336806891537
30
0
10
-152.48884786847992
20
64.504395189978595
30
0
10
-152.48145074950338
20
64.455327669414459
30
0
10
-152.47435217055485
20
64.406137991435656
30
0
10
-152.46754794512071
20
64.356829378313265
30
0
10
-152.46103517991264
20
64.307404355887883
30
0
10
-152.45481178196042
20
64.257865014641339
30
-8.8817841970012523e-15
10
-152.448876157916
20
64.208213169512675
30
0
10
-152.44322685965602
20
64.158450547597411
30
0
10
-152.43786218933874
20
64.108578997342605
30
0
10
-152.43278004030924
20
64.058600572192944
30
0
10
-152.42797810509441
20
64.008517419264862
30
0
10
-152.42345399595064
20
63.958331713953768
30
0
10
-152.41920538870394
20
63.908045582494054
30
0
10
-152.41523017845103
20
63.85766101662901
30
0
10
-152.41152654517657
20
63.807179840244494
30
0
10
-152.40809286185419
20
63.756603766154527
30
0
10
-152.4049276359724
20
63.705934433737738
30
0
10
-152.40202944042062
20
63.655173451520852
30
0
10
-152.39939683598618
20
63.604322446330542
30
-8.8817841970012523e-15
10
-152.39702833260657
20
63.553383083357801
30
0
10
-152.39492243435259
20
63.50235702571122
30
0
10
-152.39307766539187
20
63.451245906274849
30
0
10
-152.39149259986783
20
63.400051298138756
30
0
10
-152.39016589252398
20
63.348774679308846
30
0
10
-152.38909629341529
20
63.297417422379745
30
0
10
-152.38828261913272
20
63.245980850973055
30
0
10
-152.38772373002629
20
63.194466285838644
30
0
10
-152.38741850486801
20
63.14287509179475
30
0
10
-152.38736581093141
20
63.091208733944185
30
0
10
-152.38756448578982
20
63.039468803174181
30
0
10
-152.38801337408162
20
62.987656911008585
30
-8.8817841970012523e-15
10
-152.38871135460994
20
62.935774603273991
30
0
10
-152.38965736948978
20
62.8838232688733
30
0
10
-152.39085045054046
20
62.831804046325772
30
0
10
-152.39228974544079
20
62.779717744979962
30
0
10
-152.3939745456394
20
62.727564905161167
30
0
10
-152.39551835949158
20
62.685789657798395
30
0
10
-152.39678630106818
20
62.65442849131275
30
0
10
-152.39768050417251
20
62.633507837603297
30
0
10
-152.39813983290486
20
62.623044208402874
30
0
0
LINE
5
107
100
AcDbEntity
8
0
100
AcDbLine
10
-152.94249369146581
20
66.023732596325786
30
0
11
-153.08808628831054
21
66.25393472546736
31
4.9303806576313238e-31
0
ARC
5
108
100
AcDbEntity
8
0
100
AcDbCircle
10
-152.24293201166125
20
66.788457174632427
30
-8.8817841970012523e-15
40
0.99999999999999623
210
0
220
0
230
1
100
AcDbArc
50
125.44493442661776
51
212.31153088772371
0
ARC
5
109
100
AcDbEntity
8
0
100
AcDbCircle
10
-162.99998891915098
20
81.899994069635085
30
0
40
17.549199999999985
210
2.9350207477830194e-16
220
-4.1231235178128373e-16
230
1
100
AcDbArc
50
305.44493442661769
51
306.55506637139644
0
ARC
5
110
100
AcDbEntity
8
0
100
AcDbCircle
10
-151.95217647026607
20
66.999703443802886
30
0
40
1.0000000000000004
210
1.0075536145655276e-30
220
-1.2141012416270733e-30
230
1
100
AcDbArc
50
39.688469910290223
51
126.55506637138882
0
LINE
5
111
100
AcDbEntity
8
0
100
AcDbLine
10
-151.18264838642287
20
67.638316415935947
30
1.1114756695593966e-45
11
-151.00870373519859
21
67.428713260359117
31
0
0
SPLINE
5
112
100
AcDbEntity
8
0
100
AcDbSpline
70
4
71
5
72
81
73
75
74
0
42
0.000000001
43
0.0000000001
44
0.0000000001
40
0
40
0
40
0
40
0
40
0
40
0
40
0.014285714285714285
40
0.028571428571428571
40
0.042857142857142858
40
0.057142857142857141
40
0.071428571428571425
40
0.085714285714285715
40
0.10000000000000001
40
0.1142857142857143
40
0.12857142857142859
40
0.14285714285714288
40
0.15714285714285717
40
0.17142857142857146
40
0.18571428571428575
40
0.20000000000000004
40
0.21428571428571433
40
0.22857142857142862
40
0.24285714285714291
40
0.25714285714285717
40
0.27142857142857146
40
0.28571428571428575
40
0.30000000000000004
40
0.31428571428571433
40
0.32857142857142863
40
0.34285714285714292
40
0.35714285714285721
40
0.3714285714285715
40
0.38571428571428579
40
0.40000000000000008
40
0.41428571428571437
40
0.42857142857142866
40
0.44285714285714295
40
0.45714285714285724
40
0.47142857142857153
40
0.48571428571428582
40
0.50000000000000011
40
0.51428571428571435
40
0.52857142857142858
40
0.54285714285714282
40
0.55714285714285705
40
0.57142857142857129
40
0.58571428571428552
40
0.59999999999999976
40
0.61428571428571399
40
0.62857142857142823
40
0.64285714285714246
40
0.6571428571428567
40
0.67142857142857093
40
0.68571428571428517
40
0.6999999999999994
40
0.71428571428571364
40
0.72857142857142787
40
0.74285714285714211
40
0.75714285714285634
40
0.77142857142857058
40
0.78571428571428481
40
0.79999999999999905
40
0.81428571428571328
40
0.82857142857142752
40
0.84285714285714175
40
0.85714285714285599
40
0.87142857142857022
40
0.88571428571428445
40
0.89999999999999869
40
0.91428571428571292
40
0.92857142857142716
40
0.94285714285714139
40
0.95714285714285563
40
0.97142857142856986
40
0.9857142857142841
40
1
40
1
40
1
40
1
40
1
40
1
41
1
41
1
41
1
41
1
41
1
41
1
41
1
41
1
41
1
41
1
41
1
41
1
41
1
41
1
41
1
41
1
41
1
41
1
41
1
41
1
41
1
41
1
41
1
41
1
41
1
41
1
41
1
41
1
41
1
41
1
41
1
41
1
41
1
41
1
41
1
41
1
41
1
41
1
41
1
41
1
41
1
41
1
41
1
41
1
41
1
41
1
41
1
41
1
41
1
41
1
41
1
41
1
41
1
41
1
41
1
41
1
41
1
41
1
41
1
41
1
41
1
41
1
41
1
41
1
41
1
41
1
41
1
41
1
41
1
41
1
41
1
41
1
41
1
41
1
41
1
10
-151.00870373519859
20
67.428713260359117
30
8.8817841970012523e-15
10
-151.00268474030597
20
67.421460376674474
30
0
10
-150.9904649870339
20
67.407123263501376
30
0
10
-150.97159007243451
20
67.38612355081311
30
0
10
-150.94538557719133
20
67.359086028693739
30
0
10
-150.91120570644702
20
67.326603715046645
30
0
10
-150.87599108148646
20
67.295068618132362
30
0
10
-150.84012747623686
20
67.264118225920797
30
0
10
-150.80390355145673
20
67.233483787714277
30
0
10
-150.76743354829279
20
67.20306382867102
30
0
10
-150.73071459626928
20
67.172868896905541
30
0
10
-150.69367277322024
20
67.142977058244071
30
0
10
-150.65621147608343
20
67.113487208970184
30
0
10
-150.61826316196135
20
67.084469094656981
30
0
10
-150.57982624956671
20
67.055927725673641
30
0
10
-150.54093906085876
20
67.027828820330257
30
0
10
-150.50166276759182
20
67.000115524289839
30
0
10
-150.46206190166643
20
66.9727274799057
30
0
10
-150.42218344112871
20
66.945621301570355
30
0
10
-150.38204444422158
20
66.918782687020823
30
0
10
-150.34164378893644
20
66.892214961128303
30
0
10
-150.30096952972224
20
66.865931904176207
30
0
10
-150.26000744407014
20
66.839949416104773
30
0
10
-150.21875034569786
20
66.814276432897216
30
0
10
-150.17720277555586
20
66.788910355586808
30
-8.8817841970012523e-15
10
-150.1353759785317
20
66.763841964357255
30
-8.8817841970012523e-15
10
-150.09328489766625
20
66.739058362589731
30
-8.8817841970012523e-15
10
-150.05094461524638
20
66.714546460494944
30
0
10
-150.00836643798687
20
66.690296806843421
30
0
10
-149.96555621420453
20
66.666305238536424
30
0
10
-149.92251651822338
20
66.642570749749311
30
0
10
-149.87924797157686
20
66.619094204687897
30
0
10
-149.83575079914391
20
66.595876820365362
30
0
10
-149.7920265556572
20
66.572918482940395
30
0
10
-149.74807881434171
20
66.550217077295002
30
0
10
-149.70391225062264
20
66.52776938374052
30
0
10
-149.65953210061568
20
66.505571608428056
30
0
10
-149.61494351806476
20
66.48362001284039
30
0
10
-149.57015086123559
20
66.461911611102877
30
0
10
-149.52515742642058
20
66.44044443206252
30
0
10
-149.47996584854943
20
66.419217131180659
30
0
10
-149.43457834610336
20
66.398228753940245
30
0
10
-149.38899700914251
20
66.377478456795998
30
0
10
-149.3432241203065
20
66.356965196205934
30
0
10
-149.29726228352939
20
66.33668760317147
30
0
10
-149.2511142538886
20
66.31664414665066
30
0
10
-149.20478283816155
20
66.296833227998505
30
0
10
-149.15827077672645
20
66.277253293836779
30
0
10
-149.11158061429464
20
66.257902957765879
30
0
10
-149.06471464790033
20
66.238781052460126
30
0
10
-149.01767500930518
20
66.2198865598141
30
0
10
-148.97046371886239
20
66.20121856696079
30
0
10
-148.92308274737314
20
66.182776213699526
30
0
10
-148.87553408678269
20
66.164558633974721
30
0
10
-148.82781978123649
20
66.146564925225022
30
-8.8817841970012523e-15
10
-148.77994187471222
20
66.128794178666041
30
-8.8817841970012523e-15
10
-148.73190237623226
20
66.111245495286596
30
-8.8817841970012523e-15
10
-148.68370322250803
20
66.093918005128117
30
-8.8817841970012523e-15
10
-148.63534623491381
20
66.076810885504528
30
-8.8817841970012523e-15
10
-148.5868331051189
20
66.059923371802483
30
-8.8817841970012523e-15
10
-148.53816545765571
20
66.043254747554698
30
-8.8817841970012523e-15
10
-148.48934490080327
20
66.026804337023734
30
-8.8817841970012523e-15
10
-148.44037307905933
20
66.010571495610421
30
-8.8817841970012523e-15
10
-148.39125173585114
20
65.994555598769551
30
0
10
-148.34198274341199
20
65.978756032578787
30
0
10
-148.29256799141854
20
65.963172196212113
30
0
10
-148.24300929650809
20
65.947803501034713
30
0
10
-148.19330830651018
20
65.932649370132651
30
0
10
-148.14346640340534
20
65.917709234533191
30
0
10
-148.09348462031147
20
65.902982533733194
30
0
10
-148.04336369006285
20
65.888468760829909
30
0
10
-148.00315600396283
20
65.877027754234646
30
0
10
-147.97293794660482
20
65.868542505346738
30
0
10
-147.95276489853541
20
65.862928105787347
30
0
10
-147.94267145537702
20
65.860131514266158
30
0
0
ARC
5
113
100
AcDbEntity
8
0
100
AcDbCircle
10
-162.99998891915098
20
81.899994069635085
30
0
40
21.999999999999961
210
-1.0753816581048337e-30
220
-1.0095075917832044e-30
230
1
100
AcDbArc
50
313.19028719973187
51
316.80971359828158
0
SPLINE
5
114
100
AcDbEntity
8
0
100
AcDbSpline
70
4
71
5
72
81
73
75
74
0
42
0.000000001
43
0.0000000001
44
0.0000000001
40
0
40
0
40
0
40
0
40
0
40
0
40
0.014285714285714285
40
0.028571428571428571
40
0.042857142857142858
40
0.057142857142857141
40
0.071428571428571425
40
0.085714285714285715
40
0.10000000000000001
40
0.1142857142857143
40
0.12857142857142859
40
0.14285714285714288
40
0.15714285714285717
40
0.17142857142857146
40
0.18571428571428575
40
0.20000000000000004
40
0.21428571428571433
40
0.22857142857142862
40
0.24285714285714291
40
0.25714285714285717
40
0.27142857142857146
40
0.28571428571428575
40
0.30000000000000004
40
0.31428571428571433
40
0.32857142857142863
40
0.34285714285714292
40
0.35714285714285721
40
0.3714285714285715
40
0.38571428571428579
40
0.40000000000000008
40
0.41428571428571437
40
0.42857142857142866
40
0.44285714285714295
40
0.45714285714285724
40
0.47142857142857153
40
0.48571428571428582
40
0.50000000000000011
40
0.51428571428571435
40
0.52857142857142858
40
0.54285714285714282
40
0.55714285714285705
40
0.57142857142857129
40
0.58571428571428552
40
0.59999999999999976
40
0.61428571428571399
40
0.62857142857142823
40
0.64285714285714246
40
0.6571428571428567
40
0.67142857142857093
40
0.68571428571428517
40
0.6999999999999994
40
0.71428571428571364
40
0.72857142857142787
40
0.74285714285714211
40
0.75714285714285634
40
0.77142857142857058
40
0.78571428571428481
40
0.79999999999999905
40
0.81428571428571328
40
0.82857142857142752
40
0.84285714285714175
40
0.85714285714285599
40
0.87142857142857022
40
0.88571428571428445
40
0.89999999999999869
40
0.91428571428571292
40
0.92857142857142716
40
0.94285714285714139
40
0.95714285714285563
40
0.97142857142856986
40
0.9857142857142841
40
1
40
1
40
1
40
1
40
1
40
1
41
1
41
1
41
1
41
1
41
1
41
1
41
1
41
1
41
1
41
1
41
1
41
1
41
1
41
1
41
1
41
1
41
1
41
1
41
1
41
1
41
1
41
1
41
1
41
1
41
1
41
1
41
1
41
1
41
1
41
1
41
1
41
1
41
1
41
1
41
1
41
1
41
1
41
1
41
1
41
1
41
1
41
1
41
1
41
1
41
1
41
1
41
1
41
1
41
1
41
1
41
1
41
1
41
1
41
1
41
1
41
1
41
1
41
1
41
1
41
1
41
1
41
1
41
1
41
1
41
1
41
1
41
1
41
1
41
1
41
1
41
1
41
1
41
1
41
1
41
1
10
-148.52870794286079
20
69.908709087238222
30
-8.8817841970012523e-15
10
-148.52145505909232
20
69.902690092446619
30
-8.8817841970012523e-15
10
-148.50711794574903
20
69.890470339374232
30
-8.8817841970012523e-15
10
-148.48611823279785
20
69.871595425067312
30
-8.8817841970012523e-15
10
-148.45908071031351
20
69.845390930200722
30
-8.8817841970012523e-15
10
-148.42659839619037
20
69.811211059908828
30
-8.8817841970012523e-15
10
-148.39506329878563
20
69.775996435387484
30
-8.8817841970012523e-15
10
-148.36411290607455
20
69.740132830568967
30
0
10
-148.33347846736348
20
69.703908906215489
30
0
10
-148.30305850781227
20
69.667438903475229
30
0
10
-148.27286357553538
20
69.63071995187228
30
0
10
-148.24297173635802
20
69.593678129239592
30
0
10
-148.21348188656236
20
69.556216832513499
30
8.8817841970012523e-15
10
-148.18446377172063
20
69.518268518795594
30
8.8817841970012523e-15
10
-148.15592240220192
20
69.479831606798456
30
8.8817841970012523e-15
10
-148.12782349631689
20
69.440944418481877
30
8.8817841970012523e-15
10
-148.10011019972944
20
69.401668125600949
30
8.8817841970012523e-15
10
-148.07272215479375
20
69.362067260057003
30
8.8817841970012523e-15
10
-148.04561597590299
20
69.322188799896821
30
0
10
-148.01877736079439
20
69.282049803363492
30
0
10
-147.99220963433919
20
69.241649148448374
30
0
10
-147.96592657682058
20
69.200974889600232
30
0
10
-147.93994408817863
20
69.160012804310057
30
0
10
-147.91427110439645
20
69.118755706295318
30
0
10
-147.88890502650736
20
69.077208136506613
30
0
10
-147.86383663469525
20
69.035381339831616
30
0
10
-147.83905303234147
20
68.993290259311365
30
0
10
-147.81454112965696
20
68.950949977232881
30
0
10
-147.79029147541243
20
68.90837180031113
30
0
10
-147.76629990650918
20
68.865561576862945
30
0
10
-147.74256541712259
20
68.822521881212367
30
0
10
-147.71908887145855
20
68.779253334892815
30
0
10
-147.69587148653019
20
68.735756162783247
30
8.8817841970012523e-15
10
-147.67291314849621
20
68.692031919616298
30
0
10
-147.65021174223875
20
68.648084178616969
30
0
10
-147.62776404806911
20
68.603917615210605
30
0
10
-147.6055662721385
20
68.559537465512804
30
0
10
-147.58361467592982
20
68.514948883267607
30
0
10
-147.56190627356847
20
68.470156226740798
30
0
10
-147.5404390939014
20
68.425162792224768
30
0
10
-147.51921179239014
20
68.37997121464926
30
0
10
-147.49822341451755
20
68.334583712495515
30
0
10
-147.47747311673845
20
68.289002375823713
30
0
10
-147.45695985551089
20
68.243229487273382
30
0
10
-147.43668226183624
20
68.197267650778684
30
0
10
-147.41663880467269
20
68.151119621417095
30
0
10
-147.39682788537525
20
68.104788205965946
30
0
10
-147.3772479505657
20
68.058276144803557
30
-8.8817841970012523e-15
10
-147.3578976138445
20
68.011585982641279
30
-8.8817841970012523e-15
10
-147.33877570788599
20
67.964720016513269
30
0
10
-147.3198812145848
20
67.917680378181302
30
0
10
-147.30121322107394
20
67.870469087998515
30
0
10
-147.28277086715275
20
67.823088116766115
30
0
10
-147.26455328676568
20
67.775539456429428
30
0
10
-147.24655957735143
20
67.727825151133814
30
0
10
-147.22878883012558
20
67.679947244857061
30
0
10
-147.21124014607705
20
67.631907746621536
30
0
10
-147.19391265524726
20
67.583708593138653
30
0
10
-147.17680553495018
20
67.535351605782694
30
0
10
-147.15991802057243
20
67.486838476222971
30
0
10
-147.14324939564679
20
67.438170828991957
30
0
10
-147.12679898443588
20
67.389350272368617
30
-8.8817841970012523e-15
10
-147.11056614234047
20
67.340378450850764
30
-8.8817841970012523e-15
10
-147.09455024481545
20
67.291257107865647
30
-8.8817841970012523e-15
10
-147.07875067793844
20
67.241988115646564
30
-8.8817841970012523e-15
10
-147.06316684088353
20
67.192573363870153
30
0
10
-147.04779814501589
20
67.143014669173752
30
0
10
-147.03264401342159
20
67.093313679386938
30
0
10
-147.01770387712796
20
67.043471776490179
30
0
10
-147.0029771756318
20
66.993489993601415
30
0
10
-146.98846340203042
20
66.943369063554954
30
0
10
-146.97702239487515
20
66.903161377614296
30
0
10
-146.96853714556639
20
66.872943320374446
30
0
10
-146.96292274572599
20
66.852770272383253
30
0
10
-146.96012615406426
20
66.842676829263795
30
0
0
LINE
5
115
100
AcDbEntity
8
0
100
AcDbLine
10
-148.52870794286079
20
69.908709087238222
30
-8.8817841970012523e-15
11
-148.73831110086033
21
70.082653735543147
31
-8.8817841970012523e-15
0
ARC
5
116
100
AcDbEntity
8
0
100
AcDbCircle
10
-148.09969813944522
20
70.852181828280905
30
0
40
0.99999999999999922
210
2.2070433267161282e-30
220
3.2767663372097518e-31
230
1
100
AcDbArc
50
143.44493442661701
51
230.3115308877224
0
ARC
5
117
100
AcDbEntity
8
0
100
AcDbCircle
10
-162.99998891915098
20
81.899994069635085
30
0
40
17.549200000000006
210
-1.0117245053799051e-30
220
-1.2135764474432471e-30
230
1
100
AcDbArc
50
323.44493442661764
51
324.5550663713957
0
ARC
5
118
100
AcDbEntity
8
0
100
AcDbCircle
10
-147.8884518743244
20
71.142937372618306
30
0
40
1.0000000000000029
210
-1.6866554152936122e-30
220
-2.6668366944075274e-30
230
1
100
AcDbArc
50
57.688469910289612
51
144.55506637139962
0
LINE
5
119
100
AcDbEntity
8
0
100
AcDbLine
10
-147.3539294369306
20
71.988091656712413
30
3.1554436208840416e-30
11
-147.12372730576124
21
71.842499063073973
31
-2.4651903288156619e-31
0
SPLINE
5
120
100
AcDbEntity
8
0
100
AcDbSpline
70
4
71
5
72
81
73
75
74
0
42
0.000000001
43
0.0000000001
44
0.0000000001
40
0
40
0
40
0
40
0
40
0
40
0
40
0.014285714285714285
40
0.028571428571428571
40
0.042857142857142858
40
0.057142857142857141
40
0.071428571428571425
40
0.085714285714285715
40
0.10000000000000001
40
0.1142857142857143
40
0.12857142857142859
40
0.14285714285714288
40
0.15714285714285717
40
0.17142857142857146
40
0.18571428571428575
40
0.20000000000000004
40
0.21428571428571433
40
0.22857142857142862
40
0.24285714285714291
40
0.25714285714285717
40
0.27142857142857146
40
0.28571428571428575
40
0.30000000000000004
40
0.31428571428571433
40
0.32857142857142863
40
0.34285714285714292
40
0.35714285714285721
40
0.3714285714285715
40
0.38571428571428579
40
0.40000000000000008
40
0.41428571428571437
40
0.42857142857142866
40
0.44285714285714295
40
0.45714285714285724
40
0.47142857142857153
40
0.48571428571428582
40
0.50000000000000011
40
0.51428571428571435
40
0.52857142857142858
40
0.54285714285714282
40
0.55714285714285705
40
0.57142857142857129
40
0.58571428571428552
40
0.59999999999999976
40
0.61428571428571399
40
0.62857142857142823
40
0.64285714285714246
40
0.6571428571428567
40
0.67142857142857093
40
0.68571428571428517
40
0.6999999999999994
40
0.71428571428571364
40
0.72857142857142787
40
0.74285714285714211
40
0.75714285714285634
40
0.77142857142857058
40
0.78571428571428481
40
0.79999999999999905
40
0.81428571428571328
40
0.82857142857142752
40
0.84285714285714175
40
0.85714285714285599
40
0.87142857142857022
40
0.88571428571428445
40
0.89999999999999869
40
0.91428571428571292
40
0.92857142857142716
40
0.94285714285714139
40
0.95714285714285563
40
0.97142857142856986
40
0.9857142857142841
40
1
40
1
40
1
40
1
40
1
40
1
41
1
41
1
41
1
41
1
41
1
41
1
41
1
41
1
41
1
41
1
41
1
41
1
41
1
41
1
41
1
41
1
41
1
41
1
41
1
41
1
41
1
41
1
41
1
41
1
41
1
41
1
41
1
41
1
41
1
41
1
41
1
41
1
41
1
41
1
41
1
41
1
41
1
41
1
41
1
41
1
41
1
41
1
41
1
41
1
41
1
41
1
41
1
41
1
41
1
41
1
41
1
41
1
41
1
41
1
41
1
41
1
41
1
41
1
41
1
41
1
41
1
41
1
41
1
41
1
41
1
41
1
41
1
41
1
41
1
41
1
41
1
41
1
41
1
41
1
41
1
10
-147.12372730576124
20
71.842499063073973
30
-8.8817841970012523e-15
10
-147.11576163713028
20
71.837461132494624
30
-8.8817841970012523e-15
10
-147.09970954953258
20
71.827601839014633
30
-8.8817841970012523e-15
10
-147.07526917091064
20
71.813462594800725
30
-8.8817841970012523e-15
10
-147.04199216113273
20
71.795846017563775
30
-8.8817841970012523e-15
10
-146.99944758540167
20
71.775515662430877
30
-8.8817841970012523e-15
10
-146.95621160599825
20
71.756405920581926
30
-8.8817841970012523e-15
10
-146.91253909335185
20
71.738052811888906
30
-8.8817841970012523e-15
10
-146.86862153162494
20
71.720111538169562
30
-8.8817841970012523e-15
10
-146.824536213154
20
71.702450288658611
30
-8.8817841970012523e-15
10
-146.78028366750101
20
71.685079982234882
30
-8.8817841970012523e-15
10
-146.73581771417528
20
71.66809770711663
30
-8.8817841970012523e-15
10
-146.69107703883725
20
71.651627371246732
30
0
10
-146.64601895694153
20
71.635756178510164
30
0
10
-146.60064351288378
20
71.620489382695808
30
0
10
-146.55497655938822
20
71.605782537842458
30
0
10
-146.50905870529419
20
71.591562669150719
30
0
10
-146.46293267254751
20
71.577752431633542
30
0
10
-146.41662973303508
20
71.564296046111508
30
0
10
-146.37016169046771
20
71.551174639037313
30
0
10
-146.32352850519351
20
71.53839171927109
30
0
10
-146.27672307466003
20
71.525964084019435
30
0
10
-146.22973678580937
20
71.513911250021053
30
0
10
-146.18256556545151
20
71.502243936584435
30
0
10
-146.13521292916221
20
71.49095826871438
30
0
10
-146.08768672238506
20
71.480042002983197
30
0
10
-146.03999717152209
20
71.469478256323967
30
0
10
-145.99215457571313
20
71.459249918924314
30
0
10
-145.94416676769248
20
71.449344508163819
30
0
10
-145.8960380230717
20
71.439756257471061
30
0
10
-145.84777047936143
20
71.430483414740038
30
0
10
-145.79936499472942
20
71.421526609814975
30
0
10
-145.75082215912607
20
71.412886930652732
30
0
10
-145.70214341601104
20
71.404563788544991
30
0
10
-145.65333151011586
20
71.396554067707768
30
0
10
-145.60438989309566
20
71.388853261249324
30
0
10
-145.55532237242852
20
71.381456142956196
30
0
10
-145.50613269435084
20
71.374357564692815
30
0
10
-145.45682408113368
20
71.367553339945417
30
0
10
-145.40739905861759
20
71.361040575425747
30
0
10
-145.35785971728436
20
71.354817178163501
30
0
10
-145.30820787207301
20
71.348881554810617
30
0
10
-145.25844525007909
20
71.343232257243727
30
0
10
-145.20857369974956
20
71.337867587621076
30
0
10
-145.15859527452909
20
71.332785439287662
30
0
10
-145.10851212153415
20
71.327983504770373
30
0
10
-145.05832641616001
20
71.323459396325575
30
8.8817841970012523e-15
10
-145.00804028464114
20
71.319210789779305
30
8.8817841970012523e-15
10
-144.95765571872073
20
71.315235580228119
30
8.8817841970012523e-15
10
-144.90717454228462
20
71.311531947656761
30
8.8817841970012523e-15
10
-144.85659846814684
20
71.308098265038822
30
8.8817841970012523e-15
10
-144.80592913568597
20
71.304933039862718
30
8.8817841970012523e-15
10
-144.75516815342874
20
71.302034845017943
30
8.8817841970012523e-15
10
-144.70431714820174
20
71.299402241291759
30
8.8817841970012523e-15
10
-144.653377785196
20
71.297033738621636
30
8.8817841970012523e-15
10
-144.6023517275201
20
71.294927841078362
30
8.8817841970012523e-15
10
-144.55124060805804
20
71.293083072829489
30
8.8817841970012523e-15
10
-144.50004599989987
20
71.291498008018522
30
8.8817841970012523e-15
10
-144.44876938105148
20
71.290171301388852
30
8.8817841970012523e-15
10
-144.39741212410749
20
71.289101702995453
30
0
10
-144.34597555268945
20
71.288288029429296
30
0
10
-144.29446098754727
20
71.287729141040344
30
0
10
-144.24286979349912
20
71.287423916600616
30
0
10
-144.19120343564782
20
71.28737122338363
30
0
10
-144.13946350488058
20
71.287569898962687
30
0
10
-144.08765161272123
20
71.2880187879761
30
0
10
-144.03576930499639
20
71.288716769227051
30
0
10
-143.98381797060887
20
71.289662784830469
30
0
10
-143.93179874807794
20
71.290855866605654
30
0
10
-143.87971244675217
20
71.292295162231454
30
0
10
-143.82755960695684
20
71.29397996315646
30
0
10
-143.7857843596156
20
71.295523777590461
30
0
10
-143.7544231931476
20
71.29679171960386
30
0
10
-143.7335025394506
20
71.297685922999591
30
0
10
-143.72303891025655
20
71.298145251877656
30
0
0
ARC
5
121
100
AcDbEntity
8
0
100
AcDbCircle
10
-162.99998891915098
20
81.899994069635085
30
0
40
21.999999999999979
210
7.3479242472880893e-31
220
1.3360459182069087e-30
230
1
100
AcDbArc
50
331.19028719973193
51
334.80971359828158
0
SPLINE
5
122
100
AcDbEntity
8
0
100
AcDbSpline
70
4
71
5
72
81
73
75
74
0
42
0.000000001
43
0.0000000001
44
0.0000000001
40
0
40
0
40
0
40
0
40
0
40
0
40
0.014285714285714285
40
0.028571428571428571
40
0.042857142857142858
40
0.057142857142857141
40
0.071428571428571425
40
0.085714285714285715
40
0.10000000000000001
40
0.1142857142857143
40
0.12857142857142859
40
0.14285714285714288
40
0.15714285714285717
40
0.17142857142857146
40
0.18571428571428575
40
0.20000000000000004
40
0.21428571428571433
40
0.22857142857142862
40
0.24285714285714291
40
0.25714285714285717
40
0.27142857142857146
40
0.28571428571428575
40
0.30000000000000004
40
0.31428571428571433
40
0.32857142857142863
40
0.34285714285714292
40
0.35714285714285721
40
0.3714285714285715
40
0.38571428571428579
40
0.40000000000000008
40
0.41428571428571437
40
0.42857142857142866
40
0.44285714285714295
40
0.45714285714285724
40
0.47142857142857153
40
0.48571428571428582
40
0.50000000000000011
40
0.51428571428571435
40
0.52857142857142858
40
0.54285714285714282
40
0.55714285714285705
40
0.57142857142857129
40
0.58571428571428552
40
0.59999999999999976
40
0.61428571428571399
40
0.62857142857142823
40
0.64285714285714246
40
0.6571428571428567
40
0.67142857142857093
40
0.68571428571428517
40
0.6999999999999994
40
0.71428571428571364
40
0.72857142857142787
40
0.74285714285714211
40
0.75714285714285634
40
0.77142857142857058
40
0.78571428571428481
40
0.79999999999999905
40
0.81428571428571328
40
0.82857142857142752
40
0.84285714285714175
40
0.85714285714285599
40
0.87142857142857022
40
0.88571428571428445
40
0.89999999999999869
40
0.91428571428571292
40
0.92857142857142716
40
0.94285714285714139
40
0.95714285714285563
40
0.97142857142856986
40
0.9857142857142841
40
1
40
1
40
1
40
1
40
1
40
1
41
1
41
1
41
1
41
1
41
1
41
1
41
1
41
1
41
1
41
1
41
1
41
1
41
1
41
1
41
1
41
1
41
1
41
1
41
1
41
1
41
1
41
1
41
1
41
1
41
1
41
1
41
1
41
1
41
1
41
1
41
1
41
1
41
1
41
1
41
1
41
1
41
1
41
1
41
1
41
1
41
1
41
1
41
1
41
1
41
1
41
1
41
1
41
1
41
1
41
1
41
1
41
1
41
1
41
1
41
1
41
1
41
1
41
1
41
1
41
1
41
1
41
1
41
1
41
1
41
1
41
1
41
1
41
1
41
1
41
1
41
1
41
1
41
1
41
1
41
1
10
-145.53147200355841
20
74.967476100422871
30
-8.8817841970012523e-15
10
-145.52271412950878
20
74.963992960547444
30
-8.8817841970012523e-15
10
-145.50530261307233
20
74.9568016964338
30
-8.8817841970012523e-15
10
-145.47949802994162
20
74.945339854366594
30
-8.8817841970012523e-15
10
-145.44568618375561
20
74.928772952700967
30
-8.8817841970012523e-15
10
-145.4042315064587
20
74.90630355141441
30
-8.8817841970012523e-15
10
-145.3633579291523
20
74.882557334311826
30
-8.8817841970012523e-15
10
-145.32283989311406
20
74.858013216581639
30
-8.8817841970012523e-15
10
-145.28251100232669
20
74.833028779454352
30
-8.8817841970012523e-15
10
-145.24231005093844
20
74.807744030168436
30
-8.8817841970012523e-15
10
-145.20224618377648
20
74.782152979192489
30
-8.8817841970012523e-15
10
-145.16237080264665
20
74.756161198701164
30
-8.8817841970012523e-15
10
-145.12274811151426
20
74.729646253089356
30
-8.8817841970012523e-15
10
-145.08342357045672
20
74.702522352676354
30
0
10
-145.04440145597357
20
74.674786445279238
30
8.8817841970012523e-15
10
-145.00566100637758
20
74.646485570872144
30
8.8817841970012523e-15
10
-144.96716705309379
20
74.617695476207516
30
8.8817841970012523e-15
10
-144.92888213404407
20
74.588496186308845
30
8.8817841970012523e-15
10
-144.89077950407915
20
74.558945786843509
30
8.8817841970012523e-15
10
-144.85285083222584
20
74.529064920806974
30
8.8817841970012523e-15
10
-144.81509893390481
20
74.498851493663921
30
8.8817841970012523e-15
10
-144.77753322356591
20
74.468289886178326
30
8.8817841970012523e-15
10
-144.74016442795369
20
74.437361658588557
30
8.8817841970012523e-15
10
-144.70299882500979
20
74.406057214963226
30
8.8817841970012523e-15
10
-144.66603534620083
20
74.374381677127829
30
0
10
-144.629268697822
20
74.342348588685908
30
0
10
-144.59269123211382
20
74.309976146588369
30
0
10
-144.55629516063004
20
74.277282739909808
30
0
10
-144.52007498868457
20
74.2442820425657
30
0
10
-144.4840285641645
20
74.210980903104073
30
0
10
-144.4481557259837
20
74.177382080669489
30
0
10
-144.41245748811517
20
74.143485899321064
30
0
10
-144.37693507749862
20
74.109292196853673
30
0
10
-144.34158886630334
20
74.074802487084781
30
0
10
-144.30641794711991
20
74.040020821960695
30
0
10
-144.2714207026284
20
74.004952643013638
30
0
10
-144.23659514271279
20
73.969604102449267
30
0
10
-144.20193930442659
20
73.933981257034759
30
0
10
-144.16745169481246
20
73.898089174413158
30
0
10
-144.1331314578029
20
73.861931598664597
30
0
10
-144.09897812890381
20
73.825511451241482
30
0
10
-144.06499148586389
20
73.788831137006781
30
0
10
-144.03117137228807
20
73.751892904395703
30
-8.8817841970012523e-15
10
-143.99751750108345
20
73.71469924679964
30
-8.8817841970012523e-15
10
-143.96402937491484
20
73.677253063750953
30
-8.8817841970012523e-15
10
-143.93070638904072
20
73.639557448601991
30
-8.8817841970012523e-15
10
-143.89754789040123
20
73.601615564765112
30
0
10
-143.86455324846941
20
73.563430498515203
30
0
10
-143.83172193105995
20
73.525005098437617
30
0
10
-143.79905353780276
20
73.486341909865118
30
0
10
-143.76654775917277
20
73.447443274835507
30
0
10
-143.73420435130524
20
73.408311396910207
30
0
10
-143.70202310511186
20
73.368948416249168
30
0
10
-143.67000381246982
20
73.329356494930835
30
0
10
-143.63814624666793
20
73.289537855959793
30
0
10
-143.60645017502475
20
73.249494724104267
30
0
10
-143.57491536335198
20
73.209229287867728
30
0
10
-143.54354158274654
20
73.168743658004189
30
0
10
-143.51232861362317
20
73.128039820967516
30
0
10
-143.48127625154595
20
73.087119621909352
30
-8.8817841970012523e-15
10
-143.45038431712214
20
73.045984827252425
30
-8.8817841970012523e-15
10
-143.41965266467278
20
73.004637175375279
30
0
10
-143.38908118932545
20
72.963078429480362
30
0
10
-143.35866983585103
20
72.921310440660605
30
0
10
-143.32841859892659
20
72.879335179228107
30
0
10
-143.2983274910749
20
72.837154628037581
30
0
10
-143.26839651384279
20
72.794770696711979
30
0
10
-143.23862562775989
20
72.752185130706536
30
0
10
-143.20901471875638
20
72.709399420185036
30
8.8817841970012523e-15
10
-143.17956357301313
20
72.666414720906005
30
8.8817841970012523e-15
10
-143.15027193489527
20
72.623231886477882
30
8.8817841970012523e-15
10
-143.12696603222713
20
72.588527570402618
30
8.8817841970012523e-15
10
-143.10955818735553
20
72.562410576392793
30
8.8817841970012523e-15
10
-143.0979847611446
20
72.54495981261114
30
8.8817841970012523e-15
10
-143.0922059989656
20
72.536224572110342
30
8.8817841970012523e-15
0
LINE
5
123
100
AcDbEntity
8
0
100
AcDbLine
10
-145.53147200355841
20
74.967476100422871
30
-8.8817841970012523e-15
11
-145.78456830521668
21
75.068136353771436
31
-8.8817841970012523e-15
0
ARC
5
124
100
AcDbEntity
8
0
100
AcDbCircle
10
-145.41500854517722
20
75.997343318747241
30
0
40
0.99999999999999245
210
-5.0205619806233533e-31
220
-1.4957090910774234e-30
230
1
100
AcDbArc
50
161.44493442661744
51
248.31153088772291
0
ARC
5
125
100
AcDbEntity
8
0
100
AcDbCircle
10
-162.99998891915098
20
81.899994069635085
30
0
40
17.549199999999995
210
-5.0196196296447374e-31
220
-1.4954283490148755e-30
230
1
100
AcDbArc
50
341.44493442661769
51
342.55506637139609
0
ARC
5
126
100
AcDbEntity
8
0
100
AcDbCircle
10
-145.30394981260002
20
76.33914695975885
30
0
40
1.0000000000000029
210
-3.978170632784177e-31
220
-3.1550184485496772e-30
230
1
100
AcDbArc
50
75.68846991028893
51
162.55506637139388
0
LINE
5
127
100
AcDbEntity
8
0
100
AcDbLine
10
-145.05675580206454
20
77.308112965950698
30
3.1554436208840413e-30
11
-144.79282997946149
21
77.240782551719207
31
1.2325951644078309e-31
0
SPLINE
5
128
100
AcDbEntity
8
0
100
AcDbSpline
70
4
71
5
72
81
73
75
74
0
42
0.000000001
43
0.0000000001
44
0.0000000001
40
0
40
0
40
0
40
0
40
0
40
0
40
0.014285714285714285
40
0.028571428571428571
40
0.042857142857142858
40
0.057142857142857141
40
0.071428571428571425
40
0.085714285714285715
40
0.10000000000000001
40
0.1142857142857143
40
0.12857142857142859
40
0.14285714285714288
40
0.15714285714285717
40
0.17142857142857146
40
0.18571428571428575
40
0.20000000000000004
40
0.21428571428571433
40
0.22857142857142862
40
0.24285714285714291
40
0.25714285714285717
40
0.27142857142857146
40
0.28571428571428575
40
0.30000000000000004
40
0.31428571428571433
40
0.32857142857142863
40
0.34285714285714292
40
0.35714285714285721
40
0.3714285714285715
40
0.38571428571428579
40
0.40000000000000008
40
0.41428571428571437
40
0.42857142857142866
40
0.44285714285714295
40
0.45714285714285724
40
0.47142857142857153
40
0.48571428571428582
40
0.50000000000000011
40
0.51428571428571435
40
0.52857142857142858
40
0.54285714285714282
40
0.55714285714285705
40
0.57142857142857129
40
0.58571428571428552
40
0.59999999999999976
40
0.61428571428571399
40
0.62857142857142823
40
0.64285714285714246
40
0.6571428571428567
40
0.67142857142857093
40
0.68571428571428517
40
0.6999999999999994
40
0.71428571428571364
40
0.72857142857142787
40
0.74285714285714211
40
0.75714285714285634
40
0.77142857142857058
40
0.78571428571428481
40
0.79999999999999905
40
0.81428571428571328
40
0.82857142857142752
40
0.84285714285714175
40
0.85714285714285599
40
0.87142857142857022
40
0.88571428571428445
40
0.89999999999999869
40
0.91428571428571292
40
0.92857142857142716
40
0.94285714285714139
40
0.95714285714285563
40
0.97142857142856986
40
0.9857142857142841
40
1
40
1
40
1
40
1
40
1
40
1
41
1
41
1
41
1
41
1
41
1
41
1
41
1
41
1
41
1
41
1
41
1
41
1
41
1
41
1
41
1
41
1
41
1
41
1
41
1
41
1
41
1
41
1
41
1
41
1
41
1
41
1
41
1
41
1
41
1
41
1
41
1
41
1
41
1
41
1
41
1
41
1
41
1
41
1
41
1
41
1
41
1
41
1
41
1
41
1
41
1
41
1
41
1
41
1
41
1
41
1
41
1
41
1
41
1
41
1
41
1
41
1
41
1
41
1
41
1
41
1
41
1
41
1
41
1
41
1
41
1
41
1
41
1
41
1
41
1
41
1
41
1
41
1
41
1
41
1
41
1
10
-144.79282997946149
20
77.240782551719207
30
0
10
-144.78369737223787
20
77.238452721991621
30
0
10
-144.76538424049008
20
77.234036344544279
30
0
10
-144.73777079239127
20
77.228141616542288
30
0
10
-144.70067865365024
20
77.221670417509628
30
0
10
-144.65393393243045
20
77.215482097701283
30
0
10
-144.60690883749098
20
77.210668305595206
30
0
10
-144.55970238726988
20
77.206709010573221
30
0
10
-144.51239014552971
20
77.203217118216941
30
0
10
-144.4650048898842
20
77.200043384393581
30
0
10
-144.41755049809584
20
77.197198029930377
30
0
10
-144.37001305181744
20
77.19478766176637
30
0
10
-144.3223725273069
20
77.192949070531014
30
0
10
-144.27461527663161
20
77.19177838229723
30
0
10
-144.22674296552441
20
77.191280579996217
30
0
10
-144.1787664468298
20
77.191405404075738
30
0
10
-144.13070179139584
20
77.192070902555884
30
0
10
-144.0825657292921
20
77.193190314175411
30
0
10
-144.03437076513603
20
77.194700926237743
30
0
10
-143.98612229267681
20
77.196581141385522
30
0
10
-143.93782135850068
20
77.198834308996155
30
0
10
-143.88946639830118
20
77.201478598971804
30
0
10
-143.84105525157733
20
77.204535234415289
30
0
10
-143.79258735694381
20
77.208015668679707
30
0
10
-143.74406486047238
20
77.211915130053001
30
0
10
-143.69549144019612
20
77.216219549968088
30
0
10
-143.64687160484672
20
77.220909711542092
30
0
10
-143.59820986226546
20
77.225966159767253
30
0
10
-143.54950980448345
20
77.231374602518102
30
0
10
-143.50077371588034
20
77.237128234222624
30
0
10
-143.45200308791908
20
77.243224728001934
30
0
10
-143.40319893139824
20
77.249664417685011
30
0
10
-143.35436214359115
20
77.256448155675642
30
0
10
-143.30549391538864
20
77.263574936025364
30
0
10
-143.25659589435534
20
77.271040947278877
30
0
10
-143.20766997050421
20
77.278840836507271
30
0
10
-143.15871814997328
20
77.286968456710781
30
0
10
-143.10974240478379
20
77.295417754070783
30
0
10
-143.06074450579362
20
77.304183751239606
30
0
10
-143.01172596114472
20
77.31326291600891
30
0
10
-142.96268811224002
20
77.322652611851254
30
0
10
-142.91363219281746
20
77.332350762555606
30
0
10
-142.86455939794774
20
77.342355457172914
30
0
10
-142.81547096094647
20
77.352664509758156
30
0
10
-142.76636818376343
20
77.363275282214119
30
0
10
-142.71725239537926
20
77.374184916507971
30
0
10
-142.66812492686452
20
77.385390469526399
30
0
10
-142.61898708217899
20
77.396889073806094
30
0
10
-142.56984010513213
20
77.408678111982411
30
0
10
-142.52068516792687
20
77.420755289506275
30
0
10
-142.47152339676728
20
77.433118529694923
30
0
10
-142.42235588958363
20
77.445765906489697
30
0
10
-142.37318373517425
20
77.458695565565733
30
0
10
-142.32400803600211
20
77.471905635433302
30
-8.8817841970012523e-15
10
-142.27482991530331
20
77.485394184386422
30
-8.8817841970012523e-15
10
-142.22565049252049
20
77.499159275783057
30
-8.8817841970012523e-15
10
-142.1764708645614
20
77.513199001434231
30
-8.8817841970012523e-15
10
-142.12729208690959
20
77.527511519158239
30
-8.8817841970012523e-15
10
-142.07811514952516
20
77.542095092811124
30
-8.8817841970012523e-15
10
-142.02894097156877
20
77.556948109469431
30
0
10
-141.97977044618597
20
77.572069034622757
30
0
10
-141.93060447731324
20
77.587456376265337
30
0
10
-141.88144401649134
20
77.603108646293975
30
0
10
-141.83229010708408
20
77.619024314680104
30
0
10
-141.78314390290555
20
77.635201784279062
30
0
10
-141.73400657957953
20
77.651639458288315
30
8.8817841970012523e-15
10
-141.6848792608057
20
77.668335792699651
30
8.8817841970012523e-15
10
-141.63576294060459
20
77.685289352209992
30
8.8817841970012523e-15
10
-141.58665840258817
20
77.702498864202994
30
8.8817841970012523e-15
10
-141.5375661531109
20
77.71996326797057
30
8.8817841970012523e-15
10
-141.48848648709821
20
77.737681722670629
30
8.8817841970012523e-15
10
-141.44923293079077
20
77.752059238820706
30
8.8817841970012523e-15
10
-141.41979850469278
20
77.762956256736857
30
0
10
-141.4001781047148
20
77.770271532229074
30
0
10
-141.39036854241505
20
77.773941819195457
30
0
0
ARC
5
129
100
AcDbEntity
8
0
100
AcDbCircle
10
-162.99998891915098
20
81.899994069635085
30
0
40
21.999999999999975
210
-8.6851247961320703e-31
220
-3.0909087244221134e-30
230
1
100
AcDbArc
50
349.19028719973187
51
352.80971359828152
0
SPLINE
5
130
100
AcDbEntity
8
0
100
AcDbSpline
70
4
71
5
72
81
73
75
74
0
42
0.000000001
43
0.0000000001
44
0.0000000001
40
0
40
0
40
0
40
0
40
0
40
0
40
0.014285714285714285
40
0.028571428571428571
40
0.042857142857142858
40
0.057142857142857141
40
0.071428571428571425
40
0.085714285714285715
40
0.10000000000000001
40
0.1142857142857143
40
0.12857142857142859
40
0.14285714285714288
40
0.15714285714285717
40
0.17142857142857146
40
0.18571428571428575
40
0.20000000000000004
40
0.21428571428571433
40
0.22857142857142862
40
0.24285714285714291
40
0.25714285714285717
40
0.27142857142857146
40
0.28571428571428575
40
0.30000000000000004
40
0.31428571428571433
40
0.32857142857142863
40
0.34285714285714292
40
0.35714285714285721
40
0.3714285714285715
40
0.38571428571428579
40
0.40000000000000008
40
0.41428571428571437
40
0.42857142857142866
40
0.44285714285714295
40
0.45714285714285724
40
0.47142857142857153
40
0.48571428571428582
40
0.50000000000000011
40
0.51428571428571435
40
0.52857142857142858
40
0.54285714285714282
40
0.55714285714285705
40
0.57142857142857129
40
0.58571428571428552
40
0.59999999999999976
40
0.61428571428571399
40
0.62857142857142823
40
0.64285714285714246
40
0.6571428571428567
40
0.67142857142857093
40
0.68571428571428517
40
0.6999999999999994
40
0.71428571428571364
40
0.72857142857142787
40
0.74285714285714211
40
0.75714285714285634
40
0.77142857142857058
40
0.78571428571428481
40
0.79999999999999905
40
0.81428571428571328
40
0.82857142857142752
40
0.84285714285714175
40
0.85714285714285599
40
0.87142857142857022
40
0.88571428571428445
40
0.89999999999999869
40
0.91428571428571292
40
0.92857142857142716
40
0.94285714285714139
40
0.95714285714285563
40
0.97142857142856986
40
0.9857142857142841
40
1
40
1
40
1
40
1
40
1
40
1
41
1
41
1
41
1
41
1
41
1
41
1
41
1
41
1
41
1
41
1
41
1
41
1
41
1
41
1
41
1
41
1
41
1
41
1
41
1
41
1
41
1
41
1
41
1
41
1
41
1
41
1
41
1
41
1
41
1
41
1
41
1
41
1
41
1
41
1
41
1
41
1
41
1
41
1
41
1
41
1
41
1
41
1
41
1
41
1
41
1
41
1
41
1
41
1
41
1
41
1
41
1
41
1
41
1
41
1
41
1
41
1
41
1
41
1
41
1
41
1
41
1
41
1
41
1
41
1
41
1
41
1
41
1
41
1
41
1
41
1
41
1
41
1
41
1
41
1
41
1
10
-144.24417621026828
20
80.704846274126908
30
0
10
-144.23477062766918
20
80.704239943167138
30
0
10
-144.21598906868158
20
80.702781099048167
30
0
10
-144.18790554775921
20
80.699854294181563
30
-8.8817841970012523e-15
10
-144.15062911695725
20
80.694546669480303
30
-8.8817841970012523e-15
10
-144.10425994913211
20
80.685987198750553
30
-8.8817841970012523e-15
10
-144.05804888245373
20
80.676033834246368
30
-8.8817841970012523e-15
10
-144.01192939076157
20
80.665211752856848
30
-8.8817841970012523e-15
10
-143.96585372071604
20
80.653912453738542
30
-8.8817841970012523e-15
10
-143.9198069267091
20
80.642288005336326
30
-8.8817841970012523e-15
10
-143.87379585512127
20
80.630329885360226
30
-8.8817841970012523e-15
10
-143.82784021217211
20
80.617932403580141
30
-8.8817841970012523e-15
10
-143.78196322477851
20
80.604959276699603
30
-8.8817841970012523e-15
10
-143.73618161757406
20
80.591314865947254
30
-8.8817841970012523e-15
10
-143.69049851457513
20
80.576994947013603
30
-8.8817841970012523e-15
10
-143.6449087063952
20
80.562050673286777
30
-8.8817841970012523e-15
10
-143.59940215276566
20
80.546564951896585
30
-8.8817841970012523e-15
10
-143.55396795422524
20
80.530625467581899
30
-8.8817841970012523e-15
10
-143.50859862408373
20
80.5142957278008
30
-8.8817841970012523e-15
10
-143.46329261815131
20
80.49759793962096
30
-8.8817841970012523e-15
10
-143.41805196680508
20
80.480529241008043
30
0
10
-143.37288079710953
20
80.463071867960906
30
0
10
-143.32778361260529
20
80.445204968477725
30
0
10
-143.28276341866376
20
80.426917476294705
30
0
10
-143.23782078178047
20
80.408214592752373
30
0
10
-143.19295485254659
20
80.389110834427896
30
0
10
-143.14816398067771
20
80.369625870937625
30
0
10
-143.10344644145783
20
80.349779598093079
30
0
10
-143.05880123460219
20
80.329586718512019
30
0
10
-143.01422842964757
20
80.309054410590136
30
0
10
-142.96972872601444
20
80.288185348208216
30
0
10
-142.92530318818822
20
80.266979526229889
30
0
10
-142.88095293293381
20
80.245436411243688
30
0
10
-142.83667878200055
20
80.223557327968976
30
0
10
-142.79248112451108
20
80.201346410440578
30
0
10
-142.74836010382862
20
80.178809333642548
30
0
10
-142.70431572837651
20
80.155952563649834
30
0
10
-142.66034800292567
20
80.132782467374128
30
0
10
-142.61645707357712
20
80.109304325779576
30
0
10
-142.5726432831467
20
80.085521964237415
30
-8.8817841970012523e-15
10
-142.52890709265264
20
80.061438304750524
30
0
10
-142.48524903386499
20
80.037055703158941
30
0
10
-142.44166965284788
20
80.012376346180375
30
0
10
-142.39816944706001
20
79.987402693887503
30
0
10
-142.35474883951235
20
79.962137657584563
30
0
10
-142.31140821095988
20
79.936584366099794
30
0
10
-142.26814791785407
20
79.910746029823784
30
0
10
-142.22496831423942
20
79.884625778821899
30
0
10
-142.18186977423895
20
79.858226486714102
30
0
10
-142.1388527036292
20
79.831550697976866
30
0
10
-142.09591753176372
20
79.804600735669041
30
0
10
-142.0530647076514
20
79.777378770860366
30
0
10
-142.01029469378318
20
79.749886903575799
30
0
10
-141.9676079603415
20
79.72212725438763
30
0
10
-141.92500497865737
20
79.69410200755641
30
0
10
-141.8824862149288
20
79.665813350865008
30
0
10
-141.84005212271427
20
79.637263438072083
30
0
10
-141.79770313657286
20
79.608454347358929
30
0
10
-141.75543966151457
20
79.579388035811021
30
8.8817841970012523e-15
10
-141.71326207329247
20
79.550066321445996
30
8.8817841970012523e-15
10
-141.67117074714861
20
79.520490939667141
30
8.8817841970012523e-15
10
-141.62916608172259
20
79.490663588787953
30
8.8817841970012523e-15
10
-141.58724852213433
20
79.46058597812096
30
8.8817841970012523e-15
10
-141.54541858787695
20
79.430259885226931
30
0
10
-141.50367688274804
20
79.399687185628878
30
0
10
-141.46202403139316
20
79.368869761263937
30
0
10
-141.42046062538947
20
79.337809427813482
30
0
10
-141.37898716657364
20
79.306507857501131
30
0
10
-141.3376040069449
20
79.274966502806322
30
0
10
-141.29631130029813
20
79.243186528994485
30
0
10
-141.2551090672896
20
79.211168826891026
30
0
10
-141.22221961324351
20
79.185364980937763
30
0
10
-141.19759317395267
20
79.16590556349945
30
0
10
-141.18119360896557
20
79.152885286272891
30
0
10
-141.17299834177442
20
79.146363314592961
30
0
0
LINE
5
131
100
AcDbEntity
8
0
100
AcDbLine
10
-144.24417621026828
20
80.704846274126908
30
0
11
-144.51599082615337
21
80.722368805580118
31
-9.2444637330587321e-32
0
ARC
5
132
100
AcDbEntity
8
0
100
AcDbCircle
10
-144.45165935167645
20
81.720297390896533
30
0
40
0.99999999999999178
210
-7.6417314095925916e-31
220
7.403328418984659e-33
230
1
100
AcDbArc
50
179.44493442661815
51
266.31153088772294
0
ARC
5
133
100
AcDbEntity
8
0
100
AcDbCircle
10
-162.99998891915098
20
81.899994069635085
30
0
40
17.549199999999995
210
4.3433568453486272e-32
220
-1.1884011929125244e-32
230
1
100
AcDbArc
50
-0.55506557338247819
51
0.55506637139511084
0
ARC
5
134
100
AcDbEntity
8
0
100
AcDbCircle
10
-144.45165935417927
20
82.079691006714114
30
0
40
1.000000000000006
210
-1.0793430773686698e-30
220
-1.6505765871353756e-30
230
1
100
AcDbArc
50
93.688469910289669
51
180.55506637140627
0
LINE
5
135
100
AcDbEntity
8
0
100
AcDbLine
10
-144.51599084255528
20
83.077619591134521
30
1.5777218104420178e-30
11
-144.24417622691422
21
83.09514212637356
31
1.5407439555097887e-31
0
SPLINE
5
136
100
AcDbEntity
8
0
100
AcDbSpline
70
4
71
5
72
81
73
75
74
0
42
0.000000001
43
0.0000000001
44
0.0000000001
40
0
40
0
40
0
40
0
40
0
40
0
40
0.014285714285714285
40
0.028571428571428571
40
0.042857142857142858
40
0.057142857142857141
40
0.071428571428571425
40
0.085714285714285715
40
0.10000000000000001
40
0.1142857142857143
40
0.12857142857142859
40
0.14285714285714288
40
0.15714285714285717
40
0.17142857142857146
40
0.18571428571428575
40
0.20000000000000004
40
0.21428571428571433
40
0.22857142857142862
40
0.24285714285714291
40
0.25714285714285717
40
0.27142857142857146
40
0.28571428571428575
40
0.30000000000000004
40
0.31428571428571433
40
0.32857142857142863
40
0.34285714285714292
40
0.35714285714285721
40
0.3714285714285715
40
0.38571428571428579
40
0.40000000000000008
40
0.41428571428571437
40
0.42857142857142866
40
0.44285714285714295
40
0.45714285714285724
40
0.47142857142857153
40
0.48571428571428582
40
0.50000000000000011
40
0.51428571428571435
40
0.52857142857142858
40
0.54285714285714282
40
0.55714285714285705
40
0.57142857142857129
40
0.58571428571428552
40
0.59999999999999976
40
0.61428571428571399
40
0.62857142857142823
40
0.64285714285714246
40
0.6571428571428567
40
0.67142857142857093
40
0.68571428571428517
40
0.6999999999999994
40
0.71428571428571364
40
0.72857142857142787
40
0.74285714285714211
40
0.75714285714285634
40
0.77142857142857058
40
0.78571428571428481
40
0.79999999999999905
40
0.81428571428571328
40
0.82857142857142752
40
0.84285714285714175
40
0.85714285714285599
40
0.87142857142857022
40
0.88571428571428445
40
0.89999999999999869
40
0.91428571428571292
40
0.92857142857142716
40
0.94285714285714139
40
0.95714285714285563
40
0.97142857142856986
40
0.9857142857142841
40
1
40
1
40
1
40
1
40
1
40
1
41
1
41
1
41
1
41
1
41
1
41
1
41
1
41
1
41
1
41
1
41
1
41
1
41
1
41
1
41
1
41
1
41
1
41
1
41
1
41
1
41
1
41
1
41
1
41
1
41
1
41
1
41
1
41
1
41
1
41
1
41
1
41
1
41
1
41
1
41
1
41
1
41
1
41
1
41
1
41
1
41
1
41
1
41
1
41
1
41
1
41
1
41
1
41
1
41
1
41
1
41
1
41
1
41
1
41
1
41
1
41
1
41
1
41
1
41
1
41
1
41
1
41
1
41
1
41
1
41
1
41
1
41
1
41
1
41
1
41
1
41
1
41
1
41
1
41
1
41
1
10
-144.24417622691425
20
83.09514212637356
30
0
10
-144.23477064432362
20
83.095748457464325
30
0
10
-144.21598908535631
20
83.097207301844918
30
0
10
-144.18790556447473
20
83.100134107102662
30
0
10
-144.15062913374666
20
83.105441732323087
30
0
10
-144.10425996604079
20
83.114001203698663
30
0
10
-144.05804889950102
20
83.123954568846472
30
0
10
-144.01192940795954
20
83.134776650878322
30
0
10
-143.96585373807142
20
83.146075950638362
30
-8.8817841970012523e-15
10
-143.91980694422639
20
83.157700399681943
30
-8.8817841970012523e-15
10
-143.87379587280512
20
83.169658520298881
30
-8.8817841970012523e-15
10
-143.82784023002861
20
83.182056002719065
30
-8.8817841970012523e-15
10
-143.78196324281572
20
83.195029130238552
30
-8.8817841970012523e-15
10
-143.7361816358013
20
83.208673541628556
30
-8.8817841970012523e-15
10
-143.6904985330018
20
83.222993461198485
30
-8.8817841970012523e-15
10
-143.64490872503004
20
83.237937735560266
30
-8.8817841970012523e-15
10
-143.59940217161619
20
83.253423457584276
30
-8.8817841970012523e-15
10
-143.55396797329777
20
83.269362942531785
30
0
10
-143.50859864338372
20
83.285692682944756
30
0
10
-143.46329263768382
20
83.302390471755615
30
0
10
-143.41805198657534
20
83.319459170998641
30
8.8817841970012523e-15
10
-143.37288081712293
20
83.336916544674921
30
8.8817841970012523e-15
10
-143.32778363286758
20
83.354783444786236
30
8.8817841970012523e-15
10
-143.28276343918071
20
83.373070937596282
30
8.8817841970012523e-15
10
-143.23782080255793
20
83.391773821764573
30
8.8817841970012523e-15
10
-143.19295487359014
20
83.410877580713958
30
8.8817841970012523e-15
10
-143.14816400199265
20
83.430362544828057
30
8.8817841970012523e-15
10
-143.10344646304918
20
83.450208818295437
30
0
10
-143.05880125647477
20
83.470401698498321
30
0
10
-143.01422845180613
20
83.490934007041005
30
0
10
-142.96972874846367
20
83.511803070042717
30
0
10
-142.92530321093278
20
83.533008892639785
30
0
10
-142.88095295597844
20
83.554552008243689
30
0
10
-142.83667880534989
20
83.576431092135095
30
0
10
-142.79248114816977
20
83.59864201027905
30
0
10
-142.74836012780122
20
83.621179087691587
30
0
10
-142.70431575266747
20
83.644035858297769
30
0
10
-142.66034802753933
20
83.66720595518585
30
0
10
-142.6164570985178
20
83.69068409739171
30
0
10
-142.57264330841861
20
83.714466459544099
30
0
10
-142.52890711825998
20
83.738550119640138
30
0
10
-142.48524905981193
20
83.762932721839789
30
0
10
-142.44166967913856
20
83.787612079425344
30
0
10
-142.39816947369854
20
83.812585732324067
30
0
10
-142.35474886650275
20
83.837850769231778
30
-8.8817841970012523e-15
10
-142.3114082383062
20
83.863404061320196
30
-8.8817841970012523e-15
10
-142.26814794556023
20
83.889242398198732
30
0
10
-142.22496834230938
20
83.915362649802034
30
0
10
-142.18186980267663
20
83.941761942510098
30
0
10
-142.13885273243841
20
83.968437731846478
30
0
10
-142.09591756094829
20
83.995387694752296
30
0
10
-142.05306473721512
20
84.022609660157812
30
0
10
-142.01029472372983
20
84.050101528038098
30
0
10
-141.96760799067476
20
84.077861177820807
30
0
10
-141.92500500938095
20
84.105886425245387
30
0
10
-141.88248624604643
20
84.134175082528998
30
0
10
-141.84005215422951
20
84.162724995912939
30
0
10
-141.79770316848936
20
84.191534087215956
30
0
10
-141.75543969383591
20
84.220600399352477
30
0
10
-141.7132621060222
20
84.249922114304951
30
0
10
-141.67117078029025
20
84.279497496670061
30
0
10
-141.6291661152797
20
84.309324848134281
30
0
10
-141.58724855611035
20
84.339402459385099
30
0
10
-141.54541862227535
20
84.369728552861744
30
0
10
-141.50367691757222
20
84.400301253041178
30
0
10
-141.46202406664659
20
84.431118677986262
30
0
10
-141.42046066107548
20
84.462179012015582
30
0
10
-141.37898720269564
20
84.493480582905605
30
0
10
-141.33760404350619
20
84.525021938176792
30
8.8817841970012523e-15
10
-141.29631133730206
20
84.556801912563742
30
8.8817841970012523e-15
10
-141.25510910473946
20
84.588819615241079
30
8.8817841970012523e-15
10
-141.22221965105274
20
84.6146234616524
30
8.8817841970012523e-15
10
-141.19759321203298
20
84.63408287943372
30
0
10
-141.18119364722722
20
84.64710315688869
30
0
10
-141.17299838012687
20
84.653625128682762
30
0
0
ARC
5
137
100
AcDbEntity
8
0
100
AcDbCircle
10
-162.99998891915098
20
81.899994069635085
30
0
40
22
210
-7.1059471996636581e-32
220
-1.6211175571061687e-30
230
1
100
AcDbArc
50
7.1902871997318636
51
10.809713598281631
0
SPLINE
5
138
100
AcDbEntity
8
0
100
AcDbSpline
70
4
71
5
72
81
73
75
74
0
42
0.000000001
43
0.0000000001
44
0.0000000001
40
0
40
0
40
0
40
0
40
0
40
0
40
0.014285714285714285
40
0.028571428571428571
40
0.042857142857142858
40
0.057142857142857141
40
0.071428571428571425
40
0.085714285714285715
40
0.10000000000000001
40
0.1142857142857143
40
0.12857142857142859
40
0.14285714285714288
40
0.15714285714285717
40
0.17142857142857146
40
0.18571428571428575
40
0.20000000000000004
40
0.21428571428571433
40
0.22857142857142862
40
0.24285714285714291
40
0.25714285714285717
40
0.27142857142857146
40
0.28571428571428575
40
0.30000000000000004
40
0.31428571428571433
40
0.32857142857142863
40
0.34285714285714292
40
0.35714285714285721
40
0.3714285714285715
40
0.38571428571428579
40
0.40000000000000008
40
0.41428571428571437
40
0.42857142857142866
40
0.44285714285714295
40
0.45714285714285724
40
0.47142857142857153
40
0.48571428571428582
40
0.50000000000000011
40
0.51428571428571435
40
0.52857142857142858
40
0.54285714285714282
40
0.55714285714285705
40
0.57142857142857129
40
0.58571428571428552
40
0.59999999999999976
40
0.61428571428571399
40
0.62857142857142823
40
0.64285714285714246
40
0.6571428571428567
40
0.67142857142857093
40
0.68571428571428517
40
0.6999999999999994
40
0.71428571428571364
40
0.72857142857142787
40
0.74285714285714211
40
0.75714285714285634
40
0.77142857142857058
40
0.78571428571428481
40
0.79999999999999905
40
0.81428571428571328
40
0.82857142857142752
40
0.84285714285714175
40
0.85714285714285599
40
0.87142857142857022
40
0.88571428571428445
40
0.89999999999999869
40
0.91428571428571292
40
0.92857142857142716
40
0.94285714285714139
40
0.95714285714285563
40
0.97142857142856986
40
0.9857142857142841
40
1
40
1
40
1
40
1
40
1
40
1
41
1
41
1
41
1
41
1
41
1
41
1
41
1
41
1
41
1
41
1
41
1
41
1
41
1
41
1
41
1
41
1
41
1
41
1
41
1
41
1
41
1
41
1
41
1
41
1
41
1
41
1
41
1
41
1
41
1
41
1
41
1
41
1
41
1
41
1
41
1
41
1
41
1
41
1
41
1
41
1
41
1
41
1
41
1
41
1
41
1
41
1
41
1
41
1
41
1
41
1
41
1
41
1
41
1
41
1
41
1
41
1
41
1
41
1
41
1
41
1
41
1
41
1
41
1
41
1
41
1
41
1
41
1
41
1
41
1
41
1
41
1
41
1
41
1
41
1
41
1
10
-144.79283004435482
20
86.559205841139629
30
8.8817841970012523e-15
10
-144.78369743716365
20
86.561535670994402
30
8.8817841970012523e-15
10
-144.7653843054774
20
86.565952048696815
30
8.8817841970012523e-15
10
-144.73777085746067
20
86.571846777083408
30
8.8817841970012523e-15
10
-144.70067871880977
20
86.57831797663269
30
8.8817841970012523e-15
10
-144.65393399767618
20
86.584506297092105
30
0
10
-144.60690890280375
20
86.589320089853146
30
0
10
-144.55970245263779
20
86.593279385532597
30
0
10
-144.51239021094625
20
86.596771278547862
30
0
10
-144.46500495534497
20
86.599945013031189
30
0
10
-144.41755056359622
20
86.602790368155354
30
0
10
-144.37001311735139
20
86.605200736981445
30
0
10
-144.32237259286643
20
86.607039328880333
30
0
10
-144.27461534220748
20
86.6082100177793
30
0
10
-144.22674303110719
20
86.608707820747071
30
0
10
-144.17876651241085
20
86.608582997335759
30
0
10
-144.13070185696762
20
86.607917499525058
30
0
10
-144.08256579484831
20
86.606798088575971
30
0
10
-144.03437083067121
20
86.605287477184888
30
0
10
-143.98612235818578
20
86.603407262709112
30
0
10
-143.93782142397828
20
86.601154095771221
30
0
10
-143.88946646374194
20
86.598509806469067
30
0
10
-143.84105531697554
20
86.59545317169983
30
0
10
-143.79258742229351
20
86.591972738110471
30
0
10
-143.74406492576779
20
86.588073277412988
30
0
10
-143.69549150543156
20
86.583768858174437
30
0
10
-143.64687167001685
20
86.579078697277623
30
0
10
-143.59820992736516
20
86.574022249730206
30
0
10
-143.5495098695078
20
86.56861380765767
30
0
10
-143.50077378082457
20
86.562860176631929
30
0
10
-143.45200315277842
20
86.556763683531898
30
0
10
-143.40319899616787
20
86.550323994528569
30
8.8817841970012523e-15
10
-143.35436220826631
20
86.54354025721814
30
8.8817841970012523e-15
10
-143.30549397996455
20
86.536413477549047
30
8.8817841970012523e-15
10
-143.25659595882726
20
86.528947466976575
30
8.8817841970012523e-15
10
-143.20767003486748
20
86.521147578429634
30
8.8817841970012523e-15
10
-143.15871821422334
20
86.513019958907918
30
8.8817841970012523e-15
10
-143.10974246891615
20
86.504570662230037
30
8.8817841970012523e-15
10
-143.06074456980392
20
86.495804665743648
30
8.8817841970012523e-15
10
-143.01172602502857
20
86.486725501657077
30
8.8817841970012523e-15
10
-142.96268817599309
20
86.47733580649772
30
8.8817841970012523e-15
10
-142.91363225643542
20
86.467637656476626
30
8.8817841970012523e-15
10
-142.86455946142635
20
86.457632962542803
30
8.8817841970012523e-15
10
-142.81547102428152
20
86.447323910641259
30
8.8817841970012523e-15
10
-142.76636824695072
20
86.436713138869194
30
8.8817841970012523e-15
10
-142.71725245841458
20
86.425803505259452
30
8.8817841970012523e-15
10
-142.66812498974377
20
86.414597952925263
30
0
10
-142.61898714489806
20
86.403099349329949
30
0
10
-142.56984016768706
20
86.39131031183814
30
0
10
-142.52068523031357
20
86.379233134998913
30
0
10
-142.47152345898178
20
86.366869895495
30
0
10
-142.42235595162197
20
86.354222519385004
30
0
10
-142.37318379703251
20
86.341292860993832
30
-8.8817841970012523e-15
10
-142.3240080976764
20
86.328082791811198
30
-8.8817841970012523e-15
10
-142.2748299767897
20
86.314594243543027
30
-8.8817841970012523e-15
10
-142.22565055381517
20
86.300829152831369
30
-8.8817841970012523e-15
10
-142.17647092566051
20
86.286789427865187
30
-8.8817841970012523e-15
10
-142.12729214780938
20
86.272476910826128
30
-8.8817841970012523e-15
10
-142.07811521022182
20
86.257893337858164
30
-8.8817841970012523e-15
10
-142.02894103205858
20
86.243040321884763
30
-8.8817841970012523e-15
10
-141.97977050646517
20
86.227919397416287
30
-8.8817841970012523e-15
10
-141.93060453737812
20
86.212532056458485
30
-8.8817841970012523e-15
10
-141.8814440763382
20
86.196879787114554
30
-8.8817841970012523e-15
10
-141.8322901667093
20
86.180964119413034
30
-8.8817841970012523e-15
10
-141.78314396230542
20
86.16478665049857
30
-8.8817841970012523e-15
10
-141.73400663875049
20
86.148348977173711
30
0
10
-141.68487931974408
20
86.131652643446614
30
0
10
-141.63576299930685
20
86.114699084620355
30
0
10
-141.58665846105075
20
86.097489573311321
30
0
10
-141.53756621133022
20
86.080025170227458
30
0
10
-141.48848654507074
20
86.062306716210998
30
0
10
-141.44923298856304
20
86.047929200607626
30
0
10
-141.41979856231328
20
86.037032183101445
30
0
10
-141.40017816223343
20
86.029716907882502
30
0
10
-141.39036859988255
20
86.026046621052728
30
0
0
LINE
5
139
100
AcDbEntity
8
0
100
AcDbLine
10
-144.79283004435482
20
86.559205841139629
30
8.8817841970012523e-15
11
-145.05675586602013
21
86.491875423232187
31
8.8817841970012523e-15
0
ARC
5
140
100
AcDbEntity
8
0
100
AcDbCircle
10
-145.30394989005131
20
87.46084142598113
30
-8.8817841970012523e-15
40
0.99999999999999312
210
0
220
0
230
1
100
AcDbArc
50
197.44493442661795
51
284.31153088772368
0
ARC
5
141
100
AcDbEntity
8
0
100
AcDbCircle
10
-162.99998891915098
20
81.899994069635085
30
0
40
17.549199999999999
210
4.8282947790137094e-16
220
1.517255370729336e-16
230
1
100
AcDbArc
50
17.444934426617603
51
18.555066371395348
0
ARC
5
142
100
AcDbEntity
8
0
100
AcDbCircle
10
-145.41500862738911
20
87.802645065445915
30
0
40
0.99999999999998801
210
-2.7821076444989796e-30
220
5.9143631579396307e-31
230
1
100
AcDbArc
50
111.68846991028916
51
198.55506637140604
0
LINE
5
143
100
AcDbEntity
8
0
100
AcDbLine
10
-145.78456840037052
20
88.73185202527452
30
-1.5777218104419984e-30
11
-145.53147210011426
21
88.832512282148173
31
0
0
SPLINE
5
144
100
AcDbEntity
8
0
100
AcDbSpline
70
4
71
5
72
81
73
75
74
0
42
0.000000001
43
0.0000000001
44
0.0000000001
40
0
40
0
40
0
40
0
40
0
40
0
40
0.014285714285714285
40
0.028571428571428571
40
0.042857142857142858
40
0.057142857142857141
40
0.071428571428571425
40
0.085714285714285715
40
0.10000000000000001
40
0.1142857142857143
40
0.12857142857142859
40
0.14285714285714288
40
0.15714285714285717
40
0.17142857142857146
40
0.18571428571428575
40
0.20000000000000004
40
0.21428571428571433
40
0.22857142857142862
40
0.24285714285714291
40
0.25714285714285717
40
0.27142857142857146
40
0.28571428571428575
40
0.30000000000000004
40
0.31428571428571433
40
0.32857142857142863
40
0.34285714285714292
40
0.35714285714285721
40
0.3714285714285715
40
0.38571428571428579
40
0.40000000000000008
40
0.41428571428571437
40
0.42857142857142866
40
0.44285714285714295
40
0.45714285714285724
40
0.47142857142857153
40
0.48571428571428582
40
0.50000000000000011
40
0.51428571428571435
40
0.52857142857142858
40
0.54285714285714282
40
0.55714285714285705
40
0.57142857142857129
40
0.58571428571428552
40
0.59999999999999976
40
0.61428571428571399
40
0.62857142857142823
40
0.64285714285714246
40
0.6571428571428567
40
0.67142857142857093
40
0.68571428571428517
40
0.6999999999999994
40
0.71428571428571364
40
0.72857142857142787
40
0.74285714285714211
40
0.75714285714285634
40
0.77142857142857058
40
0.78571428571428481
40
0.79999999999999905
40
0.81428571428571328
40
0.82857142857142752
40
0.84285714285714175
40
0.85714285714285599
40
0.87142857142857022
40
0.88571428571428445
40
0.89999999999999869
40
0.91428571428571292
40
0.92857142857142716
40
0.94285714285714139
40
0.95714285714285563
40
0.97142857142856986
40
0.9857142857142841
40
1
40
1
40
1
40
1
40
1
40
1
41
1
41
1
41
1
41
1
41
1
41
1
41
1
41
1
41
1
41
1
41
1
41
1
41
1
41
1
41
1
41
1
41
1
41
1
41
1
41
1
41
1
41
1
41
1
41
1
41
1
41
1
41
1
41
1
41
1
41
1
41
1
41
1
41
1
41
1
41
1
41
1
41
1
41
1
41
1
41
1
41
1
41
1
41
1
41
1
41
1
41
1
41
1
41
1
41
1
41
1
41
1
41
1
41
1
41
1
41
1
41
1
41
1
41
1
41
1
41
1
41
1
41
1
41
1
41
1
41
1
41
1
41
1
41
1
41
1
41
1
41
1
41
1
41
1
41
1
41
1
10
-145.53147210011426
20
88.832512282148187
30
-8.8817841970012523e-15
10
-145.52271422611315
20
88.835995422145601
30
-8.8817841970012523e-15
10
-145.50530270977688
20
88.843186686501753
30
-8.8817841970012523e-15
10
-145.47949812680579
20
88.854648528928351
30
-8.8817841970012523e-15
10
-145.44568628085054
20
88.871215431064911
30
-8.8817841970012523e-15
10
-145.40423160386661
20
88.893684832928841
30
-8.8817841970012523e-15
10
-145.36335802689092
20
88.917431050600712
30
-8.8817841970012523e-15
10
-145.32283999119454
20
88.941975168895226
30
-8.8817841970012523e-15
10
-145.28251110075516
20
88.966959606584226
30
0
10
-145.24231014971906
20
88.992244356430064
30
0
10
-145.20224628291353
20
89.017835407964014
30
0
10
-145.16237090214571
20
89.043827189010727
30
0
10
-145.1227482113826
20
89.070342135174371
30
0
10
-145.08342367070281
20
89.097466036135103
30
0
10
-145.044401556606
20
89.125201944075741
30
8.8817841970012523e-15
10
-145.00566110740419
20
89.153502819022364
30
8.8817841970012523e-15
10
-144.96716715452141
20
89.182292914223154
30
8.8817841970012523e-15
10
-144.92888223587838
20
89.211492204655073
30
8.8817841970012523e-15
10
-144.89077960632503
20
89.241042604651085
30
0
10
-144.8528509348879
20
89.27092347121588
30
0
10
-144.81509903698768
20
89.301136898884749
30
0
10
-144.77753332707442
20
89.331698506893559
30
0
10
-144.74016453189299
20
89.362626735003801
30
0
10
-144.70299892938507
20
89.393931179146776
30
0
10
-144.66603545101728
20
89.425606717497004
30
0
10
-144.62926880308464
20
89.457639806450999
30
0
10
-144.59269133782735
20
89.490012249058012
30
0
10
-144.55629526679894
20
89.522705656243474
30
0
10
-144.52007509531308
20
89.555706354092052
30
0
10
-144.48402867125682
20
89.589007494055735
30
8.8817841970012523e-15
10
-144.44815583354401
20
89.622606316989959
30
8.8817841970012523e-15
10
-144.41245759614753
20
89.656502498835579
30
0
10
-144.37693518600722
20
89.690696201797721
30
0
10
-144.34158897529232
20
89.725185912058919
30
0
10
-144.30641805659337
20
89.759967577672882
30
0
10
-144.27142081259024
20
89.795035757107371
30
0
10
-144.236595253167
20
89.830384298156787
30
0
10
-144.20193941537693
20
89.866007144053981
30
0
10
-144.1674518062627
20
89.901899227155937
30
0
10
-144.13313156975676
20
89.938056803382494
30
0
10
-144.0989782413649
20
89.974476951281304
30
0
10
-144.06499159883589
20
90.011157265989368
30
0
10
-144.03117148577454
20
90.048095499071493
30
0
10
-143.99751761508793
20
90.085289157136273
30
0
10
-143.96402948944092
20
90.122735340651388
30
-8.8817841970012523e-15
10
-143.9307065040918
20
90.160430956264449
30
-8.8817841970012523e-15
10
-143.89754800598078
20
90.198372840563195
30
-8.8817841970012523e-15
10
-143.86455336458079
20
90.236557907272626
30
0
10
-143.83172204770651
20
90.274983307807503
30
0
10
-143.79905365498783
20
90.313646496834991
30
0
10
-143.76654787689961
20
90.352545132317346
30
0
10
-143.73420446957712
20
90.391677010693144
30
0
10
-143.70202322393197
20
90.431039991802393
30
0
10
-143.67000393184134
20
90.470631913566677
30
0
10
-143.63814636659407
20
90.510450552981439
30
0
10
-143.60645029550861
20
90.55049368527844
30
0
10
-143.57491548439666
20
90.590759121954179
30
0
10
-143.54354170435511
20
90.631244752254673
30
-8.8817841970012523e-15
10
-143.51232873579866
20
90.671948589726099
30
-8.8817841970012523e-15
10
-143.48127637429135
20
90.712868789216756
30
-8.8817841970012523e-15
10
-143.45038444044044
20
90.754003584303945
30
-8.8817841970012523e-15
10
-143.41965278856699
20
90.795351236609108
30
0
10
-143.3890813137985
20
90.836909982929825
30
0
10
-143.35866996090581
20
90.878677972173165
30
8.8817841970012523e-15
10
-143.32841872456603
20
90.920653234027
30
8.8817841970012523e-15
10
-143.29832761730185
20
90.962833785636661
30
8.8817841970012523e-15
10
-143.26839664066003
20
91.005217717379111
30
8.8817841970012523e-15
10
-143.23862575517023
20
91.047803283799198
30
8.8817841970012523e-15
10
-143.20901484676267
20
91.090588994733125
30
0
10
-143.17956370161812
20
91.133573694422338
30
0
10
-143.15027206410173
20
91.176756529258455
30
0
10
-143.12696616191693
20
91.211460845658308
30
0
10
-143.10955831740907
20
91.2375778399106
30
0
10
-143.09798489144123
20
91.255028603853461
30
0
10
-143.09220612938387
20
91.263763844434735
30
0
0
ARC
5
145
100
AcDbEntity
8
0
100
AcDbCircle
10
-162.99998891915098
20
81.899994069635085
30
0
40
22.000000000000007
210
0
220
-0
230
1
100
AcDbArc
50
25.190287199731848
51
28.809713598281569
0
SPLINE
5
146
100
AcDbEntity
8
0
100
AcDbSpline
70
4
71
5
72
81
73
75
74
0
42
0.000000001
43
0.0000000001
44
0.0000000001
40
0
40
0
40
0
40
0
40
0
40
0
40
0.014285714285714285
40
0.028571428571428571
40
0.042857142857142858
40
0.057142857142857141
40
0.071428571428571425
40
0.085714285714285715
40
0.10000000000000001
40
0.1142857142857143
40
0.12857142857142859
40
0.14285714285714288
40
0.15714285714285717
40
0.17142857142857146
40
0.18571428571428575
40
0.20000000000000004
40
0.21428571428571433
40
0.22857142857142862
40
0.24285714285714291
40
0.25714285714285717
40
0.27142857142857146
40
0.28571428571428575
40
0.30000000000000004
40
0.31428571428571433
40
0.32857142857142863
40
0.34285714285714292
40
0.35714285714285721
40
0.3714285714285715
40
0.38571428571428579
40
0.40000000000000008
40
0.41428571428571437
40
0.42857142857142866
40
0.44285714285714295
40
0.45714285714285724
40
0.47142857142857153
40
0.48571428571428582
40
0.50000000000000011
40
0.51428571428571435
40
0.52857142857142858
40
0.54285714285714282
40
0.55714285714285705
40
0.57142857142857129
40
0.58571428571428552
40
0.59999999999999976
40
0.61428571428571399
40
0.62857142857142823
40
0.64285714285714246
40
0.6571428571428567
40
0.67142857142857093
40
0.68571428571428517
40
0.6999999999999994
40
0.71428571428571364
40
0.72857142857142787
40
0.74285714285714211
40
0.75714285714285634
40
0.77142857142857058
40
0.78571428571428481
40
0.79999999999999905
40
0.81428571428571328
40
0.82857142857142752
40
0.84285714285714175
40
0.85714285714285599
40
0.87142857142857022
40
0.88571428571428445
40
0.89999999999999869
40
0.91428571428571292
40
0.92857142857142716
40
0.94285714285714139
40
0.95714285714285563
40
0.97142857142856986
40
0.9857142857142841
40
1
40
1
40
1
40
1
40
1
40
1
41
1
41
1
41
1
41
1
41
1
41
1
41
1
41
1
41
1
41
1
41
1
41
1
41
1
41
1
41
1
41
1
41
1
41
1
41
1
41
1
41
1
41
1
41
1
41
1
41
1
41
1
41
1
41
1
41
1
41
1
41
1
41
1
41
1
41
1
41
1
41
1
41
1
41
1
41
1
41
1
41
1
41
1
41
1
41
1
41
1
41
1
41
1
41
1
41
1
41
1
41
1
41
1
41
1
41
1
41
1
41
1
41
1
41
1
41
1
41
1
41
1
41
1
41
1
41
1
41
1
41
1
41
1
41
1
41
1
41
1
41
1
41
1
41
1
41
1
41
1
10
-147.12372744584167
20
91.957489297320208
30
-8.8817841970012523e-15
10
-147.11576177728088
20
91.962527228010487
30
-8.8817841970012523e-15
10
-147.09970968982051
20
91.972386521714071
30
-8.8817841970012523e-15
10
-147.07526931139552
20
91.986525766268386
30
-8.8817841970012523e-15
10
-147.04199230186296
20
92.004142343968809
30
-8.8817841970012523e-15
10
-146.99944772641504
20
92.024472699694257
30
-8.8817841970012523e-15
10
-146.95621174727779
20
92.043582442145407
30
-8.8817841970012523e-15
10
-146.91253923488699
20
92.06193555144668
30
-8.8817841970012523e-15
10
-146.86862167341002
20
92.079876825777717
30
-8.8817841970012523e-15
10
-146.82453635518505
20
92.09753807590269
30
-8.8817841970012523e-15
10
-146.78028380977398
20
92.114908382942758
30
-8.8817841970012523e-15
10
-146.73581785668478
20
92.131890658680348
30
0
10
-146.69107718157616
20
92.148360995173391
30
8.8817841970012523e-15
10
-146.64601909990151
20
92.164232188537511
30
8.8817841970012523e-15
10
-146.60064365605635
20
92.179498984983866
30
8.8817841970012523e-15
10
-146.55497670276563
20
92.194205830473265
30
8.8817841970012523e-15
10
-146.50905884886964
20
92.20842569980455
30
8.8817841970012523e-15
10
-146.46293281631532
20
92.222235937964157
30
8.8817841970012523e-15
10
-146.41662987699033
20
92.235692324131108
30
8.8817841970012523e-15
10
-146.37016183460571
20
92.248813731852493
30
8.8817841970012523e-15
10
-146.32352864950954
20
92.261596652268238
30
8.8817841970012523e-15
10
-146.27672321914918
20
92.274024288171788
30
0
10
-146.22973693046637
20
92.286077122824594
30
0
10
-146.18256571027101
20
92.297744436918236
30
0
10
-146.1352130741389
20
92.309030105447789
30
0
10
-146.08768686751378
20
92.319946371840899
30
0
10
-146.03999731679795
20
92.330510119164373
30
0
10
-145.99215472113144
20
92.340738457230373
30
0
10
-145.94416691324878
20
92.350643868659233
30
0
10
-145.89603816876152
20
92.360232120022346
30
0
10
-145.8477706251804
20
92.369504963425612
30
0
10
-145.79936514067316
20
92.378461769024881
30
0
10
-145.75082230519013
20
92.387101448863234
30
0
10
-145.70214356219105
20
92.395424591648961
30
0
10
-145.6533316564074
20
92.403434313166031
30
0
10
-145.60439003949449
20
92.411135120306142
30
0
10
-145.55532251893032
20
92.418532239282683
30
0
10
-145.50613284095155
20
92.425630818231184
30
0
10
-145.45682422782915
20
92.432435043665336
30
0
10
-145.40739920540378
20
92.438947808873394
30
0
10
-145.35785986415723
20
92.44517120682562
30
0
10
-145.30820801902854
20
92.45110683087006
30
0
10
-145.25844539711332
20
92.456756129130028
30
0
10
-145.20857384685849
20
92.462120799447291
30
0
10
-145.15859542170884
20
92.467202948476796
30
-8.8817841970012523e-15
10
-145.10851226878074
20
92.472004883691625
30
-8.8817841970012523e-15
10
-145.05832656346965
20
92.476528992835426
30
0
10
-145.00804043200992
20
92.480777600082092
30
0
10
-144.95765586614488
20
92.484752810335038
30
0
10
-144.90717468976038
20
92.488456443609479
30
0
10
-144.85659861567041
20
92.49189012693185
30
0
10
-144.80592928325362
20
92.495055352813665
30
0
10
-144.75516830103675
20
92.49795354836543
30
0
10
-144.70431729584641
20
92.500586152799883
30
0
10
-144.6533779328737
20
92.502954656179497
30
0
10
-144.6023518752271
20
92.505060554433442
30
0
10
-144.55124075579073
20
92.506905323394193
30
0
10
-144.50004614765464
20
92.508490388918204
30
0
10
-144.44876952882476
20
92.50981709626204
30
0
10
-144.39741227189563
20
92.510886695370758
30
0
10
-144.34597570048891
20
92.511700369653326
30
0
10
-144.29446113535451
20
92.512259258759769
30
0
10
-144.24286994131063
20
92.512564483918055
30
0
10
-144.19120358346007
20
92.512617177854651
30
0
10
-144.13946365269004
20
92.512418502996212
30
0
10
-144.08765176052447
20
92.511969614704427
30
0
10
-144.03576945278988
20
92.511271634176083
30
0
10
-143.98381811838919
20
92.510325619296268
30
0
10
-143.93179889584167
20
92.509132538245609
30
0
10
-143.87971259449586
20
92.507693243345244
30
0
10
-143.82755975467705
20
92.506008443146641
30
0
10
-143.78578450731428
20
92.504464629294475
30
0
10
-143.75442334082865
20
92.50319668771786
30
0
10
-143.73350268711917
20
92.502302484613523
30
0
10
-143.72303905791875
20
92.501843155881204
30
0
0
LINE
5
147
100
AcDbEntity
8
0
100
AcDbLine
10
-147.12372744584167
20
91.957489297320208
30
-8.8817841970012523e-15
11
-147.35392957498325
21
91.811896700475515
31
-8.8817841970012523e-15
0
ARC
5
148
100
AcDbEntity
8
0
100
AcDbCircle
10
-147.88845202414831
20
92.657050977124811
30
0
40
1.0000000000000033
210
0
220
0
230
1
100
AcDbArc
50
215.44493442661729
51
302.31153088772254
0
ARC
5
149
100
AcDbEntity
8
0
100
AcDbCircle
10
-162.99998891915098
20
81.899994069635085
30
0
40
17.549199999999988
210
1.7726520848371028e-32
220
-2.4902254968427481e-32
230
1
100
AcDbArc
50
35.444934426617642
51
36.555066371395945
0
ARC
5
150
100
AcDbEntity
8
0
100
AcDbCircle
10
-148.0996982933188
20
92.947806518519968
30
8.8817841970012523e-15
40
1.0000000000000004
210
1.2594420182069079e-30
220
-1.5176265520338393e-30
230
1
100
AcDbArc
50
129.6884699102896
51
216.55506637139612
0
LINE
5
151
100
AcDbEntity
8
0
100
AcDbLine
10
-148.73831126545184
20
93.717334602363167
30
8.8817841970012539e-15
11
-148.528708109875
21
93.891279253587427
31
4.9303806576313238e-31
0
SPLINE
5
152
100
AcDbEntity
8
0
100
AcDbSpline
70
4
71
5
72
81
73
75
74
0
42
0.000000001
43
0.0000000001
44
0.0000000001
40
0
40
0
40
0
40
0
40
0
40
0
40
0.014285714285714285
40
0.028571428571428571
40
0.042857142857142858
40
0.057142857142857141
40
0.071428571428571425
40
0.085714285714285715
40
0.10000000000000001
40
0.1142857142857143
40
0.12857142857142859
40
0.14285714285714288
40
0.15714285714285717
40
0.17142857142857146
40
0.18571428571428575
40
0.20000000000000004
40
0.21428571428571433
40
0.22857142857142862
40
0.24285714285714291
40
0.25714285714285717
40
0.27142857142857146
40
0.28571428571428575
40
0.30000000000000004
40
0.31428571428571433
40
0.32857142857142863
40
0.34285714285714292
40
0.35714285714285721
40
0.3714285714285715
40
0.38571428571428579
40
0.40000000000000008
40
0.41428571428571437
40
0.42857142857142866
40
0.44285714285714295
40
0.45714285714285724
40
0.47142857142857153
40
0.48571428571428582
40
0.50000000000000011
40
0.51428571428571435
40
0.52857142857142858
40
0.54285714285714282
40
0.55714285714285705
40
0.57142857142857129
40
0.58571428571428552
40
0.59999999999999976
40
0.61428571428571399
40
0.62857142857142823
40
0.64285714285714246
40
0.6571428571428567
40
0.67142857142857093
40
0.68571428571428517
40
0.6999999999999994
40
0.71428571428571364
40
0.72857142857142787
40
0.74285714285714211
40
0.75714285714285634
40
0.77142857142857058
40
0.78571428571428481
40
0.79999999999999905
40
0.81428571428571328
40
0.82857142857142752
40
0.84285714285714175
40
0.85714285714285599
40
0.87142857142857022
40
0.88571428571428445
40
0.89999999999999869
40
0.91428571428571292
40
0.92857142857142716
40
0.94285714285714139
40
0.95714285714285563
40
0.97142857142856986
40
0.9857142857142841
40
1
40
1
40
1
40
1
40
1
40
1
41
1
41
1
41
1
41
1
41
1
41
1
41
1
41
1
41
1
41
1
41
1
41
1
41
1
41
1
41
1
41
1
41
1
41
1
41
1
41
1
41
1
41
1
41
1
41
1
41
1
41
1
41
1
41
1
41
1
41
1
41
1
41
1
41
1
41
1
41
1
41
1
41
1
41
1
41
1
41
1
41
1
41
1
41
1
41
1
41
1
41
1
41
1
41
1
41
1
41
1
41
1
41
1
41
1
41
1
41
1
41
1
41
1
41
1
41
1
41
1
41
1
41
1
41
1
41
1
41
1
41
1
41
1
41
1
41
1
41
1
41
1
41
1
41
1
41
1
41
1
10
-148.528708109875
20
93.891279253587442
30
-8.8817841970012523e-15
10
-148.52145522619037
20
93.897298248480055
30
-8.8817841970012523e-15
10
-148.50711811301724
20
93.909518001752147
30
-8.8817841970012523e-15
10
-148.48611840032899
20
93.928392916351541
30
-8.8817841970012523e-15
10
-148.45908087820962
20
93.954597411594705
30
-8.8817841970012523e-15
10
-148.42659856456251
20
93.988777282339001
30
-8.8817841970012523e-15
10
-148.39506346764824
20
94.023991907299589
30
0
10
-148.36411307543668
20
94.059855512549163
30
8.8817841970012523e-15
10
-148.33347863723014
20
94.096079437329337
30
8.8817841970012523e-15
10
-148.30305867818689
20
94.132549440493264
30
8.8817841970012523e-15
10
-148.27286374642142
20
94.169268392516784
30
8.8817841970012523e-15
10
-148.24297190775997
20
94.206310215565793
30
8.8817841970012523e-15
10
-148.21348205848608
20
94.243771512702622
30
8.8817841970012523e-15
10
-148.18446394417288
20
94.281719826824698
30
0
10
-148.15592257518952
20
94.320156739219328
30
0
10
-148.12782366984612
20
94.359043927927303
30
0
10
-148.10011037380571
20
94.398320221194197
30
0
10
-148.07272232942157
20
94.437921087119605
30
0
10
-148.04561615108622
20
94.477799547657341
30
0
10
-148.01877753653667
20
94.517938544564473
30
0
10
-147.9922098106442
20
94.558339199849627
30
0
10
-147.96592675369209
20
94.599013459063812
30
0
10
-147.93994426562062
20
94.639975544715895
30
0
10
-147.91427128241307
20
94.681232643088222
30
8.8817841970012523e-15
10
-147.88890520510267
20
94.722780213230209
30
8.8817841970012523e-15
10
-147.86383681387315
20
94.764607010254338
30
0
10
-147.83905321210563
20
94.806698091119785
30
0
10
-147.81454131001081
20
94.849038373539685
30
0
10
-147.7902916563593
20
94.891616550799171
30
0
10
-147.7663000880523
20
94.93442677458151
30
0
10
-147.74256559926519
20
94.977466470562661
30
0
10
-147.71908905420375
20
95.020735017209219
30
0
10
-147.69587166988123
20
95.064232189642141
30
0
10
-147.67291333245626
20
95.107956433128834
30
0
10
-147.65021192681087
20
95.151904174444354
30
0
10
-147.62776423325641
20
95.196070738163385
30
0
10
-147.60556645794392
20
95.240450888170344
30
0
10
-147.58361486235626
20
95.285039470721301
30
8.8817841970012523e-15
10
-147.56190646061876
20
95.329832127550446
30
0
10
-147.54043928157839
20
95.374825562365487
30
0
10
-147.51921198069655
20
95.420017140236624
30
0
10
-147.49822360345613
20
95.465404642682699
30
0
10
-147.47747330631185
20
95.510985979643522
30
0
10
-147.45696004572181
20
95.556758868479562
30
0
10
-147.43668245268734
20
95.602720705256687
30
0
10
-147.41663899616651
20
95.64886873489742
30
0
10
-147.39682807751439
20
95.695200150624501
30
0
10
-147.37724814335266
20
95.741712212059596
30
0
10
-147.35789780728174
20
95.788402374491412
30
0
10
-147.33877590197602
20
95.835268340885733
30
-8.8817841970012523e-15
10
-147.31988140933001
20
95.882307979480856
30
-8.8817841970012523e-15
10
-147.30121341647668
20
95.929519269923674
30
0
10
-147.28277106321539
20
95.97690024141292
30
0
10
-147.2645534834906
20
96.024448902003328
30
0
10
-147.24655977474089
20
96.072163207549579
30
0
10
-147.22878902818192
20
96.120041114073814
30
0
10
-147.21124034480246
20
96.16808061255378
30
0
10
-147.193912854644
20
96.216279766278006
30
0
10
-147.17680573502042
20
96.264636753872225
30
0
10
-147.15991822131835
20
96.313149883667137
30
0
10
-147.14324959707059
20
96.361817531130342
30
0
10
-147.12679918653961
20
96.410638087982775
30
-8.8817841970012523e-15
10
-147.1105663451263
20
96.459609909726737
30
-8.8817841970012523e-15
10
-147.09455044828542
20
96.508731252934922
30
-8.8817841970012523e-15
10
-147.07875088209465
20
96.558000245374046
30
0
10
-147.06316704572799
20
96.607414997367513
30
0
10
-147.04779835055058
20
96.656973692277987
30
0
10
-147.03264421964855
20
96.70667468227586
30
0
10
-147.01770408404906
20
96.756516585380709
30
0
10
-147.00297738324909
20
96.806498368474578
30
0
10
-146.98846361034578
20
96.856619298723189
30
0
10
-146.97702260375053
20
96.896826984823207
30
0
10
-146.9685373548626
20
96.92704504218122
30
0
10
-146.96292295530321
20
96.947218090250615
30
0
10
-146.96012636378202
20
96.957311533409026
30
-8.8817841970012523e-15
0
ARC
5
153
100
AcDbEntity
8
0
100
AcDbCircle
10
-162.99998891915098
20
81.899994069635085
30
0
40
21.999999999999954
210
2.9434421026105207e-16
220
2.7631372789045091e-16
230
1
100
AcDbArc
50
43.190287199731898
51
46.809713598281839
0
SPLINE
5
154
100
AcDbEntity
8
0
100
AcDbSpline
70
4
71
5
72
81
73
75
74
0
42
0.000000001
43
0.0000000001
44
0.0000000001
40
0
40
0
40
0
40
0
40
0
40
0
40
0.014285714285714285
40
0.028571428571428571
40
0.042857142857142858
40
0.057142857142857141
40
0.071428571428571425
40
0.085714285714285715
40
0.10000000000000001
40
0.1142857142857143
40
0.12857142857142859
40
0.14285714285714288
40
0.15714285714285717
40
0.17142857142857146
40
0.18571428571428575
40
0.20000000000000004
40
0.21428571428571433
40
0.22857142857142862
40
0.24285714285714291
40
0.25714285714285717
40
0.27142857142857146
40
0.28571428571428575
40
0.30000000000000004
40
0.31428571428571433
40
0.32857142857142863
40
0.34285714285714292
40
0.35714285714285721
40
0.3714285714285715
40
0.38571428571428579
40
0.40000000000000008
40
0.41428571428571437
40
0.42857142857142866
40
0.44285714285714295
40
0.45714285714285724
40
0.47142857142857153
40
0.48571428571428582
40
0.50000000000000011
40
0.51428571428571435
40
0.52857142857142858
40
0.54285714285714282
40
0.55714285714285705
40
0.57142857142857129
40
0.58571428571428552
40
0.59999999999999976
40
0.61428571428571399
40
0.62857142857142823
40
0.64285714285714246
40
0.6571428571428567
40
0.67142857142857093
40
0.68571428571428517
40
0.6999999999999994
40
0.71428571428571364
40
0.72857142857142787
40
0.74285714285714211
40
0.75714285714285634
40
0.77142857142857058
40
0.78571428571428481
40
0.79999999999999905
40
0.81428571428571328
40
0.82857142857142752
40
0.84285714285714175
40
0.85714285714285599
40
0.87142857142857022
40
0.88571428571428445
40
0.89999999999999869
40
0.91428571428571292
40
0.92857142857142716
40
0.94285714285714139
40
0.95714285714285563
40
0.97142857142856986
40
0.9857142857142841
40
1
40
1
40
1
40
1
40
1
40
1
41
1
41
1
41
1
41
1
41
1
41
1
41
1
41
1
41
1
41
1
41
1
41
1
41
1
41
1
41
1
41
1
41
1
41
1
41
1
41
1
41
1
41
1
41
1
41
1
41
1
41
1
41
1
41
1
41
1
41
1
41
1
41
1
41
1
41
1
41
1
41
1
41
1
41
1
41
1
41
1
41
1
41
1
41
1
41
1
41
1
41
1
41
1
41
1
41
1
41
1
41
1
41
1
41
1
41
1
41
1
41
1
41
1
41
1
41
1
41
1
41
1
41
1
41
1
41
1
41
1
41
1
41
1
41
1
41
1
41
1
41
1
41
1
41
1
41
1
41
1
10
-151.0087039367541
20
96.371275045925245
30
0
10
-151.00268494196251
20
96.378527929693718
30
0
10
-150.99046518889011
20
96.392865043037034
30
0
10
-150.97159027458321
20
96.413864755988186
30
0
10
-150.94538577971659
20
96.440902278472521
30
0
10
-150.91120590942469
20
96.473384592595693
30
0
10
-150.87599128490336
20
96.50491969000042
30
0
10
-150.84012768008483
20
96.535870082711483
30
-8.8817841970012523e-15
10
-150.80390375573137
20
96.566504521422559
30
0
10
-150.76743375299111
20
96.596924480973755
30
0
10
-150.73071480138816
20
96.627119413250639
30
0
10
-150.69367297875547
20
96.657011252428049
30
0
10
-150.65621168202938
20
96.686501102223701
30
0
10
-150.61826336831149
20
96.715519217065406
30
0
10
-150.57982645631435
20
96.744060586584126
30
0
10
-150.54093926799774
20
96.772159492469143
30
0
10
-150.50166297511683
20
96.799872789056579
30
0
10
-150.46206210957288
20
96.827260833992284
30
0
10
-150.42218364941272
20
96.854367012883074
30
0
10
-150.38204465287936
20
96.881205627991633
30
0
10
-150.34164399796424
20
96.907773354446846
30
0
10
-150.30096973911611
20
96.934056411965472
30
0
10
-150.26000765382594
20
96.960038900607401
30
-8.8817841970012523e-15
10
-150.2187505558112
20
96.985711884389602
30
-8.8817841970012523e-15
10
-150.17720298602251
20
97.011077962278677
30
-8.8817841970012523e-15
10
-150.13537618934748
20
97.036146354090803
30
-8.8817841970012523e-15
10
-150.09328510882722
20
97.060929956444568
30
-8.8817841970012523e-15
10
-150.05094482674875
20
97.085441859129062
30
0
10
-150.008366649827
20
97.109691513373605
30
0
10
-149.96555642637884
20
97.133683082276875
30
0
10
-149.92251673072823
20
97.157417571663444
30
0
10
-149.87924818440868
20
97.180894117327483
30
0
10
-149.83575101229911
20
97.20411150225587
30
8.8817841970012523e-15
10
-149.79202676913218
20
97.227069840289829
30
8.8817841970012523e-15
10
-149.74807902813288
20
97.249771246547311
30
8.8817841970012523e-15
10
-149.70391246472647
20
97.272218940716911
30
8.8817841970012523e-15
10
-149.65953231502868
20
97.294416716647561
30
8.8817841970012523e-15
10
-149.6149437327835
20
97.316368312856241
30
8.8817841970012523e-15
10
-149.57015107625668
20
97.338076715217611
30
0
10
-149.52515764174063
20
97.359543894884624
30
0
10
-149.47996606416515
20
97.380771196395926
30
0
10
-149.43457856201141
20
97.401759574268496
30
0
10
-149.38899722533958
20
97.422509872047584
30
0
10
-149.34322433678926
20
97.443023133275176
30
0
10
-149.29726250029458
20
97.463300726949811
30
0
10
-149.25111447093298
20
97.483344184113349
30
0
10
-149.20478305548184
20
97.503155103410819
30
0
10
-149.15827099431942
20
97.522735038220375
30
0
10
-149.11158083215719
20
97.542085374941564
30
0
10
-149.06471486602916
20
97.561207280900049
30
0
10
-149.0176752276972
20
97.580101774201253
30
0
10
-148.97046393751438
20
97.598769767712113
30
0
10
-148.92308296628198
20
97.617212121633315
30
0
10
-148.87553430594528
20
97.635429702020375
30
0
10
-148.82782000064967
20
97.653423411434602
30
0
10
-148.77994209437296
20
97.671194158660455
30
-8.8817841970012523e-15
10
-148.73190259613745
20
97.68874284270899
30
-8.8817841970012523e-15
10
-148.68370344265452
20
97.706070333538776
30
-8.8817841970012523e-15
10
-148.63534645529856
20
97.723177453835888
30
-8.8817841970012523e-15
10
-148.58683332573884
20
97.740064968213602
30
-8.8817841970012523e-15
10
-148.53816567850782
20
97.756733593139259
30
-8.8817841970012523e-15
10
-148.4893451218845
20
97.773184004350185
30
-8.8817841970012523e-15
10
-148.44037330036662
20
97.789416846445562
30
-8.8817841970012523e-15
10
-148.39125195738151
20
97.805432743970599
30
0
10
-148.34198296516243
20
97.821232310847591
30
8.8817841970012523e-15
10
-148.29256821338603
20
97.83681614790251
30
8.8817841970012523e-15
10
-148.24300951868966
20
97.852184843770146
30
8.8817841970012523e-15
10
-148.19330852890283
20
97.867338975364447
30
8.8817841970012523e-15
10
-148.14346662600607
20
97.882279111658107
30
8.8817841970012523e-15
10
-148.0934848431173
20
97.897005813154266
30
8.8817841970012523e-15
10
-148.04336391307083
20
97.911519586755617
30
8.8817841970012523e-15
10
-148.00315622713018
20
97.922960593910886
30
8.8817841970012523e-15
10
-147.97293816989031
20
97.931445843219663
30
8.8817841970012523e-15
10
-147.95276512189912
20
97.937060243060046
30
8.8817841970012523e-15
10
-147.94267167877967
20
97.939856834721809
30
8.8817841970012523e-15
0
LINE
5
155
100
AcDbEntity
8
0
100
AcDbLine
10
-151.0087039367541
20
96.371275045925245
30
0
11
-151.18264858505904
21
96.161671887925721
31
-4.9303806576313238e-31
0
ARC
5
156
100
AcDbEntity
8
0
100
AcDbCircle
10
-151.95217667779681
20
96.800284849340827
30
0
40
0.99999999999999922
210
1.2673599802185611e-30
220
-9.3968334649756786e-31
230
1
100
AcDbArc
50
233.44493442661798
51
320.31153088772294
0
ARC
5
157
100
AcDbEntity
8
0
100
AcDbCircle
10
-162.99998891915098
20
81.899994069635085
30
0
40
17.549199999999971
210
-1.291676242044859e-30
220
9.5771262519021475e-31
230
1
100
AcDbArc
50
53.444934426617635
51
54.555066371395618
0
ARC
5
158
100
AcDbEntity
8
0
100
AcDbCircle
10
-152.24293222213421
20
97.011531114461633
30
0
40
0.99999999999999534
210
4.9009063955694545e-31
220
-2.1767460548505712e-30
230
1
100
AcDbArc
50
147.68846991028917
51
234.55506637140132
0
LINE
5
159
100
AcDbEntity
8
0
100
AcDbLine
10
-153.08808650622831
20
97.546053551855437
30
1.5777218104420075e-30
11
-152.94249391258984
21
97.776255683024829
31
0
0
SPLINE
5
160
100
AcDbEntity
8
0
100
AcDbSpline
70
4
71
5
72
81
73
75
74
0
42
0.000000001
43
0.0000000001
44
0.0000000001
40
0
40
0
40
0
40
0
40
0
40
0
40
0.014285714285714285
40
0.028571428571428571
40
0.042857142857142858
40
0.057142857142857141
40
0.071428571428571425
40
0.085714285714285715
40
0.10000000000000001
40
0.1142857142857143
40
0.12857142857142859
40
0.14285714285714288
40
0.15714285714285717
40
0.17142857142857146
40
0.18571428571428575
40
0.20000000000000004
40
0.21428571428571433
40
0.22857142857142862
40
0.24285714285714291
40
0.25714285714285717
40
0.27142857142857146
40
0.28571428571428575
40
0.30000000000000004
40
0.31428571428571433
40
0.32857142857142863
40
0.34285714285714292
40
0.35714285714285721
40
0.3714285714285715
40
0.38571428571428579
40
0.40000000000000008
40
0.41428571428571437
40
0.42857142857142866
40
0.44285714285714295
40
0.45714285714285724
40
0.47142857142857153
40
0.48571428571428582
40
0.50000000000000011
40
0.51428571428571435
40
0.52857142857142858
40
0.54285714285714282
40
0.55714285714285705
40
0.57142857142857129
40
0.58571428571428552
40
0.59999999999999976
40
0.61428571428571399
40
0.62857142857142823
40
0.64285714285714246
40
0.6571428571428567
40
0.67142857142857093
40
0.68571428571428517
40
0.6999999999999994
40
0.71428571428571364
40
0.72857142857142787
40
0.74285714285714211
40
0.75714285714285634
40
0.77142857142857058
40
0.78571428571428481
40
0.79999999999999905
40
0.81428571428571328
40
0.82857142857142752
40
0.84285714285714175
40
0.85714285714285599
40
0.87142857142857022
40
0.88571428571428445
40
0.89999999999999869
40
0.91428571428571292
40
0.92857142857142716
40
0.94285714285714139
40
0.95714285714285563
40
0.97142857142856986
40
0.9857142857142841
40
1
40
1
40
1
40
1
40
1
40
1
41
1
41
1
41
1
41
1
41
1
41
1
41
1
41
1
41
1
41
1
41
1
41
1
41
1
41
1
41
1
41
1
41
1
41
1
41
1
41
1
41
1
41
1
41
1
41
1
41
1
41
1
41
1
41
1
41
1
41
1
41
1
41
1
41
1
41
1
41
1
41
1
41
1
41
1
41
1
41
1
41
1
41
1
41
1
41
1
41
1
41
1
41
1
41
1
41
1
41
1
41
1
41
1
41
1
41
1
41
1
41
1
41
1
41
1
41
1
41
1
41
1
41
1
41
1
41
1
41
1
41
1
41
1
41
1
41
1
41
1
41
1
41
1
41
1
41
1
41
1
10
-152.94249391258984
20
97.776255683024814
30
0
10
-152.93745598201053
20
97.784221351655773
30
0
10
-152.92759668853051
20
97.800273439253459
30
0
10
-152.91345744431661
20
97.824713817875391
30
8.8817841970012523e-15
10
-152.89584086707967
20
97.85799082765331
30
8.8817841970012523e-15
10
-152.8755105119468
20
97.900535403384396
30
8.8817841970012523e-15
10
-152.85640077009782
20
97.943771382787787
30
0
10
-152.8380476614048
20
97.987443895434211
30
0
10
-152.82010638768546
20
98.031361457161097
30
0
10
-152.80244513817451
20
98.075446775632017
30
0
10
-152.78507483175076
20
98.119699321285026
30
0
10
-152.7680925566325
20
98.164165274610752
30
0
10
-152.75162222076264
20
98.2089059499488
30
0
10
-152.73575102802604
20
98.25396403184449
30
0
10
-152.72048423221173
20
98.299339475902286
30
0
10
-152.70577738735832
20
98.345006429397813
30
0
10
-152.69155751866663
20
98.390924283491884
30
0
10
-152.67774728114941
20
98.437050316238555
30
0
10
-152.66429089562737
20
98.483353255750941
30
8.8817841970012523e-15
10
-152.65116948855319
20
98.529821298318311
30
0
10
-152.63838656878698
20
98.576454483592528
30
0
10
-152.62595893353532
20
98.62325991412601
30
0
10
-152.61390609953696
20
98.670246202976671
30
0
10
-152.60223878610032
20
98.717417423334524
30
0
10
-152.59095311823026
20
98.764770059623842
30
0
10
-152.58003685249912
20
98.812296266400992
30
0
10
-152.56947310583988
20
98.859985817263947
30
0
10
-152.55924476844021
20
98.907828413072906
30
0
10
-152.54933935767974
20
98.955816221093542
30
0
10
-152.53975110698696
20
99.003944965714354
30
0
10
-152.53047826425592
20
99.052212509424621
30
0
10
-152.52152145933084
20
99.10061799405662
30
0
10
-152.51288178016861
20
99.149160829659991
30
0
10
-152.50455863806087
20
99.19783957277501
30
0
10
-152.49654891722366
20
99.246651478670188
30
0
10
-152.48884811076522
20
99.295593095690379
30
0
10
-152.48145099247208
20
99.344660616357544
30
0
10
-152.47435241420868
20
99.393850294435225
30
0
10
-152.46754818946133
20
99.443158907652375
30
0
10
-152.46103542494163
20
99.492583930168465
30
0
10
-152.4548120276794
20
99.54212327150168
30
0
10
-152.44887640432651
20
99.591775116713023
30
0
10
-152.44322710675962
20
99.641537738706973
30
0
10
-152.43786243713694
20
99.691409289036486
30
-8.8817841970012523e-15
10
-152.43278028880357
20
99.741387714256931
30
0
10
-152.42797835428627
20
99.791470867251917
30
0
10
-152.42345424584147
20
99.841656572626007
30
0
10
-152.41920563929517
20
99.891942704144896
30
0
10
-152.41523042974399
20
99.942327270065306
30
0
10
-152.41152679717266
20
99.992808446501414
30
0
10
-152.40809311455473
20
100.04338452063918
30
0
10
-152.40492788937863
20
100.09405385310005
30
0
10
-152.40202969453384
20
100.14481483535729
30
0
10
-152.39939709080767
20
100.19566584058427
30
0
10
-152.39702858813752
20
100.24660520359001
30
0
10
-152.39492269059426
20
100.29763126126593
30
-8.8817841970012523e-15
10
-152.39307792234538
20
100.348742380728
30
0
10
-152.39149285753439
20
100.39993698888615
30
0
10
-152.39016615090475
20
100.45121360773453
30
0
10
-152.38909655251135
20
100.50257086467853
30
0
10
-152.38828287894518
20
100.55400743609655
30
0
10
-152.38772399055622
20
100.60552200123877
30
0
10
-152.38741876611653
20
100.65711319528691
30
0
10
-152.38736607289951
20
100.7087795531382
30
0
10
-152.38756474847858
20
100.76051948390544
30
0
10
-152.38801363749201
20
100.8123313760648
30
0
10
-152.38871161874295
20
100.86421368378964
30
0
10
-152.38965763434635
20
100.91616501817717
30
0
10
-152.39085071612155
20
100.9681842407081
30
-8.8817841970012523e-15
10
-152.39229001174735
20
101.02027054203384
30
0
10
-152.39397481267235
20
101.07242338182917
30
0
10
-152.39551862710636
20
101.11419862917045
30
0
10
-152.39678656911974
20
101.14555979563845
30
0
10
-152.39768077251549
20
101.16648044933542
30
0
10
-152.39814010139352
20
101.17694407852946
30
0
0
ARC
5
161
100
AcDbEntity
8
0
100
AcDbCircle
10
-162.99998891915098
20
81.899994069635085
30
0
40
21.99999999999994
210
-8.7271873997178584e-32
220
4.7997386190946142e-32
230
1
100
AcDbArc
50
61.190287199731806
51
64.809713598281746
0
SPLINE
5
162
100
AcDbEntity
8
0
100
AcDbSpline
70
4
71
5
72
81
73
75
74
0
42
0.000000001
43
0.0000000001
44
0.0000000001
40
0
40
0
40
0
40
0
40
0
40
0
40
0.014285714285714285
40
0.028571428571428571
40
0.042857142857142858
40
0.057142857142857141
40
0.071428571428571425
40
0.085714285714285715
40
0.10000000000000001
40
0.1142857142857143
40
0.12857142857142859
40
0.14285714285714288
40
0.15714285714285717
40
0.17142857142857146
40
0.18571428571428575
40
0.20000000000000004
40
0.21428571428571433
40
0.22857142857142862
40
0.24285714285714291
40
0.25714285714285717
40
0.27142857142857146
40
0.28571428571428575
40
0.30000000000000004
40
0.31428571428571433
40
0.32857142857142863
40
0.34285714285714292
40
0.35714285714285721
40
0.3714285714285715
40
0.38571428571428579
40
0.40000000000000008
40
0.41428571428571437
40
0.42857142857142866
40
0.44285714285714295
40
0.45714285714285724
40
0.47142857142857153
40
0.48571428571428582
40
0.50000000000000011
40
0.51428571428571435
40
0.52857142857142858
40
0.54285714285714282
40
0.55714285714285705
40
0.57142857142857129
40
0.58571428571428552
40
0.59999999999999976
40
0.61428571428571399
40
0.62857142857142823
40
0.64285714285714246
40
0.6571428571428567
40
0.67142857142857093
40
0.68571428571428517
40
0.6999999999999994
40
0.71428571428571364
40
0.72857142857142787
40
0.74285714285714211
40
0.75714285714285634
40
0.77142857142857058
40
0.78571428571428481
40
0.79999999999999905
40
0.81428571428571328
40
0.82857142857142752
40
0.84285714285714175
40
0.85714285714285599
40
0.87142857142857022
40
0.88571428571428445
40
0.89999999999999869
40
0.91428571428571292
40
0.92857142857142716
40
0.94285714285714139
40
0.95714285714285563
40
0.97142857142856986
40
0.9857142857142841
40
1
40
1
40
1
40
1
40
1
40
1
41
1
41
1
41
1
41
1
41
1
41
1
41
1
41
1
41
1
41
1
41
1
41
1
41
1
41
1
41
1
41
1
41
1
41
1
41
1
41
1
41
1
41
1
41
1
41
1
41
1
41
1
41
1
41
1
41
1
41
1
41
1
41
1
41
1
41
1
41
1
41
1
41
1
41
1
41
1
41
1
41
1
41
1
41
1
41
1
41
1
41
1
41
1
41
1
41
1
41
1
41
1
41
1
41
1
41
1
41
1
41
1
41
1
41
1
41
1
41
1
41
1
41
1
41
1
41
1
41
1
41
1
41
1
41
1
41
1
41
1
41
1
41
1
41
1
41
1
41
1
10
-156.06747094993875
20
99.368510985227658
30
0
10
-156.06398781006334
20
99.377268859277279
30
0
10
-156.05679654594968
20
99.394680375713705
30
0
10
-156.0453347038825
20
99.420484958844426
30
0
10
-156.02876780221686
20
99.454296805030424
30
0
10
-156.00629840093032
20
99.495751482327336
30
0
10
-155.98255218382772
20
99.536625059633764
30
0
10
-155.95800806609753
20
99.577143095671957
30
0
10
-155.93302362897023
20
99.61747198645935
30
0
10
-155.90773887968436
20
99.657672937847593
30
0
10
-155.88214782870838
20
99.697736805009569
30
0
10
-155.85615604821703
20
99.737612186139387
30
0
10
-155.82964110260525
20
99.777234877271781
30
0
10
-155.80251720219226
20
99.816559418329348
30
0
10
-155.77478129479513
20
99.855581532812479
30
0
10
-155.74648042038805
20
99.894321982408471
30
0
10
-155.71769032572342
20
99.932815935692247
30
0
10
-155.68849103582474
20
99.971100854741962
30
0
10
-155.6589406363594
20
100.00920348470686
30
0
10
-155.62905977032287
20
100.0471321565602
30
0
10
-155.59884634317982
20
100.08488405488121
30
0
10
-155.56828473569422
20
100.12244976522013
30
0
10
-155.53735650810447
20
100.15981856083232
30
0
10
-155.50605206447912
20
100.19698416377625
30
0
10
-155.47437652664371
20
100.23394764258521
30
-8.8817841970012523e-15
10
-155.44234343820182
20
100.27071429096401
30
-8.8817841970012523e-15
10
-155.40997099610425
20
100.30729175667219
30
-8.8817841970012523e-15
10
-155.37727758942572
20
100.34368782815596
30
-8.8817841970012523e-15
10
-155.34427689208161
20
100.37990800010147
30
0
10
-155.31097575261998
20
100.41595442462152
30
0
10
-155.2773769301854
20
100.45182726280231
30
0
10
-155.24348074883696
20
100.48752550067086
30
0
10
-155.20928704636955
20
100.52304791128742
30
0
10
-155.17479733660065
20
100.5583941224827
30
0
10
-155.14001567147659
20
100.5935650416661
30
0
10
-155.10494749252953
20
100.62856228615765
30
0
10
-155.06959895196516
20
100.66338784607325
30
0
10
-155.03397610655065
20
100.69804368435945
30
-8.8817841970012523e-15
10
-154.99808402392904
20
100.73253129397357
30
0
10
-154.96192644818049
20
100.76685153098312
30
0
10
-154.92550630075738
20
100.80100485988224
30
0
10
-154.88882598652265
20
100.83499150292214
30
0
10
-154.8518877539116
20
100.86881161649794
30
0
10
-154.81469409631552
20
100.90246548770259
30
0
10
-154.77724791326685
20
100.93595361387116
30
0
10
-154.7395522981179
20
100.96927659974529
30
0
10
-154.70161041428099
20
101.00243509838478
30
8.8817841970012523e-15
10
-154.6634253480311
20
101.03542974031663
30
8.8817841970012523e-15
10
-154.62499994795351
20
101.0682610577261
30
8.8817841970012523e-15
10
-154.586336759381
20
101.10092945098324
30
8.8817841970012523e-15
10
-154.5474381243514
20
101.13343522961327
30
0
10
-154.50830624642609
20
101.16577863748078
30
0
10
-154.46894326576506
20
101.19795988367416
30
0
10
-154.42935134444673
20
101.22997917631622
30
0
10
-154.38953270547569
20
101.26183674211809
30
0
10
-154.34948957362013
20
101.29353281376126
30
0
10
-154.30922413738361
20
101.32506762543406
30
0
10
-154.26873850752008
20
101.35644140603947
30
0
10
-154.22803467048342
20
101.38765437516284
30
0
10
-154.18711447142525
20
101.41870673724007
30
0
10
-154.14597967676832
20
101.44959867166391
30
0
10
-154.10463202489117
20
101.48033032411327
30
0
10
-154.06307327899623
20
101.51090179946058
30
0
10
-154.02130529017649
20
101.541313152935
30
0
10
-153.97933002874399
20
101.57156438985943
30
-8.8817841970012523e-15
10
-153.93714947755345
20
101.60165549771111
30
-8.8817841970012523e-15
10
-153.89476554622786
20
101.63158647494322
30
0
10
-153.85217998022242
20
101.66135736102616
30
0
10
-153.80939426970093
20
101.69096827002966
30
0
10
-153.7664095704219
20
101.72041941577289
30
0
10
-153.72322673599376
20
101.74971105389075
30
0
10
-153.68852241991851
20
101.77301695655891
30
0
10
-153.66240542590867
20
101.7904248014305
30
0
10
-153.64495466212705
20
101.80199822764141
30
0
10
-153.63621942162621
20
101.80777698982041
30
0
0
LINE
5
163
100
AcDbEntity
8
0
100
AcDbLine
10
-156.06747094993875
20
99.368510985227658
30
0
11
-156.16813120328732
21
99.115414683569369
31
0
0
ARC
5
164
100
AcDbEntity
8
0
100
AcDbCircle
10
-157.09733816826315
20
99.484974443608834
30
0
40
0.99999999999999245
210
-5.0205619806233112e-31
220
-1.4957090910774339e-30
230
1
100
AcDbArc
50
251.44493442661744
51
338.31153088772345
0
ARC
5
165
100
AcDbEntity
8
0
100
AcDbCircle
10
-162.99998891915098
20
81.899994069635085
30
0
40
17.549199999999978
210
2.8608494863716156e-32
220
8.5229474339424296e-32
230
1
100
AcDbArc
50
71.444934426617678
51
72.55506637139537
0
ARC
5
166
100
AcDbEntity
8
0
100
AcDbCircle
10
-157.43914180927473
20
99.596033176186012
30
0
40
1.0000000000000029
210
-7.7219308221888714e-31
220
-1.4312579560876812e-30
230
1
100
AcDbArc
50
165.68846991028994
51
252.55506637140547
0
LINE
5
167
100
AcDbEntity
8
0
100
AcDbLine
10
-158.40810781546659
20
99.843227186721478
30
-3.9443045261050126e-31
11
-158.3407774012351
21
100.10715300932455
31
4.9303806576313238e-31
0
SPLINE
5
168
100
AcDbEntity
8
0
100
AcDbSpline
70
4
71
5
72
81
73
75
74
0
42
0.000000001
43
0.0000000001
44
0.0000000001
40
0
40
0
40
0
40
0
40
0
40
0
40
0.014285714285714285
40
0.028571428571428571
40
0.042857142857142858
40
0.057142857142857141
40
0.071428571428571425
40
0.085714285714285715
40
0.10000000000000001
40
0.1142857142857143
40
0.12857142857142859
40
0.14285714285714288
40
0.15714285714285717
40
0.17142857142857146
40
0.18571428571428575
40
0.20000000000000004
40
0.21428571428571433
40
0.22857142857142862
40
0.24285714285714291
40
0.25714285714285717
40
0.27142857142857146
40
0.28571428571428575
40
0.30000000000000004
40
0.31428571428571433
40
0.32857142857142863
40
0.34285714285714292
40
0.35714285714285721
40
0.3714285714285715
40
0.38571428571428579
40
0.40000000000000008
40
0.41428571428571437
40
0.42857142857142866
40
0.44285714285714295
40
0.45714285714285724
40
0.47142857142857153
40
0.48571428571428582
40
0.50000000000000011
40
0.51428571428571435
40
0.52857142857142858
40
0.54285714285714282
40
0.55714285714285705
40
0.57142857142857129
40
0.58571428571428552
40
0.59999999999999976
40
0.61428571428571399
40
0.62857142857142823
40
0.64285714285714246
40
0.6571428571428567
40
0.67142857142857093
40
0.68571428571428517
40
0.6999999999999994
40
0.71428571428571364
40
0.72857142857142787
40
0.74285714285714211
40
0.75714285714285634
40
0.77142857142857058
40
0.78571428571428481
40
0.79999999999999905
40
0.81428571428571328
40
0.82857142857142752
40
0.84285714285714175
40
0.85714285714285599
40
0.87142857142857022
40
0.88571428571428445
40
0.89999999999999869
40
0.91428571428571292
40
0.92857142857142716
40
0.94285714285714139
40
0.95714285714285563
40
0.97142857142856986
40
0.9857142857142841
40
1
40
1
40
1
40
1
40
1
40
1
41
1
41
1
41
1
41
1
41
1
41
1
41
1
41
1
41
1
41
1
41
1
41
1
41
1
41
1
41
1
41
1
41
1
41
1
41
1
41
1
41
1
41
1
41
1
41
1
41
1
41
1
41
1
41
1
41
1
41
1
41
1
41
1
41
1
41
1
41
1
41
1
41
1
41
1
41
1
41
1
41
1
41
1
41
1
41
1
41
1
41
1
41
1
41
1
41
1
41
1
41
1
41
1
41
1
41
1
41
1
41
1
41
1
41
1
41
1
41
1
41
1
41
1
41
1
41
1
41
1
41
1
41
1
41
1
41
1
41
1
41
1
41
1
41
1
41
1
41
1
10
-158.3407774012351
20
100.10715300932455
30
0
10
-158.33844757150752
20
100.11628561654817
30
0
10
-158.33403119406017
20
100.13459874829594
30
0
10
-158.32813646605817
20
100.16221219639475
30
0
10
-158.32166526702554
20
100.19930433513579
30
0
10
-158.31547694721715
20
100.24604905635557
30
0
10
-158.31066315511111
20
100.29307415129507
30
0
10
-158.3067038600891
20
100.34028060151614
30
0
10
-158.30321196773284
20
100.38759284325633
30
8.8817841970012523e-15
10
-158.30003823390945
20
100.43497809890184
30
8.8817841970012523e-15
10
-158.29719287944627
20
100.48243249069019
30
8.8817841970012523e-15
10
-158.29478251128225
20
100.52996993696858
30
8.8817841970012523e-15
10
-158.29294392004692
20
100.57761046147914
30
8.8817841970012523e-15
10
-158.29177323181312
20
100.62536771215441
30
8.8817841970012523e-15
10
-158.2912754295121
20
100.67324002326163
30
0
10
-158.2914002535916
20
100.72121654195625
30
0
10
-158.29206575207178
20
100.7692811973902
30
0
10
-158.29318516369131
20
100.81741725949394
30
0
10
-158.29469577575364
20
100.86561222364999
30
0
10
-158.2965759909014
20
100.9138606961092
30
0
10
-158.29882915851204
20
100.96216163028537
30
0
10
-158.30147344848768
20
101.01051659048485
30
8.8817841970012523e-15
10
-158.30453008393118
20
101.05892773720869
30
8.8817841970012523e-15
10
-158.3080105181956
20
101.10739563184224
30
8.8817841970012523e-15
10
-158.3119099795689
20
101.15591812831367
30
8.8817841970012523e-15
10
-158.31621439948395
20
101.2044915485899
30
8.8817841970012523e-15
10
-158.320904561058
20
101.25311138393931
30
8.8817841970012523e-15
10
-158.32596100928316
20
101.30177312652057
30
0
10
-158.33136945203398
20
101.35047318430259
30
0
10
-158.3371230837385
20
101.39920927290568
30
0
10
-158.34321957751783
20
101.44797990086694
30
-8.8817841970012523e-15
10
-158.34965926720091
20
101.4967840573878
30
-8.8817841970012523e-15
10
-158.35644300519152
20
101.54562084519486
30
-8.8817841970012523e-15
10
-158.36356978554127
20
101.59448907339737
30
-8.8817841970012523e-15
10
-158.37103579679476
20
101.64338709443066
30
0
10
-158.37883568602317
20
101.69231301828179
30
0
10
-158.38696330622665
20
101.74126483881275
30
0
10
-158.39541260358666
20
101.79024058400225
30
0
10
-158.4041786007555
20
101.83923848299241
30
0
10
-158.4132577655248
20
101.88825702764129
30
0
10
-158.42264746136715
20
101.93729487654601
30
0
10
-158.43234561207149
20
101.98635079596858
30
-8.8817841970012523e-15
10
-158.44235030668881
20
102.03542359083829
30
-8.8817841970012523e-15
10
-158.45265935927404
20
102.08451202783955
30
-8.8817841970012523e-15
10
-158.46327013173001
20
102.13361480502257
30
-8.8817841970012523e-15
10
-158.47417976602384
20
102.18273059340676
30
-8.8817841970012523e-15
10
-158.48538531904228
20
102.23185806192151
30
-8.8817841970012523e-15
10
-158.496883923322
20
102.28099590660705
30
0
10
-158.50867296149832
20
102.33014288365388
30
0
10
-158.52075013902214
20
102.37929782085914
30
0
10
-158.53311337921082
20
102.42845959201874
30
0
10
-158.54576075600559
20
102.47762709920241
30
0
10
-158.55869041508163
20
102.52679925361176
30
0
10
-158.5719004849492
20
102.57597495278389
30
0
10
-158.58538903390235
20
102.62515307348269
30
0
10
-158.59915412529898
20
102.67433249626551
30
-8.8817841970012523e-15
10
-158.61319385095013
20
102.72351212422464
30
-8.8817841970012523e-15
10
-158.62750636867412
20
102.77269090187643
30
-8.8817841970012523e-15
10
-158.642089942327
20
102.82186783926086
30
-8.8817841970012523e-15
10
-158.65694295898533
20
102.87104201721725
30
-8.8817841970012523e-15
10
-158.67206388413865
20
102.92021254260005
30
0
10
-158.68745122578122
20
102.96937851147278
30
0
10
-158.70310349580987
20
103.01853897229469
30
0
10
-158.719019164196
20
103.06769288170194
30
0
10
-158.73519663379494
20
103.1168390858805
30
0
10
-158.75163430780421
20
103.16597640920649
30
0
10
-158.76833064221555
20
103.21510372798033
30
0
10
-158.78528420172589
20
103.26422004818143
30
0
10
-158.80249371371886
20
103.31332458619784
30
0
10
-158.81995811748646
20
103.36241683567513
30
0
10
-158.83767657218652
20
103.41149650168781
30
-8.8817841970012523e-15
10
-158.85205408833659
20
103.45075005799528
30
-8.8817841970012523e-15
10
-158.86295110625275
20
103.48018448409326
30
-8.8817841970012523e-15
10
-158.87026638174495
20
103.49980488407124
30
-8.8817841970012523e-15
10
-158.87393666871137
20
103.509614446371
30
-8.8817841970012523e-15
0
ARC
5
169
100
AcDbEntity
8
0
100
AcDbCircle
10
-162.99998891915098
20
81.899994069635085
30
0
40
21.99999999999994
210
7.5716334037099044e-17
220
3.9655368753159149e-16
230
1
100
AcDbArc
50
79.190287199731898
51
82.809713598281789
0
SPLINE
5
170
100
AcDbEntity
8
0
100
AcDbSpline
70
4
71
5
72
81
73
75
74
0
42
0.000000001
43
0.0000000001
44
0.0000000001
40
0
40
0
40
0
40
0
40
0
40
0
40
0.014285714285714285
40
0.028571428571428571
40
0.042857142857142858
40
0.057142857142857141
40
0.071428571428571425
40
0.085714285714285715
40
0.10000000000000001
40
0.1142857142857143
40
0.12857142857142859
40
0.14285714285714288
40
0.15714285714285717
40
0.17142857142857146
40
0.18571428571428575
40
0.20000000000000004
40
0.21428571428571433
40
0.22857142857142862
40
0.24285714285714291
40
0.25714285714285717
40
0.27142857142857146
40
0.28571428571428575
40
0.30000000000000004
40
0.31428571428571433
40
0.32857142857142863
40
0.34285714285714292
40
0.35714285714285721
40
0.3714285714285715
40
0.38571428571428579
40
0.40000000000000008
40
0.41428571428571437
40
0.42857142857142866
40
0.44285714285714295
40
0.45714285714285724
40
0.47142857142857153
40
0.48571428571428582
40
0.50000000000000011
40
0.51428571428571435
40
0.52857142857142858
40
0.54285714285714282
40
0.55714285714285705
40
0.57142857142857129
40
0.58571428571428552
40
0.59999999999999976
40
0.61428571428571399
40
0.62857142857142823
40
0.64285714285714246
40
0.6571428571428567
40
0.67142857142857093
40
0.68571428571428517
40
0.6999999999999994
40
0.71428571428571364
40
0.72857142857142787
40
0.74285714285714211
40
0.75714285714285634
40
0.77142857142857058
40
0.78571428571428481
40
0.79999999999999905
40
0.81428571428571328
40
0.82857142857142752
40
0.84285714285714175
40
0.85714285714285599
40
0.87142857142857022
40
0.88571428571428445
40
0.89999999999999869
40
0.91428571428571292
40
0.92857142857142716
40
0.94285714285714139
40
0.95714285714285563
40
0.97142857142856986
40
0.9857142857142841
40
1
40
1
40
1
40
1
40
1
40
1
41
1
41
1
41
1
41
1
41
1
41
1
41
1
41
1
41
1
41
1
41
1
41
1
41
1
41
1
41
1
41
1
41
1
41
1
41
1
41
1
41
1
41
1
41
1
41
1
41
1
41
1
41
1
41
1
41
1
41
1
41
1
41
1
41
1
41
1
41
1
41
1
41
1
41
1
41
1
41
1
41
1
41
1
41
1
41
1
41
1
41
1
41
1
41
1
41
1
41
1
41
1
41
1
41
1
41
1
41
1
41
1
41
1
41
1
41
1
41
1
41
1
41
1
41
1
41
1
41
1
41
1
41
1
41
1
41
1
41
1
41
1
41
1
41
1
41
1
41
1
10
-161.8048411236428
20
100.65580677851777
30
0
10
-161.80423479268302
20
100.66521236111684
30
0
10
-161.80277594856406
20
100.68399392010446
30
0
10
-161.79984914369749
20
100.71207744102681
30
0
10
-161.79454151899617
20
100.74935387182879
30
-8.8817841970012523e-15
10
-161.78598204826642
20
100.79572303965389
30
-8.8817841970012523e-15
10
-161.77602868376226
20
100.84193410633227
30
-8.8817841970012523e-15
10
-161.76520660237276
20
100.88805359802448
30
-8.8817841970012523e-15
10
-161.75390730325446
20
100.93412926807
30
-8.8817841970012523e-15
10
-161.74228285485219
20
100.98017606207691
30
-8.8817841970012523e-15
10
-161.73032473487612
20
101.02618713366476
30
0
10
-161.71792725309604
20
101.07214277661392
30
0
10
-161.70495412621548
20
101.11801976400753
30
0
10
-161.69130971546312
20
101.16380137121197
30
0
10
-161.67698979652951
20
101.20948447421091
30
0
10
-161.66204552280266
20
101.25507428239082
30
0
10
-161.64655980141248
20
101.30058083602036
30
0
10
-161.63062031709779
20
101.34601503456079
30
0
10
-161.61429057731669
20
101.39138436470228
30
0
10
-161.59759278913685
20
101.43669037063474
30
0
10
-161.58052409052391
20
101.48193102198096
30
0
10
-161.56306671747683
20
101.52710219167651
30
0
10
-161.54519981799359
20
101.57219937618073
30
0
10
-161.5269123258106
20
101.61721957012226
30
8.8817841970012523e-15
10
-161.50820944226825
20
101.66216220700555
30
8.8817841970012523e-15
10
-161.48910568394376
20
101.70702813623942
30
8.8817841970012523e-15
10
-161.46962072045352
20
101.7518190081083
30
8.8817841970012523e-15
10
-161.44977444760897
20
101.79653654732817
30
8.8817841970012523e-15
10
-161.42958156802791
20
101.84118175418384
30
8.8817841970012523e-15
10
-161.40904926010603
20
101.88575455913846
30
0
10
-161.38818019772407
20
101.93025426277158
30
0
10
-161.36697437574577
20
101.97467980059781
30
0
10
-161.3454312607596
20
102.01903005585221
30
0
10
-161.32355217748486
20
102.06330420678549
30
0
10
-161.3013412599565
20
102.10750186427497
30
0
10
-161.27880418315843
20
102.15162288495742
30
0
10
-161.25594741316573
20
102.19566726040952
30
0
10
-161.23277731689004
20
102.23963498586036
30
0
10
-161.20929917529548
20
102.2835259152089
30
8.8817841970012523e-15
10
-161.18551681375328
20
102.32733970563935
30
8.8817841970012523e-15
10
-161.1614331542664
20
102.37107589613339
30
8.8817841970012523e-15
10
-161.13705055267485
20
102.41473395492105
30
0
10
-161.11237119569626
20
102.45831333593814
30
0
10
-161.08739754340337
20
102.50181354172602
30
0
10
-161.06213250710044
20
102.54523414927368
30
0
10
-161.03657921561569
20
102.58857477782614
30
0
10
-161.01074087933969
20
102.63183507093197
30
0
10
-160.98462062833778
20
102.67501467454663
30
0
10
-160.95822133623
20
102.71811321454707
30
0
10
-160.93154554749276
20
102.76113028515682
30
0
10
-160.90459558518492
20
102.80406545702232
30
0
10
-160.87737362037626
20
102.84691828113463
30
0
10
-160.84988175309172
20
102.88968829500283
30
0
10
-160.82212210390352
20
102.93237502844454
30
0
10
-160.79409685707233
20
102.97497801012865
30
0
10
-160.76580820038089
20
103.0174967738572
30
0
10
-160.73725828758799
20
103.05993086607175
30
0
10
-160.70844919687482
20
103.10227985221316
30
0
10
-160.6793828853269
20
103.14454332727145
30
0
10
-160.65006117096186
20
103.18672091549354
30
0
10
-160.62048578918305
20
103.22881224163743
30
0
10
-160.59065843830385
20
103.27081690706342
30
0
10
-160.56058082763684
20
103.31273446665168
30
0
10
-160.53025473474281
20
103.35456440090907
30
0
10
-160.49968203514476
20
103.396306106038
30
-8.8817841970012523e-15
10
-160.4688646107798
20
103.43795895739288
30
-8.8817841970012523e-15
10
-160.43780427732938
20
103.47952236339658
30
-8.8817841970012523e-15
10
-160.40650270701701
20
103.52099582221237
30
0
10
-160.3749613523222
20
103.56237898184112
30
0
10
-160.34318137851039
20
103.60367168848791
30
0
10
-160.31116367640692
20
103.64487392149643
30
0
10
-160.28535983045367
20
103.67776337554254
30
0
10
-160.26590041301534
20
103.70238981483334
30
0
10
-160.25288013578881
20
103.71878937982045
30
0
10
-160.24635816410887
20
103.72698464701162
30
0
0
LINE
5
171
100
AcDbEntity
8
0
100
AcDbLine
10
-161.8048411236428
20
100.65580677851777
30
0
11
-161.82236365509598
21
100.38399216263265
31
0
0
ARC
5
172
100
AcDbEntity
8
0
100
AcDbCircle
10
-162.82029224041241
20
100.44832363710955
30
8.8817841970012523e-15
40
0.99999999999999145
210
4.1906269020346193e-31
220
-4.059889778145588e-33
230
1
100
AcDbArc
50
269.44493442661826
51
356.3115308877239
0
ARC
5
173
100
AcDbEntity
8
0
100
AcDbCircle
10
-162.99998891915098
20
81.899994069635085
30
0
40
17.549199999999942
210
-4.9029533351099112e-18
220
-5.0608389065368991e-16
230
1
100
AcDbArc
50
89.444934426617564
51
90.555066371395569
0
ARC
5
174
100
AcDbEntity
8
0
100
AcDbCircle
10
-163.17968585623004
20
100.44832363460677
30
8.8817841970012523e-15
40
0.99999999999998823
210
-2.0177571833186895e-46
220
3.130003083224354e-45
230
1
100
AcDbArc
50
183.68846991028977
51
270.55506637140394
0
LINE
5
175
100
AcDbEntity
8
0
100
AcDbLine
10
-164.17761444065042
20
100.38399214623075
30
8.8817841970012523e-15
11
-164.19513697588945
21
100.65580676187182
31
4.9303806576313238e-31
0
SPLINE
5
176
100
AcDbEntity
8
0
100
AcDbSpline
70
4
71
5
72
81
73
75
74
0
42
0.000000001
43
0.0000000001
44
0.0000000001
40
0
40
0
40
0
40
0
40
0
40
0
40
0.014285714285714285
40
0.028571428571428571
40
0.042857142857142858
40
0.057142857142857141
40
0.071428571428571425
40
0.085714285714285715
40
0.10000000000000001
40
0.1142857142857143
40
0.12857142857142859
40
0.14285714285714288
40
0.15714285714285717
40
0.17142857142857146
40
0.18571428571428575
40
0.20000000000000004
40
0.21428571428571433
40
0.22857142857142862
40
0.24285714285714291
40
0.25714285714285717
40
0.27142857142857146
40
0.28571428571428575
40
0.30000000000000004
40
0.31428571428571433
40
0.32857142857142863
40
0.34285714285714292
40
0.35714285714285721
40
0.3714285714285715
40
0.38571428571428579
40
0.40000000000000008
40
0.41428571428571437
40
0.42857142857142866
40
0.44285714285714295
40
0.45714285714285724
40
0.47142857142857153
40
0.48571428571428582
40
0.50000000000000011
40
0.51428571428571435
40
0.52857142857142858
40
0.54285714285714282
40
0.55714285714285705
40
0.57142857142857129
40
0.58571428571428552
40
0.59999999999999976
40
0.61428571428571399
40
0.62857142857142823
40
0.64285714285714246
40
0.6571428571428567
40
0.67142857142857093
40
0.68571428571428517
40
0.6999999999999994
40
0.71428571428571364
40
0.72857142857142787
40
0.74285714285714211
40
0.75714285714285634
40
0.77142857142857058
40
0.78571428571428481
40
0.79999999999999905
40
0.81428571428571328
40
0.82857142857142752
40
0.84285714285714175
40
0.85714285714285599
40
0.87142857142857022
40
0.88571428571428445
40
0.89999999999999869
40
0.91428571428571292
40
0.92857142857142716
40
0.94285714285714139
40
0.95714285714285563
40
0.97142857142856986
40
0.9857142857142841
40
1
40
1
40
1
40
1
40
1
40
1
41
1
41
1
41
1
41
1
41
1
41
1
41
1
41
1
41
1
41
1
41
1
41
1
41
1
41
1
41
1
41
1
41
1
41
1
41
1
41
1
41
1
41
1
41
1
41
1
41
1
41
1
41
1
41
1
41
1
41
1
41
1
41
1
41
1
41
1
41
1
41
1
41
1
41
1
41
1
41
1
41
1
41
1
41
1
41
1
41
1
41
1
41
1
41
1
41
1
41
1
41
1
41
1
41
1
41
1
41
1
41
1
41
1
41
1
41
1
41
1
41
1
41
1
41
1
41
1
41
1
41
1
41
1
41
1
41
1
41
1
41
1
41
1
41
1
41
1
41
1
10
-164.19513697588945
20
100.6558067618718
30
0
10
-164.19574330698021
20
100.6652123444624
30
0
10
-164.19720215136081
20
100.68399390342972
30
0
10
-164.20012895661856
20
100.71207742431129
30
0
10
-164.20543658183897
20
100.74935385503936
30
0
10
-164.21399605321454
20
100.79572302274526
30
0
10
-164.22394941836239
20
100.841934089285
30
0
10
-164.23477150039423
20
100.88805358082647
30
0
10
-164.24607080015426
20
100.93412925071462
30
0
10
-164.25769524919784
20
100.98017604455961
30
0
10
-164.26965336981479
20
101.02618711598092
30
8.8817841970012523e-15
10
-164.28205085223496
20
101.07214275875741
30
0
10
-164.29502397975443
20
101.1180197459703
30
0
10
-164.30866839114444
20
101.16380135298472
30
0
10
-164.32298831071438
20
101.20948445578422
30
0
10
-164.33793258507617
20
101.255074263756
30
0
10
-164.35341830710016
20
101.30058081716984
30
0
10
-164.36935779204765
20
101.34601501548826
30
0
10
-164.38568753246068
20
101.39138434540232
30
0
10
-164.40238532127154
20
101.4366903511022
30
0
10
-164.41945402051454
20
101.4819310022107
30
0
10
-164.43691139419084
20
101.52710217166309
30
0
10
-164.45477829430214
20
101.57219935591847
30
0
10
-164.47306578711218
20
101.6172195496053
30
8.8817841970012523e-15
10
-164.49176867128045
20
101.6621621862281
30
8.8817841970012523e-15
10
-164.51087243022985
20
101.70702811519588
30
8.8817841970012523e-15
10
-164.53035739434395
20
101.7518189867934
30
8.8817841970012523e-15
10
-164.55020366781133
20
101.79653652573683
30
0
10
-164.5703965480142
20
101.84118173231126
30
0
10
-164.5909288565569
20
101.88575453697992
30
0
10
-164.6117979195586
20
101.93025424032237
30
0
10
-164.63300374215567
20
101.97467977785323
30
0
10
-164.65454685775961
20
102.01903003280761
30
0
10
-164.67642594165096
20
102.06330418343613
30
0
10
-164.69863685979499
20
102.10750184061625
30
0
10
-164.72117393720748
20
102.15162286098482
30
0
10
-164.74403070781364
20
102.19566723611857
30
0
10
-164.76720080470176
20
102.23963496124669
30
0
10
-164.7906789469076
20
102.28352589026824
30
8.8817841970012523e-15
10
-164.81446130905999
20
102.32733968036743
30
8.8817841970012523e-15
10
-164.83854496915603
20
102.37107587052606
30
8.8817841970012523e-15
10
-164.8629275713557
20
102.41473392897407
30
8.8817841970012523e-15
10
-164.88760692894124
20
102.45831330964747
30
8.8817841970012523e-15
10
-164.91258058183996
20
102.50181351508751
30
8.8817841970012523e-15
10
-164.9378456187477
20
102.54523412228326
30
8.8817841970012523e-15
10
-164.96339891083608
20
102.58857475047984
30
0
10
-164.98923724771464
20
102.63183504322578
30
-8.8817841970012523e-15
10
-165.0153574993179
20
102.67501464647664
30
-8.8817841970012523e-15
10
-165.04175679202598
20
102.71811318610942
30
-8.8817841970012523e-15
10
-165.06843258136234
20
102.7611302563476
30
-8.8817841970012523e-15
10
-165.09538254426818
20
102.80406542783773
30
-8.8817841970012523e-15
10
-165.12260450967372
20
102.8469182515709
30
-8.8817841970012523e-15
10
-165.15009637755398
20
102.88968826505622
30
0
10
-165.1778560273367
20
102.93237499811127
30
0
10
-165.20588127476128
20
102.97497797940505
30
0
10
-165.23416993204489
20
103.01749674273961
30
0
10
-165.26271984542885
20
103.05993083455652
30
0
10
-165.29152893673185
20
103.10227982029667
30
0
10
-165.32059524886841
20
103.14454329495013
30
0
10
-165.34991696382082
20
103.18672088276384
30
0
10
-165.37949234618594
20
103.22881220849578
30
0
10
-165.40931969765018
20
103.27081687350635
30
0
10
-165.43939730890099
20
103.3127344326757
30
0
10
-165.46972340237761
20
103.35456436651069
30
0
10
-165.50029610255706
20
103.3963060712138
30
0
10
-165.53111352750216
20
103.43795892213944
30
-8.8817841970012523e-15
10
-165.56217386153148
20
103.47952232771055
30
-8.8817841970012523e-15
10
-165.59347543242149
20
103.52099578609041
30
0
10
-165.62501678769269
20
103.56237894527985
30
0
10
-165.65679676207964
20
103.60367165148398
30
0
10
-165.68881446475697
20
103.64487388404655
30
0
10
-165.71461831116832
20
103.67776333773324
30
0
10
-165.73407772894961
20
103.70238977675307
30
0
10
-165.7470980064046
20
103.7187893415588
30
0
10
-165.75361997819866
20
103.72698460865914
30
0
0
ARC
5
177
100
AcDbEntity
8
0
100
AcDbCircle
10
-162.99998891915098
20
81.899994069635085
30
0
40
21.99999999999994
210
-2.9173148913362012e-31
220
-3.6804015099759626e-32
230
1
100
AcDbArc
50
97.190287199731841
51
100.80971359828183
0
SPLINE
5
178
100
AcDbEntity
8
0
100
AcDbSpline
70
4
71
5
72
81
73
75
74
0
42
0.000000001
43
0.0000000001
44
0.0000000001
40
0
40
0
40
0
40
0
40
0
40
0
40
0.014285714285714285
40
0.028571428571428571
40
0.042857142857142858
40
0.057142857142857141
40
0.071428571428571425
40
0.085714285714285715
40
0.10000000000000001
40
0.1142857142857143
40
0.12857142857142859
40
0.14285714285714288
40
0.15714285714285717
40
0.17142857142857146
40
0.18571428571428575
40
0.20000000000000004
40
0.21428571428571433
40
0.22857142857142862
40
0.24285714285714291
40
0.25714285714285717
40
0.27142857142857146
40
0.28571428571428575
40
0.30000000000000004
40
0.31428571428571433
40
0.32857142857142863
40
0.34285714285714292
40
0.35714285714285721
40
0.3714285714285715
40
0.38571428571428579
40
0.40000000000000008
40
0.41428571428571437
40
0.42857142857142866
40
0.44285714285714295
40
0.45714285714285724
40
0.47142857142857153
40
0.48571428571428582
40
0.50000000000000011
40
0.51428571428571435
40
0.52857142857142858
40
0.54285714285714282
40
0.55714285714285705
40
0.57142857142857129
40
0.58571428571428552
40
0.59999999999999976
40
0.61428571428571399
40
0.62857142857142823
40
0.64285714285714246
40
0.6571428571428567
40
0.67142857142857093
40
0.68571428571428517
40
0.6999999999999994
40
0.71428571428571364
40
0.72857142857142787
40
0.74285714285714211
40
0.75714285714285634
40
0.77142857142857058
40
0.78571428571428481
40
0.79999999999999905
40
0.81428571428571328
40
0.82857142857142752
40
0.84285714285714175
40
0.85714285714285599
40
0.87142857142857022
40
0.88571428571428445
40
0.89999999999999869
40
0.91428571428571292
40
0.92857142857142716
40
0.94285714285714139
40
0.95714285714285563
40
0.97142857142856986
40
0.9857142857142841
40
1
40
1
40
1
40
1
40
1
40
1
41
1
41
1
41
1
41
1
41
1
41
1
41
1
41
1
41
1
41
1
41
1
41
1
41
1
41
1
41
1
41
1
41
1
41
1
41
1
41
1
41
1
41
1
41
1
41
1
41
1
41
1
41
1
41
1
41
1
41
1
41
1
41
1
41
1
41
1
41
1
41
1
41
1
41
1
41
1
41
1
41
1
41
1
41
1
41
1
41
1
41
1
41
1
41
1
41
1
41
1
41
1
41
1
41
1
41
1
41
1
41
1
41
1
41
1
41
1
41
1
41
1
41
1
41
1
41
1
41
1
41
1
41
1
41
1
41
1
41
1
41
1
41
1
41
1
41
1
41
1
10
-167.65920069065555
20
100.10715294443119
30
0
10
-167.66153052051033
20
100.11628555162238
30
0
10
-167.66594689821272
20
100.13459868330864
30
0
10
-167.6718416265993
20
100.16221213132538
30
0
10
-167.67831282614861
20
100.19930426997627
30
0
10
-167.68450114660797
20
100.24604899110986
30
0
10
-167.68931493936904
20
100.29307408598228
30
0
10
-167.69327423504851
20
100.34028053614824
30
0
10
-167.69676612806376
20
100.38759277783979
30
8.8817841970012523e-15
10
-167.69993986254707
20
100.43497803344107
30
8.8817841970012523e-15
10
-167.70278521767125
20
100.4824324251898
30
0
10
-167.70519558649735
20
100.52996987143464
30
0
10
-167.70703417839624
20
100.57761039591958
30
0
10
-167.70820486729517
20
100.62536764657855
30
0
10
-167.70870267026297
20
100.67323995767882
30
0
10
-167.70857784685165
20
100.72121647637518
30
0
10
-167.70791234904092
20
100.76928113181842
30
0
10
-167.70679293809189
20
100.81741719393774
30
0
10
-167.70528232670077
20
100.86561215811483
30
0
10
-167.70340211222501
20
100.91386063060023
30
0
10
-167.70114894528712
20
100.96216156480776
30
0
10
-167.69850465598495
20
101.0105165250441
30
8.8817841970012523e-15
10
-167.6954480212157
20
101.05892767181049
30
8.8817841970012523e-15
10
-167.69196758762635
20
101.10739556649251
30
0
10
-167.68806812692887
20
101.15591806301823
30
0
10
-167.68376370769033
20
101.20449148335446
30
0
10
-167.67907354679349
20
101.25311131876919
30
0
10
-167.6740170992461
20
101.30177306142087
30
0
10
-167.66860865717354
20
101.35047311927821
30
0
10
-167.66285502614781
20
101.39920920796146
30
0
10
-167.65675853304776
20
101.44797983600762
30
0
10
-167.65031884404448
20
101.49678399261816
30
0
10
-167.64353510673405
20
101.54562078051974
30
0
10
-167.63640832706494
20
101.59448900882148
30
0
10
-167.62894231649244
20
101.64338702995877
30
8.8817841970012523e-15
10
-167.6211424279455
20
101.69231295391853
30
0
10
-167.6130148084238
20
101.74126477456268
30
0
10
-167.60456551174596
20
101.79024051986987
30
0
10
-167.59579951525953
20
101.83923841898212
30
0
10
-167.58672035117297
20
101.88825696375747
30
0
10
-167.5773306560136
20
101.93729481279294
30
0
10
-167.56763250599252
20
101.9863507323506
30
0
10
-167.55762781205871
20
102.03542352735965
30
0
10
-167.54731876015714
20
102.08451196450449
30
0
10
-167.5367079883851
20
102.1336147418353
30
0
10
-167.52579835477533
20
102.18273053037146
30
0
10
-167.51459280244114
20
102.23185799904228
30
0
10
-167.50309419884584
20
102.28099584388795
30
0
10
-167.49130516135403
20
102.33014282109897
30
0
10
-167.47922798451484
20
102.37929775847246
30
0
10
-167.46686474501089
20
102.42845952980426
30
0
10
-167.45421736890094
20
102.47762703716407
30
0
10
-167.44128771050976
20
102.52679919175351
30
0
10
-167.42807764132709
20
102.57597489110962
30
0
10
-167.41458909305891
20
102.62515301199629
30
0
10
-167.40082400234726
20
102.67433243497084
30
0
10
-167.38678427738108
20
102.7235120631255
30
0
10
-167.37247176034199
20
102.77269084097665
30
0
10
-167.35788818737407
20
102.82186777856421
30
0
10
-167.34303517140066
20
102.87104195672745
30
-8.8817841970012523e-15
10
-167.32791424693218
20
102.92021248232088
30
0
10
-167.31252690597438
20
102.96937845140791
30
0
10
-167.29687463663043
20
103.01853891244782
30
0
10
-167.28095896892893
20
103.06769282207674
30
0
10
-167.26478150001446
20
103.11683902648059
30
0
10
-167.24834382668959
20
103.16597635003554
30
0
10
-167.23164749296251
20
103.21510366904195
30
0
10
-167.21469393413625
20
103.26421998947916
30
0
10
-167.19748442282722
20
103.31332452773529
30
0
10
-167.18002001974332
20
103.36241677745578
30
0
10
-167.16230156572689
20
103.41149644371527
30
-8.8817841970012523e-15
10
-167.14792405012355
20
103.45075000022298
30
-8.8817841970012523e-15
10
-167.13702703261734
20
103.48018442647275
30
-8.8817841970012523e-15
10
-167.12971175739841
20
103.49980482655262
30
-8.8817841970012523e-15
10
-167.12604147056862
20
103.5096143889035
30
-8.8817841970012523e-15
0
LINE
5
179
100
AcDbEntity
8
0
100
AcDbLine
10
-167.65920069065555
20
100.10715294443119
30
0
11
-167.59187027274811
21
99.843227122765882
31
-4.9303806576313238e-31
0
ARC
5
180
100
AcDbEntity
8
0
100
AcDbCircle
10
-168.56083627549702
20
99.596033098734722
30
-8.8817841970012523e-15
40
0.99999999999998779
210
-1.5051553023658119e-30
220
-4.7298374909138105e-31
230
1
100
AcDbArc
50
-72.555065573382024
51
14.311530887722498
0
ARC
5
181
100
AcDbEntity
8
0
100
AcDbCircle
10
-162.99998891915098
20
81.899994069635085
30
0
40
17.549199999999963
210
-1.5172553707293572e-16
220
4.8282947790137134e-16
230
1
100
AcDbArc
50
107.44493442661764
51
108.55506637139581
0
ARC
5
182
100
AcDbEntity
8
0
100
AcDbCircle
10
-168.90263991496181
20
99.484974361396908
30
0
40
1.0000000000000044
210
-8.8296757284133592e-31
220
-2.0490926010309126e-30
230
1
100
AcDbArc
50
201.6884699102884
51
288.55506637139939
0
LINE
5
183
100
AcDbEntity
8
0
100
AcDbLine
10
-169.83184687479041
20
99.115414588415518
30
-1.5777218104420038e-30
11
-169.93250713166407
21
99.368510888671793
31
8.8817841970012523e-15
0
SPLINE
5
184
100
AcDbEntity
8
0
100
AcDbSpline
70
4
71
5
72
81
73
75
74
0
42
0.000000001
43
0.0000000001
44
0.0000000001
40
0
40
0
40
0
40
0
40
0
40
0
40
0.014285714285714285
40
0.028571428571428571
40
0.042857142857142858
40
0.057142857142857141
40
0.071428571428571425
40
0.085714285714285715
40
0.10000000000000001
40
0.1142857142857143
40
0.12857142857142859
40
0.14285714285714288
40
0.15714285714285717
40
0.17142857142857146
40
0.18571428571428575
40
0.20000000000000004
40
0.21428571428571433
40
0.22857142857142862
40
0.24285714285714291
40
0.25714285714285717
40
0.27142857142857146
40
0.28571428571428575
40
0.30000000000000004
40
0.31428571428571433
40
0.32857142857142863
40
0.34285714285714292
40
0.35714285714285721
40
0.3714285714285715
40
0.38571428571428579
40
0.40000000000000008
40
0.41428571428571437
40
0.42857142857142866
40
0.44285714285714295
40
0.45714285714285724
40
0.47142857142857153
40
0.48571428571428582
40
0.50000000000000011
40
0.51428571428571435
40
0.52857142857142858
40
0.54285714285714282
40
0.55714285714285705
40
0.57142857142857129
40
0.58571428571428552
40
0.59999999999999976
40
0.61428571428571399
40
0.62857142857142823
40
0.64285714285714246
40
0.6571428571428567
40
0.67142857142857093
40
0.68571428571428517
40
0.6999999999999994
40
0.71428571428571364
40
0.72857142857142787
40
0.74285714285714211
40
0.75714285714285634
40
0.77142857142857058
40
0.78571428571428481
40
0.79999999999999905
40
0.81428571428571328
40
0.82857142857142752
40
0.84285714285714175
40
0.85714285714285599
40
0.87142857142857022
40
0.88571428571428445
40
0.89999999999999869
40
0.91428571428571292
40
0.92857142857142716
40
0.94285714285714139
40
0.95714285714285563
40
0.97142857142856986
40
0.9857142857142841
40
1
40
1
40
1
40
1
40
1
40
1
41
1
41
1
41
1
41
1
41
1
41
1
41
1
41
1
41
1
41
1
41
1
41
1
41
1
41
1
41
1
41
1
41
1
41
1
41
1
41
1
41
1
41
1
41
1
41
1
41
1
41
1
41
1
41
1
41
1
41
1
41
1
41
1
41
1
41
1
41
1
41
1
41
1
41
1
41
1
41
1
41
1
41
1
41
1
41
1
41
1
41
1
41
1
41
1
41
1
41
1
41
1
41
1
41
1
41
1
41
1
41
1
41
1
41
1
41
1
41
1
41
1
41
1
41
1
41
1
41
1
41
1
41
1
41
1
41
1
41
1
41
1
41
1
41
1
41
1
41
1
10
-169.93250713166412
20
99.368510888671793
30
8.8817841970012523e-15
10
-169.93599027166147
20
99.377268762672884
30
8.8817841970012523e-15
10
-169.94318153601765
20
99.394680279009165
30
8.8817841970012523e-15
10
-169.95464337844425
20
99.420484861980256
30
-8.8817841970012523e-15
10
-169.97121028058081
20
99.454296707935512
30
-8.8817841970012523e-15
10
-169.99367968244474
20
99.495751384919444
30
-8.8817841970012523e-15
10
-170.01742590011662
20
99.536624961895143
30
-8.8817841970012523e-15
10
-170.04197001841112
20
99.577142997591494
30
-8.8817841970012523e-15
10
-170.06695445610012
20
99.617471888030877
30
-8.8817841970012523e-15
10
-170.09223920594596
20
99.65767283906699
30
-8.8817841970012523e-15
10
-170.11783025747991
20
99.697736705872515
30
-8.8817841970012523e-15
10
-170.14382203852662
20
99.737612086640326
30
0
10
-170.17033698469027
20
99.777234777403422
30
0
10
-170.197460885651
20
99.816559318083193
30
0
10
-170.22519679359164
20
99.85558143218006
30
0
10
-170.25349766853824
20
99.89432188138187
30
0
10
-170.28228776373908
20
99.932815834264645
30
0
10
-170.31148705417095
20
99.971100752907645
30
0
10
-170.34103745416698
20
100.00920338246101
30
0
10
-170.37091832073179
20
100.04713205389814
30
0
10
-170.40113174840062
20
100.08488395179836
30
0
10
-170.43169335640948
20
100.1224496617116
30
0
10
-170.4626215845197
20
100.15981845689303
30
0
10
-170.49392602866271
20
100.19698405940098
30
0
10
-170.5256015670129
20
100.23394753776873
30
0
10
-170.55763465596692
20
100.27071418570138
30
-8.8817841970012523e-15
10
-170.59000709857389
20
100.30729165095866
30
-8.8817841970012523e-15
10
-170.62270050575935
20
100.34368772198711
30
-8.8817841970012523e-15
10
-170.65570120360798
20
100.37990789347296
30
0
10
-170.68900234357162
20
100.41595431752921
30
0
10
-170.72260116650585
20
100.45182715524203
30
0
10
-170.7564973483515
20
100.48752539263847
30
0
10
-170.79069105131364
20
100.52304780277879
30
0
10
-170.82518076157481
20
100.55839401349368
30
0
10
-170.85996242718875
20
100.59356493219268
30
0
10
-170.89503060662324
20
100.62856217619577
30
0
10
-170.93037914767268
20
100.66338773561903
30
0
10
-170.96600199356988
20
100.69804357340908
30
0
10
-171.00189407667185
20
100.7325311825233
30
0
10
-171.03805165289839
20
100.76685141902928
30
0
10
-171.0744718007972
20
100.80100474742112
30
0
10
-171.11115211550526
20
100.83499138995015
30
0
10
-171.1480903485874
20
100.86881150301147
30
0
10
-171.18528400665218
20
100.90246537369808
30
0
10
-171.22273019016728
20
100.93595349934512
30
0
10
-171.26042580578036
20
100.96927648469423
30
0
10
-171.29836769007909
20
101.00243498280526
30
8.8817841970012523e-15
10
-171.33655275678854
20
101.03542962420525
30
8.8817841970012523e-15
10
-171.37497815732337
20
101.06826094107953
30
8.8817841970012523e-15
10
-171.41364134635086
20
101.10092933379819
30
8.8817841970012523e-15
10
-171.45253998183324
20
101.13343511188644
30
8.8817841970012523e-15
10
-171.49167186020904
20
101.16577851920894
30
8.8817841970012523e-15
10
-171.5310348413183
20
101.19795976485405
30
8.8817841970012523e-15
10
-171.57062676308257
20
101.22997905694467
30
8.8817841970012523e-15
10
-171.61044540249733
20
101.26183662219196
30
0
10
-171.65048853479433
20
101.2935326932774
30
0
10
-171.69075397147009
20
101.32506750438938
30
0
10
-171.73123960177062
20
101.35644128443091
30
-8.8817841970012523e-15
10
-171.77194343924199
20
101.38765425298736
30
-8.8817841970012523e-15
10
-171.81286363873261
20
101.41870661449467
30
-8.8817841970012523e-15
10
-171.85399843381987
20
101.44959854834556
30
-8.8817841970012523e-15
10
-171.89534608612502
20
101.48033020021904
30
-8.8817841970012523e-15
10
-171.93690483244575
20
101.51090167498752
30
-8.8817841970012523e-15
10
-171.97867282168909
20
101.54131302788019
30
-8.8817841970012523e-15
10
-172.02064808354291
20
101.57156426422
30
-8.8817841970012523e-15
10
-172.06282863515253
20
101.60165537148418
30
-8.8817841970012523e-15
10
-172.10521256689501
20
101.63158634812601
30
0
10
-172.14779813331512
20
101.66135723361579
30
0
10
-172.19058384424901
20
101.69096814202337
30
0
10
-172.23356854393825
20
101.72041928716791
30
0
10
-172.27675137877435
20
101.74971092468431
30
0
10
-172.31145569517423
20
101.7730168268691
30
0
10
-172.33757268942651
20
101.79042467137697
30
0
10
-172.35502345336931
20
101.80199809734482
30
0
10
-172.36375869395061
20
101.80777685940215
30
0
0
ARC
5
185
100
AcDbEntity
8
0
100
AcDbCircle
10
-162.99998891915098
20
81.899994069635085
30
0
40
21.999999999999954
210
9.0127821589442925e-32
220
4.2392273443005191e-32
230
1
100
AcDbArc
50
115.19028719973188
51
118.80971359828172
0
SPLINE
5
186
100
AcDbEntity
8
0
100
AcDbSpline
70
4
71
5
72
81
73
75
74
0
42
0.000000001
43
0.0000000001
44
0.0000000001
40
0
40
0
40
0
40
0
40
0
40
0
40
0.014285714285714285
40
0.028571428571428571
40
0.042857142857142858
40
0.057142857142857141
40
0.071428571428571425
40
0.085714285714285715
40
0.10000000000000001
40
0.1142857142857143
40
0.12857142857142859
40
0.14285714285714288
40
0.15714285714285717
40
0.17142857142857146
40
0.18571428571428575
40
0.20000000000000004
40
0.21428571428571433
40
0.22857142857142862
40
0.24285714285714291
40
0.25714285714285717
40
0.27142857142857146
40
0.28571428571428575
40
0.30000000000000004
40
0.31428571428571433
40
0.32857142857142863
40
0.34285714285714292
40
0.35714285714285721
40
0.3714285714285715
40
0.38571428571428579
40
0.40000000000000008
40
0.41428571428571437
40
0.42857142857142866
40
0.44285714285714295
40
0.45714285714285724
40
0.47142857142857153
40
0.48571428571428582
40
0.50000000000000011
40
0.51428571428571435
40
0.52857142857142858
40
0.54285714285714282
40
0.55714285714285705
40
0.57142857142857129
40
0.58571428571428552
40
0.59999999999999976
40
0.61428571428571399
40
0.62857142857142823
40
0.64285714285714246
40
0.6571428571428567
40
0.67142857142857093
40
0.68571428571428517
40
0.6999999999999994
40
0.71428571428571364
40
0.72857142857142787
40
0.74285714285714211
40
0.75714285714285634
40
0.77142857142857058
40
0.78571428571428481
40
0.79999999999999905
40
0.81428571428571328
40
0.82857142857142752
40
0.84285714285714175
40
0.85714285714285599
40
0.87142857142857022
40
0.88571428571428445
40
0.89999999999999869
40
0.91428571428571292
40
0.92857142857142716
40
0.94285714285714139
40
0.95714285714285563
40
0.97142857142856986
40
0.9857142857142841
40
1
40
1
40
1
40
1
40
1
40
1
41
1
41
1
41
1
41
1
41
1
41
1
41
1
41
1
41
1
41
1
41
1
41
1
41
1
41
1
41
1
41
1
41
1
41
1
41
1
41
1
41
1
41
1
41
1
41
1
41
1
41
1
41
1
41
1
41
1
41
1
41
1
41
1
41
1
41
1
41
1
41
1
41
1
41
1
41
1
41
1
41
1
41
1
41
1
41
1
41
1
41
1
41
1
41
1
41
1
41
1
41
1
41
1
41
1
41
1
41
1
41
1
41
1
41
1
41
1
41
1
41
1
41
1
41
1
41
1
41
1
41
1
41
1
41
1
41
1
41
1
41
1
41
1
41
1
41
1
41
1
10
-173.05748414683609
20
97.776255542944384
30
0
10
-173.06252207752638
20
97.784221211505184
30
0
10
-173.07238137122997
20
97.800273298965536
30
0
10
-173.08652061578428
20
97.824713677390548
30
8.8817841970012523e-15
10
-173.10413719348472
20
97.857990686923102
30
8.8817841970012523e-15
10
-173.12446754921015
20
97.900535262371008
30
8.8817841970012523e-15
10
-173.14357729166133
20
97.943771241508259
30
8.8817841970012523e-15
10
-173.1619304009626
20
97.987443753899029
30
8.8817841970012523e-15
10
-173.17987167529364
20
98.031361315376046
30
8.8817841970012523e-15
10
-173.19753292541859
20
98.07544663360099
30
8.8817841970012523e-15
10
-173.21490323245865
20
98.119699179012059
30
0
10
-173.23188550819623
20
98.164165132101274
30
0
10
-173.24835584468929
20
98.208905807209902
30
0
10
-173.26422703805343
20
98.253963888884556
30
0
10
-173.27949383449973
20
98.299339332729701
30
-8.8817841970012523e-15
10
-173.29420067998916
20
98.345006286020407
30
-8.8817841970012523e-15
10
-173.30842054932043
20
98.390924139916393
30
-8.8817841970012523e-15
10
-173.32223078748007
20
98.437050172470734
30
-8.8817841970012523e-15
10
-173.33568717364702
20
98.483353111795694
30
0
10
-173.34880858136842
20
98.529821154180311
30
0
10
-173.36159150178415
20
98.576454339276509
30
0
10
-173.37401913768764
20
98.623259769636874
30
0
10
-173.38607197234046
20
98.670246058319663
30
0
10
-173.39773928643413
20
98.717417278515015
30
0
10
-173.40902495496368
20
98.764769914647147
30
0
10
-173.41994122135679
20
98.812296121272254
30
0
10
-173.43050496868028
20
98.859985671988099
30
-8.8817841970012523e-15
10
-173.44073330674627
20
98.907828267654594
30
-8.8817841970012523e-15
10
-173.45063871817513
20
98.955816075537257
30
-8.8817841970012523e-15
10
-173.46022696953821
20
99.003944820024529
30
-8.8817841970012523e-15
10
-173.46949981294154
20
99.052212363605634
30
-8.8817841970012523e-15
10
-173.47845661854078
20
99.10061784811289
30
0
10
-173.48709629837913
20
99.149160683595895
30
0
10
-173.49541944116487
20
99.197839426594996
30
0
10
-173.5034291626819
20
99.246651332378633
30
0
10
-173.51112996982206
20
99.29559294929156
30
0
10
-173.51852708879858
20
99.344660469855711
30
0
10
-173.52562566774708
20
99.393850147834527
30
0
10
-173.53242989318125
20
99.443158760956891
30
0
10
-173.53894265838932
20
99.492583783382287
30
0
10
-173.54516605634154
20
99.54212312462883
30
-8.8817841970012523e-15
10
-173.55110168038595
20
99.591774969757481
30
-8.8817841970012523e-15
10
-173.55675097864594
20
99.641537591672744
30
-8.8817841970012523e-15
10
-173.56211564896319
20
99.691409141927565
30
-8.8817841970012523e-15
10
-173.56719779799272
20
99.741387567077197
30
0
10
-173.57199973320752
20
99.791470720005307
30
0
10
-173.57652384235132
20
99.841656425316387
30
0
10
-173.58077244959799
20
99.891942556776115
30
0
10
-173.58474765985093
20
99.94232712264116
30
0
10
-173.58845129312539
20
99.992808299025668
30
0
10
-173.59188497644772
20
100.04338437311561
30
0
10
-173.59505020232956
20
100.0940537055324
30
0
10
-173.59794839788134
20
100.1448146877493
30
0
10
-173.60058100231578
20
100.1956656929396
30
-8.8817841970012523e-15
10
-173.60294950569536
20
100.24660505591234
30
-8.8817841970012523e-15
10
-173.60505540394934
20
100.29763111355892
30
-8.8817841970012523e-15
10
-173.60690017291009
20
100.34874223299531
30
0
10
-173.60848523843413
20
100.39993684113139
30
0
10
-173.60981194577792
20
100.45121345996129
30
0
10
-173.61088154488664
20
100.5025707168904
30
0
10
-173.61169521916923
20
100.5540072882971
30
0
10
-173.61225410827564
20
100.60552185343153
30
0
10
-173.61255933343392
20
100.65711304747539
30
0
10
-173.61261202737052
20
100.70877940532596
30
0
10
-173.61241335251211
20
100.76051933609597
30
0
10
-173.61196446422036
20
100.81233122826156
30
-8.8817841970012523e-15
10
-173.61126648369202
20
100.86421353599616
30
-8.8817841970012523e-15
10
-173.61032046881218
20
100.91616487039686
30
-8.8817841970012523e-15
10
-173.60912738776148
20
100.9681840929444
30
-8.8817841970012523e-15
10
-173.60768809286114
20
101.02027039429019
30
0
10
-173.60600329266254
20
101.07242323410898
30
0
10
-173.60445947881036
20
101.11419848147176
30
0
10
-173.60319153723378
20
101.14555964795741
30
0
10
-173.60229733412939
20
101.16648030166685
30
0
10
-173.6018380053971
20
101.17694393086728
30
0
0
LINE
5
187
100
AcDbEntity
8
0
100
AcDbLine
10
-173.05748414683609
20
97.776255542944384
30
0
11
-172.91189154999137
21
97.546053413802809
31
0
0
ARC
5
188
100
AcDbEntity
8
0
100
AcDbCircle
10
-173.75704582664071
20
97.011530964637728
30
0
40
1.0000000000000138
210
-0
220
0
230
1
100
AcDbArc
50
-54.555065573382223
51
32.31153088772264
0
ARC
5
189
100
AcDbEntity
8
0
100
AcDbCircle
10
-162.99998891915098
20
81.899994069635085
30
0
40
17.549199999999949
210
-2.5701729759575239e-30
220
-1.8295622183611396e-30
230
1
100
AcDbArc
50
125.44493442661768
51
126.55506637139597
0
ARC
5
190
100
AcDbEntity
8
0
100
AcDbCircle
10
-174.04780136803583
20
96.800284695467269
30
0
40
0.99999999999998923
210
-2.0654762706155451e-31
220
-2.2216548561926109e-30
230
1
100
AcDbArc
50
219.68846991028957
51
306.55506637139479
0
LINE
5
191
100
AcDbEntity
8
0
100
AcDbLine
10
-174.81732945187903
20
96.161671723334223
30
-1.5777218104420005e-30
11
-174.99127410310336
21
96.371274878911052
31
8.8817841970012523e-15
0
SPLINE
5
192
100
AcDbEntity
8
0
100
AcDbSpline
70
4
71
5
72
81
73
75
74
0
42
0.000000001
43
0.0000000001
44
0.0000000001
40
0
40
0
40
0
40
0
40
0
40
0
40
0.014285714285714285
40
0.028571428571428571
40
0.042857142857142858
40
0.057142857142857141
40
0.071428571428571425
40
0.085714285714285715
40
0.10000000000000001
40
0.1142857142857143
40
0.12857142857142859
40
0.14285714285714288
40
0.15714285714285717
40
0.17142857142857146
40
0.18571428571428575
40
0.20000000000000004
40
0.21428571428571433
40
0.22857142857142862
40
0.24285714285714291
40
0.25714285714285717
40
0.27142857142857146
40
0.28571428571428575
40
0.30000000000000004
40
0.31428571428571433
40
0.32857142857142863
40
0.34285714285714292
40
0.35714285714285721
40
0.3714285714285715
40
0.38571428571428579
40
0.40000000000000008
40
0.41428571428571437
40
0.42857142857142866
40
0.44285714285714295
40
0.45714285714285724
40
0.47142857142857153
40
0.48571428571428582
40
0.50000000000000011
40
0.51428571428571435
40
0.52857142857142858
40
0.54285714285714282
40
0.55714285714285705
40
0.57142857142857129
40
0.58571428571428552
40
0.59999999999999976
40
0.61428571428571399
40
0.62857142857142823
40
0.64285714285714246
40
0.6571428571428567
40
0.67142857142857093
40
0.68571428571428517
40
0.6999999999999994
40
0.71428571428571364
40
0.72857142857142787
40
0.74285714285714211
40
0.75714285714285634
40
0.77142857142857058
40
0.78571428571428481
40
0.79999999999999905
40
0.81428571428571328
40
0.82857142857142752
40
0.84285714285714175
40
0.85714285714285599
40
0.87142857142857022
40
0.88571428571428445
40
0.89999999999999869
40
0.91428571428571292
40
0.92857142857142716
40
0.94285714285714139
40
0.95714285714285563
40
0.97142857142856986
40
0.9857142857142841
40
1
40
1
40
1
40
1
40
1
40
1
41
1
41
1
41
1
41
1
41
1
41
1
41
1
41
1
41
1
41
1
41
1
41
1
41
1
41
1
41
1
41
1
41
1
41
1
41
1
41
1
41
1
41
1
41
1
41
1
41
1
41
1
41
1
41
1
41
1
41
1
41
1
41
1
41
1
41
1
41
1
41
1
41
1
41
1
41
1
41
1
41
1
41
1
41
1
41
1
41
1
41
1
41
1
41
1
41
1
41
1
41
1
41
1
41
1
41
1
41
1
41
1
41
1
41
1
41
1
41
1
41
1
41
1
41
1
41
1
41
1
41
1
41
1
41
1
41
1
41
1
41
1
41
1
41
1
41
1
41
1
10
-174.99127410310334
20
96.371274878911052
30
-8.8817841970012523e-15
10
-174.99729309799596
20
96.378527762595695
30
-8.8817841970012523e-15
10
-175.00951285126803
20
96.392864875768808
30
-8.8817841970012523e-15
10
-175.02838776586742
20
96.413864588457045
30
-8.8817841970012523e-15
10
-175.0545922611106
20
96.440902110576431
30
-8.8817841970012523e-15
10
-175.08877213185491
20
96.473384424223539
30
-8.8817841970012523e-15
10
-175.12398675681544
20
96.504919521137822
30
-8.8817841970012523e-15
10
-175.15985036206504
20
96.535869913349359
30
-8.8817841970012523e-15
10
-175.19607428684523
20
96.566504351555892
30
0
10
-175.23254429000917
20
96.596924310599164
30
0
10
-175.26926324203265
20
96.627119242364614
30
0
10
-175.30630506508172
20
96.657011081026099
30
0
10
-175.3437663622185
20
96.686500930299985
30
0
10
-175.38171467634058
20
96.715519044613188
30
0
10
-175.42015158873525
20
96.744060413596529
30
0
10
-175.4590387774432
20
96.772159318939913
30
0
10
-175.49831507071013
20
96.799872614980345
30
0
10
-175.5379159366355
20
96.82726065936447
30
0
10
-175.57779439717322
20
96.854366837699814
30
0
10
-175.61793339408038
20
96.881205452249347
30
0
10
-175.65833404936555
20
96.907773178141866
30
0
10
-175.69900830857975
20
96.934056235093948
30
0
10
-175.73997039423179
20
96.960038723165397
30
0
10
-175.78122749260413
20
96.985711706372953
30
0
10
-175.8227750627461
20
97.011077783683362
30
0
10
-175.86460185977023
20
97.036146174912915
30
0
10
-175.90669294063571
20
97.060929776680467
30
0
10
-175.94903322305555
20
97.085441678775226
30
0
10
-175.99161140031509
20
97.109691332426763
30
0
10
-176.03442162409738
20
97.133682900733746
30
0
10
-176.07746132007858
20
97.157417389520845
30
0
10
-176.12072986672507
20
97.180893934582286
30
0
10
-176.16422703915802
20
97.204111318904808
30
8.8817841970012523e-15
10
-176.20795128264476
20
97.227069656329789
30
8.8817841970012523e-15
10
-176.25189902396022
20
97.249771061975167
30
8.8817841970012523e-15
10
-176.29606558767927
20
97.272218755529636
30
8.8817841970012523e-15
10
-176.34044573768625
20
97.294416530842113
30
8.8817841970012523e-15
10
-176.3850343202372
20
97.316368126429779
30
8.8817841970012523e-15
10
-176.42982697706634
20
97.338076528167292
30
8.8817841970012523e-15
10
-176.47482041188138
20
97.359543707207649
30
8.8817841970012523e-15
10
-176.52001198975253
20
97.380771008089511
30
8.8817841970012523e-15
10
-176.56539949219859
20
97.401759385329925
30
8.8817841970012523e-15
10
-176.61098082915942
20
97.422509682474185
30
0
10
-176.65675371799549
20
97.443022943064236
30
0
10
-176.70271555477257
20
97.4633005360987
30
0
10
-176.7488635844133
20
97.483343992619524
30
0
10
-176.79519500014038
20
97.503154911271665
30
0
10
-176.84170706157548
20
97.522734845433391
30
0
10
-176.88839722400729
20
97.542085181504277
30
0
10
-176.9352631904016
20
97.561207086810043
30
0
10
-176.98230282899675
20
97.58010157945607
30
0
10
-177.02951411943957
20
97.598769572309365
30
0
10
-177.07689509092882
20
97.617211925570643
30
0
10
-177.12444375151927
20
97.635429505295463
30
0
10
-177.17215805706547
20
97.653423214045148
30
0
10
-177.22003596358971
20
97.671193960604114
30
0
10
-177.26807546206967
20
97.688742643983574
30
0
10
-177.31627461579393
20
97.706070134142053
30
0
10
-177.36463160338812
20
97.723177253765641
30
0
10
-177.41314473318306
20
97.740064767467686
30
0
10
-177.46181238064622
20
97.756733391715471
30
0
10
-177.51063293749868
20
97.773183802246436
30
0
10
-177.55960475924263
20
97.789416643659735
30
0
10
-177.60872610245082
20
97.805432540500618
30
0
10
-177.65799509488994
20
97.821232106691397
30
8.8817841970012523e-15
10
-177.70740984688342
20
97.836815943058056
30
8.8817841970012523e-15
10
-177.75696854179387
20
97.852184638235471
30
8.8817841970012523e-15
10
-177.80666953179175
20
97.867338769137504
30
8.8817841970012523e-15
10
-177.85651143489659
20
97.882278904736978
30
8.8817841970012523e-15
10
-177.90649321799049
20
97.897005605536975
30
8.8817841970012523e-15
10
-177.95661414823908
20
97.911519378440275
30
8.8817841970012523e-15
10
-177.99682183433907
20
97.922960385035523
30
8.8817841970012523e-15
10
-178.02703989169714
20
97.931445633923431
30
8.8817841970012523e-15
10
-178.04721293976652
20
97.937060033482837
30
8.8817841970012523e-15
10
-178.05730638292491
20
97.939856625004026
30
8.8817841970012523e-15
0
ARC
5
193
100
AcDbEntity
8
0
100
AcDbCircle
10
-162.99998891915098
20
81.899994069635085
30
0
40
21.99999999999994
210
2.7631372789045382e-16
220
-2.943442102610496e-16
230
1
100
AcDbArc
50
133.19028719973193
51
136.80971359828163
0
SPLINE
5
194
100
AcDbEntity
8
0
100
AcDbSpline
70
4
71
5
72
81
73
75
74
0
42
0.000000001
43
0.0000000001
44
0.0000000001
40
0
40
0
40
0
40
0
40
0
40
0
40
0.014285714285714285
40
0.028571428571428571
40
0.042857142857142858
40
0.057142857142857141
40
0.071428571428571425
40
0.085714285714285715
40
0.10000000000000001
40
0.1142857142857143
40
0.12857142857142859
40
0.14285714285714288
40
0.15714285714285717
40
0.17142857142857146
40
0.18571428571428575
40
0.20000000000000004
40
0.21428571428571433
40
0.22857142857142862
40
0.24285714285714291
40
0.25714285714285717
40
0.27142857142857146
40
0.28571428571428575
40
0.30000000000000004
40
0.31428571428571433
40
0.32857142857142863
40
0.34285714285714292
40
0.35714285714285721
40
0.3714285714285715
40
0.38571428571428579
40
0.40000000000000008
40
0.41428571428571437
40
0.42857142857142866
40
0.44285714285714295
40
0.45714285714285724
40
0.47142857142857153
40
0.48571428571428582
40
0.50000000000000011
40
0.51428571428571435
40
0.52857142857142858
40
0.54285714285714282
40
0.55714285714285705
40
0.57142857142857129
40
0.58571428571428552
40
0.59999999999999976
40
0.61428571428571399
40
0.62857142857142823
40
0.64285714285714246
40
0.6571428571428567
40
0.67142857142857093
40
0.68571428571428517
40
0.6999999999999994
40
0.71428571428571364
40
0.72857142857142787
40
0.74285714285714211
40
0.75714285714285634
40
0.77142857142857058
40
0.78571428571428481
40
0.79999999999999905
40
0.81428571428571328
40
0.82857142857142752
40
0.84285714285714175
40
0.85714285714285599
40
0.87142857142857022
40
0.88571428571428445
40
0.89999999999999869
40
0.91428571428571292
40
0.92857142857142716
40
0.94285714285714139
40
0.95714285714285563
40
0.97142857142856986
40
0.9857142857142841
40
1
40
1
40
1
40
1
40
1
40
1
41
1
41
1
41
1
41
1
41
1
41
1
41
1
41
1
41
1
41
1
41
1
41
1
41
1
41
1
41
1
41
1
41
1
41
1
41
1
41
1
41
1
41
1
41
1
41
1
41
1
41
1
41
1
41
1
41
1
41
1
41
1
41
1
41
1
41
1
41
1
41
1
41
1
41
1
41
1
41
1
41
1
41
1
41
1
41
1
41
1
41
1
41
1
41
1
41
1
41
1
41
1
41
1
41
1
41
1
41
1
41
1
41
1
41
1
41
1
41
1
41
1
41
1
41
1
41
1
41
1
41
1
41
1
41
1
41
1
41
1
41
1
41
1
41
1
41
1
41
1
10
-177.47126989544114
20
93.891279052031948
30
0
10
-177.47852277920964
20
93.897298046823579
30
0
10
-177.49285989255293
20
93.909517799895937
30
0
10
-177.51385960550408
20
93.928392714202857
30
0
10
-177.54089712798842
20
93.954597209069433
30
0
10
-177.57337944211159
20
93.988777079361341
30
0
10
-177.60491453951633
20
94.023991703882672
30
8.8817841970012523e-15
10
-177.63586493222738
20
94.059855308701202
30
8.8817841970012523e-15
10
-177.66649937093845
20
94.096079233054667
30
8.8817841970012523e-15
10
-177.69691933048966
20
94.13254923579494
30
0
10
-177.72711426276655
20
94.169268187397876
30
0
10
-177.75700610194394
20
94.206310010030577
30
0
10
-177.7864959517396
20
94.243771306756656
30
0
10
-177.81551406658133
20
94.281719620474576
30
0
10
-177.84405543610001
20
94.3201565324717
30
0
10
-177.87215434198504
20
94.359043720788293
30
0
10
-177.89986763857252
20
94.39832001366922
30
0
10
-177.92725568350818
20
94.437920879213166
30
0
10
-177.95436186239897
20
94.477799339373348
30
0
10
-177.98120047750757
20
94.517938335906678
30
0
10
-178.00776820396277
20
94.558338990821795
30
0
10
-178.03405126148138
20
94.599013249669923
30
0
10
-178.06003375012335
20
94.639975334960113
30
0
10
-178.08570673390551
20
94.681232432974866
30
8.8817841970012523e-15
10
-178.1110728117946
20
94.722780002763542
30
8.8817841970012523e-15
10
-178.13614120360668
20
94.764606799438553
30
8.8817841970012523e-15
10
-178.16092480596046
20
94.806697879958804
30
8.8817841970012523e-15
10
-178.18543670864497
20
94.849038162037289
30
8.8817841970012523e-15
10
-178.20968636288953
20
94.891616338959039
30
8.8817841970012523e-15
10
-178.23367793179278
20
94.934426562407197
30
8.8817841970012523e-15
10
-178.25741242117937
20
94.977466258057802
30
-8.8817841970012523e-15
10
-178.28088896684338
20
95.020734804377369
30
-8.8817841970012523e-15
10
-178.30410635177174
20
95.064231976486923
30
-8.8817841970012523e-15
10
-178.32706468980572
20
95.107956219653857
30
-8.8817841970012523e-15
10
-178.34976609606318
20
95.151903960653186
30
-8.8817841970012523e-15
10
-178.37221379023282
20
95.196070524059564
30
-8.8817841970012523e-15
10
-178.39441156616346
20
95.24045067375738
30
-8.8817841970012523e-15
10
-178.41636316237214
20
95.285039256002563
30
0
10
-178.43807156473349
20
95.329831912529386
30
0
10
-178.45953874440053
20
95.374825347045402
30
0
10
-178.48076604591182
20
95.42001692462091
30
0
10
-178.5017544237844
20
95.465404426774668
30
0
10
-178.52250472156351
20
95.510985763446456
30
0
10
-178.5430179827911
20
95.556758651996773
30
0
10
-178.56329557646572
20
95.602720488491485
30
0
10
-178.58333903362927
20
95.64886851785306
30
0
10
-178.60314995292669
20
95.695199933304195
30
0
10
-178.62272988773626
20
95.741711994466613
30
0
10
-178.64208022445746
20
95.788402156628905
30
-8.8817841970012523e-15
10
-178.66120213041597
20
95.835268122756901
30
-8.8817841970012523e-15
10
-178.68009662371713
20
95.882307761088867
30
-8.8817841970012523e-15
10
-178.69876461722799
20
95.929519051271669
30
0
10
-178.71720697114921
20
95.976900022504054
30
0
10
-178.73542455153625
20
96.024448682840742
30
0
10
-178.75341826095053
20
96.07216298813637
30
0
10
-178.77118900817635
20
96.120040894413108
30
0
10
-178.78873769222491
20
96.168080392648648
30
0
10
-178.8060651830547
20
96.216279546131531
30
0
10
-178.82317230335175
20
96.264636533487476
30
0
10
-178.84005981772953
20
96.313149663047199
30
0
10
-178.85672844265514
20
96.361817310278198
30
0
10
-178.87317885386608
20
96.410637866901538
30
0
10
-178.88941169596143
20
96.459609688419405
30
0
10
-178.90542759348651
20
96.508731031404537
30
-8.8817841970012523e-15
10
-178.92122716036351
20
96.558000023623606
30
0
10
-178.93681099741841
20
96.607414775400002
30
0
10
-178.95217969328604
20
96.656973470096403
30
0
10
-178.96733382488034
20
96.706674459883232
30
0
10
-178.98227396117397
20
96.75651636277999
30
0
10
-178.99700066267013
20
96.806498145668755
30
0
10
-179.01151443627154
20
96.856619075715216
30
0
10
-179.02295544342678
20
96.896826761655888
30
0
10
-179.03144069273554
20
96.927044818895752
30
0
10
-179.03705509257591
20
96.947217866886916
30
0
10
-179.03985168423773
20
96.957311310006361
30
0
0
LINE
5
195
100
AcDbEntity
8
0
100
AcDbLine
10
-177.47126989544114
20
93.891279052031948
30
0
11
-177.2616667374416
21
93.717334403727008
31
0
0
ARC
5
196
100
AcDbEntity
8
0
100
AcDbCircle
10
-177.90027969885674
20
92.947806310989236
30
0
40
0.99999999999998868
210
-0
220
0
230
1
100
AcDbArc
50
-36.555065573381363
51
50.311530887721702
0
ARC
5
197
100
AcDbEntity
8
0
100
AcDbCircle
10
-162.99998891915098
20
81.899994069635085
30
0
40
17.549199999999985
210
-9.3950696952524641e-31
220
-1.2671220988971502e-30
230
1
100
AcDbArc
50
143.44493442661766
51
144.55506637139638
0
ARC
5
198
100
AcDbEntity
8
0
100
AcDbCircle
10
-178.11152596397756
20
92.657050766651849
30
0
40
0.99999999999999534
210
4.9009063955696244e-31
220
-2.1767460548505817e-30
230
1
100
AcDbArc
50
237.68846991029051
51
324.55506637138961
0
LINE
5
199
100
AcDbEntity
8
0
100
AcDbLine
10
-178.64604840137133
20
91.811896482557756
30
-1.5777218104420084e-30
11
-178.87625053254069
21
91.957489076196183
31
0
0
SPLINE
5
200
100
AcDbEntity
8
0
100
AcDbSpline
70
4
71
5
72
81
73
75
74
0
42
0.000000001
43
0.0000000001
44
0.0000000001
40
0
40
0
40
0
40
0
40
0
40
0
40
0.014285714285714285
40
0.028571428571428571
40
0.042857142857142858
40
0.057142857142857141
40
0.071428571428571425
40
0.085714285714285715
40
0.10000000000000001
40
0.1142857142857143
40
0.12857142857142859
40
0.14285714285714288
40
0.15714285714285717
40
0.17142857142857146
40
0.18571428571428575
40
0.20000000000000004
40
0.21428571428571433
40
0.22857142857142862
40
0.24285714285714291
40
0.25714285714285717
40
0.27142857142857146
40
0.28571428571428575
40
0.30000000000000004
40
0.31428571428571433
40
0.32857142857142863
40
0.34285714285714292
40
0.35714285714285721
40
0.3714285714285715
40
0.38571428571428579
40
0.40000000000000008
40
0.41428571428571437
40
0.42857142857142866
40
0.44285714285714295
40
0.45714285714285724
40
0.47142857142857153
40
0.48571428571428582
40
0.50000000000000011
40
0.51428571428571435
40
0.52857142857142858
40
0.54285714285714282
40
0.55714285714285705
40
0.57142857142857129
40
0.58571428571428552
40
0.59999999999999976
40
0.61428571428571399
40
0.62857142857142823
40
0.64285714285714246
40
0.6571428571428567
40
0.67142857142857093
40
0.68571428571428517
40
0.6999999999999994
40
0.71428571428571364
40
0.72857142857142787
40
0.74285714285714211
40
0.75714285714285634
40
0.77142857142857058
40
0.78571428571428481
40
0.79999999999999905
40
0.81428571428571328
40
0.82857142857142752
40
0.84285714285714175
40
0.85714285714285599
40
0.87142857142857022
40
0.88571428571428445
40
0.89999999999999869
40
0.91428571428571292
40
0.92857142857142716
40
0.94285714285714139
40
0.95714285714285563
40
0.97142857142856986
40
0.9857142857142841
40
1
40
1
40
1
40
1
40
1
40
1
41
1
41
1
41
1
41
1
41
1
41
1
41
1
41
1
41
1
41
1
41
1
41
1
41
1
41
1
41
1
41
1
41
1
41
1
41
1
41
1
41
1
41
1
41
1
41
1
41
1
41
1
41
1
41
1
41
1
41
1
41
1
41
1
41
1
41
1
41
1
41
1
41
1
41
1
41
1
41
1
41
1
41
1
41
1
41
1
41
1
41
1
41
1
41
1
41
1
41
1
41
1
41
1
41
1
41
1
41
1
41
1
41
1
41
1
41
1
41
1
41
1
41
1
41
1
41
1
41
1
41
1
41
1
41
1
41
1
41
1
41
1
41
1
41
1
41
1
41
1
10
-178.87625053254072
20
91.957489076196183
30
0
10
-178.88421620117168
20
91.962527006775531
30
0
10
-178.90026828876938
20
91.972386300255522
30
0
10
-178.92470866739129
20
91.986525544469444
30
0
10
-178.95798567716921
20
92.004142121706394
30
0
10
-179.00053025290026
20
92.024472476839279
30
0
10
-179.04376623230371
20
92.043582218688243
30
0
10
-179.08743874495013
20
92.061935327381249
30
0
10
-179.13135630667696
20
92.079876601100608
30
0
10
-179.1754416251479
20
92.097537850611545
30
0
10
-179.21969417080092
20
92.114908157035273
30
0
10
-179.26416012412665
20
92.131890432153526
30
8.8817841970012523e-15
10
-179.30890079946468
20
92.148360768023423
30
8.8817841970012523e-15
10
-179.3539588813604
20
92.164231960759992
30
8.8817841970012523e-15
10
-179.39933432541818
20
92.179498756574333
30
8.8817841970012523e-15
10
-179.44500127891374
20
92.194205601427711
30
8.8817841970012523e-15
10
-179.49091913300776
20
92.208425470119437
30
8.8817841970012523e-15
10
-179.53704516575445
20
92.222235707636628
30
8.8817841970012523e-15
10
-179.58334810526685
20
92.235692093158661
30
8.8817841970012523e-15
10
-179.62981614783422
20
92.248813500232842
30
8.8817841970012523e-15
10
-179.67644933310845
20
92.261596419999066
30
8.8817841970012523e-15
10
-179.7232547636419
20
92.27402405525072
30
8.8817841970012523e-15
10
-179.77024105249257
20
92.286076889249102
30
8.8817841970012523e-15
10
-179.81741227285042
20
92.29774420268572
30
8.8817841970012523e-15
10
-179.86476490913972
20
92.309029870555776
30
8.8817841970012523e-15
10
-179.9122911159169
20
92.319946136286944
30
0
10
-179.95998066677984
20
92.330509882946203
30
0
10
-180.00782326258877
20
92.340738220345855
30
0
10
-180.05581107060945
20
92.350643631106323
30
0
10
-180.10393981523023
20
92.360231881799109
30
0
10
-180.1522073589405
20
92.369504724530117
30
0
10
-180.20061284357254
20
92.378461529455194
30
0
10
-180.24915567917589
20
92.387101208617409
30
0
10
-180.29783442229089
20
92.395424350725165
30
0
10
-180.34664632818607
20
92.403434071562387
30
0
10
-180.39558794520627
20
92.411134878020832
30
0
10
-180.44465546587344
20
92.418531996313959
30
0
10
-180.49384514395112
20
92.425630574577369
30
0
10
-180.54315375716826
20
92.432434799324739
30
0
10
-180.59257877968437
20
92.438947563844408
30
0
10
-180.6421181210176
20
92.445170961106669
30
0
10
-180.69176996622895
20
92.451106584459538
30
0
10
-180.74153258822287
20
92.456755882026428
30
0
10
-180.79140413855239
20
92.462120551649093
30
0
10
-180.84138256377284
20
92.467202699982494
30
0
10
-180.89146571676778
20
92.472004634499783
30
0
10
-180.94165142214192
20
92.476528742944581
30
0
10
-180.99193755366082
20
92.480777349490864
30
0
10
-181.0423221195812
20
92.484752559042036
30
0
10
-181.09280329601731
20
92.48845619161338
30
0
10
-181.14337937015509
20
92.491889874231333
30
0
10
-181.19404870261599
20
92.495055099407438
30
0
10
-181.24480968487322
20
92.497953294252198
30
0
10
-181.29566069010022
20
92.500585897978382
30
0
10
-181.34660005310593
20
92.502954400648534
30
0
10
-181.39762611078186
20
92.505060298191793
30
0
10
-181.44873723024389
20
92.506905066440652
30
0
10
-181.49993183840209
20
92.508490131251634
30
0
10
-181.55120845725042
20
92.509816837881289
30
0
10
-181.60256571419444
20
92.510886436274717
30
-8.8817841970012523e-15
10
-181.65400228561248
20
92.511700109840859
30
-8.8817841970012523e-15
10
-181.70551685075469
20
92.512258998229825
30
-8.8817841970012523e-15
10
-181.75710804480286
20
92.512564222669539
30
-8.8817841970012523e-15
10
-181.80877440265414
20
92.512616915886525
30
0
10
-181.86051433342135
20
92.512418240307483
30
0
10
-181.91232622558073
20
92.511969351294056
30
0
10
-181.96420853330554
20
92.511271370043104
30
0
10
-182.01615986769309
20
92.510325354439686
30
0
10
-182.06817909022402
20
92.509132272664502
30
0
10
-182.12026539154976
20
92.507692977038701
30
0
10
-182.17241823134512
20
92.506008176113696
30
0
10
-182.21419347868635
20
92.504464361679695
30
0
10
-182.24555464515433
20
92.503196419666295
30
0
10
-182.26647529885133
20
92.502302216270564
30
0
10
-182.27693892804538
20
92.501842887392499
30
0
0
ARC
5
201
100
AcDbEntity
8
0
100
AcDbCircle
10
-162.99998891915098
20
81.899994069635085
30
0
40
21.999999999999922
210
7.5879111782427271e-31
220
1.3796818552054796e-30
230
1
100
AcDbArc
50
151.19028719973196
51
154.8097135982816
0
SPLINE
5
202
100
AcDbEntity
8
0
100
AcDbSpline
70
4
71
5
72
81
73
75
74
0
42
0.000000001
43
0.0000000001
44
0.0000000001
40
0
40
0
40
0
40
0
40
0
40
0
40
0.014285714285714285
40
0.028571428571428571
40
0.042857142857142858
40
0.057142857142857141
40
0.071428571428571425
40
0.085714285714285715
40
0.10000000000000001
40
0.1142857142857143
40
0.12857142857142859
40
0.14285714285714288
40
0.15714285714285717
40
0.17142857142857146
40
0.18571428571428575
40
0.20000000000000004
40
0.21428571428571433
40
0.22857142857142862
40
0.24285714285714291
40
0.25714285714285717
40
0.27142857142857146
40
0.28571428571428575
40
0.30000000000000004
40
0.31428571428571433
40
0.32857142857142863
40
0.34285714285714292
40
0.35714285714285721
40
0.3714285714285715
40
0.38571428571428579
40
0.40000000000000008
40
0.41428571428571437
40
0.42857142857142866
40
0.44285714285714295
40
0.45714285714285724
40
0.47142857142857153
40
0.48571428571428582
40
0.50000000000000011
40
0.51428571428571435
40
0.52857142857142858
40
0.54285714285714282
40
0.55714285714285705
40
0.57142857142857129
40
0.58571428571428552
40
0.59999999999999976
40
0.61428571428571399
40
0.62857142857142823
40
0.64285714285714246
40
0.6571428571428567
40
0.67142857142857093
40
0.68571428571428517
40
0.6999999999999994
40
0.71428571428571364
40
0.72857142857142787
40
0.74285714285714211
40
0.75714285714285634
40
0.77142857142857058
40
0.78571428571428481
40
0.79999999999999905
40
0.81428571428571328
40
0.82857142857142752
40
0.84285714285714175
40
0.85714285714285599
40
0.87142857142857022
40
0.88571428571428445
40
0.89999999999999869
40
0.91428571428571292
40
0.92857142857142716
40
0.94285714285714139
40
0.95714285714285563
40
0.97142857142856986
40
0.9857142857142841
40
1
40
1
40
1
40
1
40
1
40
1
41
1
41
1
41
1
41
1
41
1
41
1
41
1
41
1
41
1
41
1
41
1
41
1
41
1
41
1
41
1
41
1
41
1
41
1
41
1
41
1
41
1
41
1
41
1
41
1
41
1
41
1
41
1
41
1
41
1
41
1
41
1
41
1
41
1
41
1
41
1
41
1
41
1
41
1
41
1
41
1
41
1
41
1
41
1
41
1
41
1
41
1
41
1
41
1
41
1
41
1
41
1
41
1
41
1
41
1
41
1
41
1
41
1
41
1
41
1
41
1
41
1
41
1
41
1
41
1
41
1
41
1
41
1
41
1
41
1
41
1
41
1
41
1
41
1
41
1
41
1
10
-180.46850583474355
20
88.832512038847284
30
0
10
-180.47726370879317
20
88.835995178722712
30
0
10
-180.4946752252296
20
88.843186442836355
30
0
10
-180.52047980836034
20
88.854648284903561
30
0
10
-180.55429165454632
20
88.871215186569188
30
0
10
-180.59574633184326
20
88.893684587855759
30
0
10
-180.63661990914963
20
88.917430804958315
30
0
10
-180.67713794518784
20
88.941974922688516
30
-8.8817841970012523e-15
10
-180.71746683597524
20
88.966959359815817
30
0
10
-180.75766778736352
20
88.992244109101719
30
0
10
-180.79773165452548
20
89.017835160077667
30
0
10
-180.83760703565531
20
89.043826940568991
30
0
10
-180.87722972678768
20
89.070341886180813
30
0
10
-180.91655426784524
20
89.097465786593801
30
0
10
-180.95557638232836
20
89.125201693990931
30
0
10
-180.99431683192438
20
89.153502568398011
30
0
10
-181.03281078520814
20
89.18229266306264
30
0
10
-181.07109570425789
20
89.211491952961325
30
0
10
-181.10919833422281
20
89.241042352426646
30
0
10
-181.14712700607612
20
89.270923218463182
30
0
10
-181.18487890439712
20
89.301136645606235
30
0
10
-181.22244461473605
20
89.331698253091844
30
0
10
-181.25981341034822
20
89.362626480681598
30
0
10
-181.29697901329217
20
89.393930924306943
30
0
10
-181.33394249210113
20
89.425606462142341
30
0
10
-181.37070914047993
20
89.457639550584247
30
0
10
-181.40728660618811
20
89.490011992681801
30
0
10
-181.44368267767189
20
89.522705399360348
30
0
10
-181.47990284961739
20
89.555706096704455
30
0
10
-181.51594927413743
20
89.589007236166083
30
8.8817841970012523e-15
10
-181.55182211231821
20
89.622606058600653
30
8.8817841970012523e-15
10
-181.58752035018676
20
89.656502239949106
30
0
10
-181.62304276080334
20
89.690695942416482
30
0
10
-181.65838897199862
20
89.725185652185374
30
0
10
-181.69355989118205
20
89.75996731730946
30
0
10
-181.72855713567358
20
89.795035496256531
30
0
10
-181.7633826955892
20
89.830384036820874
30
0
10
-181.79803853387537
20
89.866006882235396
30
0
10
-181.83252614348947
20
89.901898964857011
30
0
10
-181.86684638049906
20
89.938056540605572
30
0
10
-181.90099970939815
20
89.974476688028687
30
0
10
-181.93498635243805
20
90.011157002263374
30
0
10
-181.96880646601386
20
90.048095234874452
30
0
10
-182.00246033721851
20
90.08528889247053
30
-8.8817841970012523e-15
10
-182.03594846338711
20
90.122735075519216
30
-8.8817841970012523e-15
10
-182.06927144926124
20
90.160430690668164
30
-8.8817841970012523e-15
10
-182.1024299479007
20
90.198372574505058
30
-8.8817841970012523e-15
10
-182.13542458983255
20
90.236557640754967
30
0
10
-182.16825590724201
20
90.274983040832538
30
0
10
-182.20092430049917
20
90.313646229405023
30
0
10
-182.23343007912919
20
90.352544864434648
30
0
10
-182.26577348699669
20
90.391676742359962
30
0
10
-182.29795473319007
20
90.431039723020987
30
0
10
-182.32997402583212
20
90.470631644339306
30
0
10
-182.36183159163403
20
90.510450283310348
30
0
10
-182.39352766327721
20
90.550493415165903
30
0
10
-182.42506247494998
20
90.590758851402427
30
0
10
-182.45643625555539
20
90.631244481265981
30
0
10
-182.48764922467876
20
90.671948318302626
30
0
10
-182.51870158675601
20
90.712868517360789
30
0
10
-182.54959352117982
20
90.754003312017716
30
0
10
-182.58032517362918
20
90.79535096389489
30
0
10
-182.61089664897651
20
90.836909709789808
30
0
10
-182.6413080024509
20
90.878677698609565
30
8.8817841970012523e-15
10
-182.67155923937534
20
90.920652960042048
30
8.8817841970012523e-15
10
-182.70165034722703
20
90.962833511232589
30
8.8817841970012523e-15
10
-182.73158132445914
20
91.005217442558177
30
0
10
-182.76135221054207
20
91.047803008563633
30
0
10
-182.79096311954558
20
91.090588719085105
30
0
10
-182.8204142652888
20
91.133573418364165
30
0
10
-182.84970590340663
20
91.176756252792273
30
0
10
-182.87301180607483
20
91.211460568867551
30
0
10
-182.8904196509464
20
91.237577562877377
30
0
10
-182.90199307715733
20
91.255028326659016
30
0
10
-182.90777183933631
20
91.263763567159813
30
0
0
LINE
5
203
100
AcDbEntity
8
0
100
AcDbLine
10
-180.46850583474355
20
88.832512038847284
30
0
11
-180.21540953308528
21
88.731851785498733
31
0
0
ARC
5
204
100
AcDbEntity
8
0
100
AcDbCircle
10
-180.58496929312474
20
87.8026448205229
30
0
40
1.0000000000000093
210
-5.0205619806233576e-31
220
-1.4957090910774233e-30
230
1
100
AcDbArc
50
-18.555065573382578
51
68.311530887723492
0
ARC
5
205
100
AcDbEntity
8
0
100
AcDbCircle
10
-162.99998891915098
20
81.899994069635085
30
0
40
17.549199999999971
210
4.8634799692285253e-33
220
1.44891174181758e-32
230
1
100
AcDbArc
50
161.44493442661775
51
162.55506637139621
0
ARC
5
206
100
AcDbEntity
8
0
100
AcDbCircle
10
-180.69602802570191
20
87.460841179511306
30
0
40
0.99999999999999845
210
-7.7219308221888346e-31
220
-1.4312579560876864e-30
230
1
100
AcDbArc
50
255.68846991029054
51
342.55506637139291
0
LINE
5
207
100
AcDbEntity
8
0
100
AcDbLine
10
-180.94322203623736
20
86.491875173319457
30
-1.5777218104420219e-30
11
-181.20714785884044
21
86.559205587550935
31
8.8817841970012523e-15
0
SPLINE
5
208
100
AcDbEntity
8
0
100
AcDbSpline
70
4
71
5
72
81
73
75
74
0
42
0.000000001
43
0.0000000001
44
0.0000000001
40
0
40
0
40
0
40
0
40
0
40
0
40
0.014285714285714285
40
0.028571428571428571
40
0.042857142857142858
40
0.057142857142857141
40
0.071428571428571425
40
0.085714285714285715
40
0.10000000000000001
40
0.1142857142857143
40
0.12857142857142859
40
0.14285714285714288
40
0.15714285714285717
40
0.17142857142857146
40
0.18571428571428575
40
0.20000000000000004
40
0.21428571428571433
40
0.22857142857142862
40
0.24285714285714291
40
0.25714285714285717
40
0.27142857142857146
40
0.28571428571428575
40
0.30000000000000004
40
0.31428571428571433
40
0.32857142857142863
40
0.34285714285714292
40
0.35714285714285721
40
0.3714285714285715
40
0.38571428571428579
40
0.40000000000000008
40
0.41428571428571437
40
0.42857142857142866
40
0.44285714285714295
40
0.45714285714285724
40
0.47142857142857153
40
0.48571428571428582
40
0.50000000000000011
40
0.51428571428571435
40
0.52857142857142858
40
0.54285714285714282
40
0.55714285714285705
40
0.57142857142857129
40
0.58571428571428552
40
0.59999999999999976
40
0.61428571428571399
40
0.62857142857142823
40
0.64285714285714246
40
0.6571428571428567
40
0.67142857142857093
40
0.68571428571428517
40
0.6999999999999994
40
0.71428571428571364
40
0.72857142857142787
40
0.74285714285714211
40
0.75714285714285634
40
0.77142857142857058
40
0.78571428571428481
40
0.79999999999999905
40
0.81428571428571328
40
0.82857142857142752
40
0.84285714285714175
40
0.85714285714285599
40
0.87142857142857022
40
0.88571428571428445
40
0.89999999999999869
40
0.91428571428571292
40
0.92857142857142716
40
0.94285714285714139
40
0.95714285714285563
40
0.97142857142856986
40
0.9857142857142841
40
1
40
1
40
1
40
1
40
1
40
1
41
1
41
1
41
1
41
1
41
1
41
1
41
1
41
1
41
1
41
1
41
1
41
1
41
1
41
1
41
1
41
1
41
1
41
1
41
1
41
1
41
1
41
1
41
1
41
1
41
1
41
1
41
1
41
1
41
1
41
1
41
1
41
1
41
1
41
1
41
1
41
1
41
1
41
1
41
1
41
1
41
1
41
1
41
1
41
1
41
1
41
1
41
1
41
1
41
1
41
1
41
1
41
1
41
1
41
1
41
1
41
1
41
1
41
1
41
1
41
1
41
1
41
1
41
1
41
1
41
1
41
1
41
1
41
1
41
1
41
1
41
1
41
1
41
1
41
1
41
1
10
-181.20714785884047
20
86.559205587550935
30
8.8817841970012523e-15
10
-181.21628046606406
20
86.561535417278535
30
8.8817841970012523e-15
10
-181.23459359781182
20
86.565951794725876
30
8.8817841970012523e-15
10
-181.26220704591066
20
86.571846522727867
30
8.8817841970012523e-15
10
-181.29929918465169
20
86.578317721760527
30
8.8817841970012523e-15
10
-181.34604390587151
20
86.584506041568886
30
8.8817841970012523e-15
10
-181.39306900081098
20
86.589319833674949
30
8.8817841970012523e-15
10
-181.44027545103205
20
86.593279128696935
30
8.8817841970012523e-15
10
-181.48758769277222
20
86.596771021053215
30
8.8817841970012523e-15
10
-181.53497294841776
20
86.599944754876589
30
8.8817841970012523e-15
10
-181.5824273402061
20
86.602790109339779
30
0
10
-181.62996478648452
20
86.605200477503786
30
0
10
-181.67760531099503
20
86.607039068739141
30
0
10
-181.72536256167035
20
86.608209756972911
30
0
10
-181.77323487277755
20
86.608707559273938
30
0
10
-181.82121139147216
20
86.608582735194432
30
0
10
-181.86927604690609
20
86.607917236714258
30
0
10
-181.91741210900986
20
86.606797825094745
30
0
10
-181.96560707316593
20
86.605287213032398
30
0
10
-182.01385554562509
20
86.603406997884647
30
0
10
-182.06215647980127
20
86.601153830274001
30
0
10
-182.11051144000078
20
86.598509540298352
30
0
10
-182.15892258672457
20
86.595452904854852
30
0
10
-182.20739048135815
20
86.591972470590434
30
0
10
-182.25591297782958
20
86.588073009217155
30
0
10
-182.30448639810584
20
86.583768589302082
30
0
10
-182.35310623345521
20
86.579078427728064
30
0
10
-182.4017679760365
20
86.574021979502888
30
0
10
-182.45046803381848
20
86.568613536752054
30
0
10
-182.49920412242159
20
86.562859905047532
30
0
10
-182.54797475038285
20
86.556763411268221
30
0
10
-182.59677890690369
20
86.550323721585144
30
0
10
-182.64561569471078
20
86.543539983594528
30
0
10
-182.69448392291326
20
86.536413203244791
30
8.8817841970012523e-15
10
-182.74338194394659
20
86.528947191991278
30
8.8817841970012523e-15
10
-182.79230786779772
20
86.521147302762884
30
8.8817841970012523e-15
10
-182.84125968832865
20
86.513019682559388
30
8.8817841970012523e-15
10
-182.89023543351817
20
86.504570385199386
30
8.8817841970012523e-15
10
-182.93923333250834
20
86.49580438803055
30
8.8817841970012523e-15
10
-182.98825187715721
20
86.486725223261246
30
8.8817841970012523e-15
10
-183.03728972606191
20
86.477335527418902
30
8.8817841970012523e-15
10
-183.08634564548447
20
86.467637376714563
30
8.8817841970012523e-15
10
-183.13541844035421
20
86.457632682097255
30
8.8817841970012523e-15
10
-183.18450687735549
20
86.447323629512013
30
8.8817841970012523e-15
10
-183.2336096545385
20
86.436712857056051
30
0
10
-183.2827254429227
20
86.425803222762184
30
0
10
-183.33185291143747
20
86.41459766974377
30
-8.8817841970012523e-15
10
-183.38099075612294
20
86.403099065464062
30
-8.8817841970012523e-15
10
-183.43013773316977
20
86.391310027287744
30
-8.8817841970012523e-15
10
-183.47929267037506
20
86.379232849763895
30
-8.8817841970012523e-15
10
-183.52845444153462
20
86.366869609575247
30
-8.8817841970012523e-15
10
-183.57762194871833
20
86.354222232780472
30
-8.8817841970012523e-15
10
-183.62679410312768
20
86.341292573704436
30
-8.8817841970012523e-15
10
-183.67596980229985
20
86.328082503836868
30
-8.8817841970012523e-15
10
-183.72514792299864
20
86.314593954883719
30
-8.8817841970012523e-15
10
-183.77432734578144
20
86.300828863487084
30
0
10
-183.82350697374054
20
86.286789137835939
30
0
10
-183.87268575139234
20
86.272476620111917
30
0
10
-183.92186268877677
20
86.257893046459031
30
0
10
-183.97103686673316
20
86.243040029800738
30
0
10
-184.02020739211596
20
86.227919104647398
30
0
10
-184.06937336098872
20
86.212531763004833
30
0
10
-184.11853382181062
20
86.196879492976194
30
0
10
-184.16768773121785
20
86.180963824590066
30
0
10
-184.21683393539638
20
86.164786354991094
30
0
10
-184.2659712587224
20
86.14834868098184
30
0
10
-184.31509857749626
20
86.13165234657049
30
0
10
-184.36421489769737
20
86.114698787060163
30
0
10
-184.41331943571379
20
86.097489275067176
30
0
10
-184.46241168519106
20
86.080024871299585
30
0
10
-184.51149135120374
20
86.062306416599512
30
0
10
-184.55074490751119
20
86.047928900449463
30
0
10
-184.58017933360918
20
86.037031882533313
30
0
10
-184.59979973358713
20
86.029716607041081
30
0
10
-184.60960929588691
20
86.026046320074698
30
0
0
ARC
5
209
100
AcDbEntity
8
0
100
AcDbCircle
10
-162.99998891915098
20
81.899994069635085
30
0
40
21.999999999999918
210
-1.4009801029462034e-32
220
-7.3374369354635072e-32
230
1
100
AcDbArc
50
169.1902871997319
51
172.80971359828175
0
SPLINE
5
210
100
AcDbEntity
8
0
100
AcDbSpline
70
4
71
5
72
81
73
75
74
0
42
0.000000001
43
0.0000000001
44
0.0000000001
40
0
40
0
40
0
40
0
40
0
40
0
40
0.014285714285714285
40
0.028571428571428571
40
0.042857142857142858
40
0.057142857142857141
40
0.071428571428571425
40
0.085714285714285715
40
0.10000000000000001
40
0.1142857142857143
40
0.12857142857142859
40
0.14285714285714288
40
0.15714285714285717
40
0.17142857142857146
40
0.18571428571428575
40
0.20000000000000004
40
0.21428571428571433
40
0.22857142857142862
40
0.24285714285714291
40
0.25714285714285717
40
0.27142857142857146
40
0.28571428571428575
40
0.30000000000000004
40
0.31428571428571433
40
0.32857142857142863
40
0.34285714285714292
40
0.35714285714285721
40
0.3714285714285715
40
0.38571428571428579
40
0.40000000000000008
40
0.41428571428571437
40
0.42857142857142866
40
0.44285714285714295
40
0.45714285714285724
40
0.47142857142857153
40
0.48571428571428582
40
0.50000000000000011
40
0.51428571428571435
40
0.52857142857142858
40
0.54285714285714282
40
0.55714285714285705
40
0.57142857142857129
40
0.58571428571428552
40
0.59999999999999976
40
0.61428571428571399
40
0.62857142857142823
40
0.64285714285714246
40
0.6571428571428567
40
0.67142857142857093
40
0.68571428571428517
40
0.6999999999999994
40
0.71428571428571364
40
0.72857142857142787
40
0.74285714285714211
40
0.75714285714285634
40
0.77142857142857058
40
0.78571428571428481
40
0.79999999999999905
40
0.81428571428571328
40
0.82857142857142752
40
0.84285714285714175
40
0.85714285714285599
40
0.87142857142857022
40
0.88571428571428445
40
0.89999999999999869
40
0.91428571428571292
40
0.92857142857142716
40
0.94285714285714139
40
0.95714285714285563
40
0.97142857142856986
40
0.9857142857142841
40
1
40
1
40
1
40
1
40
1
40
1
41
1
41
1
41
1
41
1
41
1
41
1
41
1
41
1
41
1
41
1
41
1
41
1
41
1
41
1
41
1
41
1
41
1
41
1
41
1
41
1
41
1
41
1
41
1
41
1
41
1
41
1
41
1
41
1
41
1
41
1
41
1
41
1
41
1
41
1
41
1
41
1
41
1
41
1
41
1
41
1
41
1
41
1
41
1
41
1
41
1
41
1
41
1
41
1
41
1
41
1
41
1
41
1
41
1
41
1
41
1
41
1
41
1
41
1
41
1
41
1
41
1
41
1
41
1
41
1
41
1
41
1
41
1
41
1
41
1
41
1
41
1
41
1
41
1
41
1
41
1
10
-181.75580162803368
20
83.095141865143233
30
-8.8817841970012523e-15
10
-181.76520721063272
20
83.095748196103017
30
-8.8817841970012523e-15
10
-181.78398876962035
20
83.097207040221988
30
-8.8817841970012523e-15
10
-181.81207229054274
20
83.100133845088621
30
-8.8817841970012523e-15
10
-181.84934872134471
20
83.105441469789852
30
-8.8817841970012523e-15
10
-181.89571788916982
20
83.114000940519617
30
-8.8817841970012523e-15
10
-181.9419289558482
20
83.123954305023801
30
-8.8817841970012523e-15
10
-181.98804844754039
20
83.134776386413307
30
-8.8817841970012523e-15
10
-182.03412411758592
20
83.146075685531599
30
-8.8817841970012523e-15
10
-182.08017091159286
20
83.15770013393383
30
-8.8817841970012523e-15
10
-182.12618198318069
20
83.16965825390993
30
-8.8817841970012523e-15
10
-182.17213762612985
20
83.182055735690014
30
-8.8817841970012523e-15
10
-182.21801461352345
20
83.195028862570553
30
-8.8817841970012523e-15
10
-182.26379622072787
20
83.208673273322887
30
-8.8817841970012523e-15
10
-182.30947932372683
20
83.222993192256553
30
0
10
-182.35506913190673
20
83.237937465983393
30
0
10
-182.40057568553627
20
83.253423187373571
30
0
10
-182.44600988407669
20
83.26936267168827
30
8.8817841970012523e-15
10
-182.4913792142182
20
83.285692411469356
30
8.8817841970012523e-15
10
-182.53668522015064
20
83.302390199649196
30
8.8817841970012523e-15
10
-182.58192587149691
20
83.319458898262099
30
8.8817841970012523e-15
10
-182.62709704119243
20
83.336916271309249
30
8.8817841970012523e-15
10
-182.67219422569664
20
83.354783170792444
30
8.8817841970012523e-15
10
-182.71721441963817
20
83.373070662975465
30
8.8817841970012523e-15
10
-182.76215705652149
20
83.391773546517783
30
8.8817841970012523e-15
10
-182.80702298575534
20
83.410877304842259
30
8.8817841970012523e-15
10
-182.85181385762422
20
83.430362268332544
30
8.8817841970012523e-15
10
-182.89653139684413
20
83.450208541177091
30
0
10
-182.94117660369977
20
83.470401420758137
30
0
10
-182.98574940865436
20
83.490933728680005
30
0
10
-183.03024911228749
20
83.511802791061939
30
0
10
-183.07467465011374
20
83.533008613040266
30
0
10
-183.11902490536812
20
83.554551728026468
30
0
10
-183.16329905630138
20
83.576430811301208
30
0
10
-183.2074967137909
20
83.598641728829591
30
0
10
-183.25161773447334
20
83.621178805627608
30
-8.8817841970012523e-15
10
-183.29566210992544
20
83.644035575620336
30
-8.8817841970012523e-15
10
-183.33962983537629
20
83.667205671896042
30
-8.8817841970012523e-15
10
-183.38352076472478
20
83.69068381349058
30
-8.8817841970012523e-15
10
-183.42733455515526
20
83.71446617503274
30
-8.8817841970012523e-15
10
-183.47107074564931
20
83.738549834519631
30
-8.8817841970012523e-15
10
-183.51472880443694
20
83.762932436111214
30
-8.8817841970012523e-15
10
-183.55830818545405
20
83.787611793089795
30
-8.8817841970012523e-15
10
-183.60180839124195
20
83.812585445382638
30
-8.8817841970012523e-15
10
-183.64522899878961
20
83.837850481685606
30
-8.8817841970012523e-15
10
-183.68856962734208
20
83.863403773170347
30
-8.8817841970012523e-15
10
-183.73182992044789
20
83.889242109446386
30
0
10
-183.77500952406254
20
83.91536236044827
30
0
10
-183.81810806406298
20
83.941761652556067
30
0
10
-183.86112513467276
20
83.96843744129329
30
0
10
-183.90406030653821
20
83.995387403601129
30
0
10
-183.94691313065056
20
84.022609368409803
30
0
10
-183.98968314451875
20
84.05010123569437
30
0
10
-184.03236987796046
20
84.077860884882526
30
0
10
-184.07497285964456
20
84.10588613171376
30
0
10
-184.11749162337313
20
84.134174788405161
30
0
10
-184.15992571558769
20
84.162724701198059
30
0
10
-184.20227470172907
20
84.191533791911226
30
0
10
-184.24453817678739
20
84.220600103459148
30
0
10
-184.28671576500946
20
84.249921817824159
30
0
10
-184.32880709115329
20
84.279497199603028
30
0
10
-184.37081175657934
20
84.309324550482216
30
0
10
-184.41272931616763
20
84.339402161149195
30
0
10
-184.45455925042498
20
84.369728254043224
30
0
10
-184.49630095555392
20
84.400300953641278
30
0
10
-184.53795380690875
20
84.431118378006218
30
0
10
-184.57951721291252
20
84.462178711456659
30
0
10
-184.62099067172829
20
84.493480281769024
30
0
10
-184.66237383135706
20
84.525021636463848
30
8.8817841970012523e-15
10
-184.70366653800383
20
84.55680161027567
30
8.8817841970012523e-15
10
-184.74486877101231
20
84.58881931237913
30
8.8817841970012523e-15
10
-184.77775822505845
20
84.614623158332392
30
8.8817841970012523e-15
10
-184.80238466434926
20
84.634082575770705
30
8.8817841970012523e-15
10
-184.81878422933636
20
84.647102852997278
30
8.8817841970012523e-15
10
-184.82697949652754
20
84.653624824677195
30
8.8817841970012523e-15
0
LINE
5
211
100
AcDbEntity
8
0
100
AcDbLine
10
-181.75580162803368
20
83.095141865143233
30
-8.8817841970012523e-15
11
-181.48398701214856
21
83.077619333690023
31
-8.8817841970012523e-15
0
ARC
5
212
100
AcDbEntity
8
0
100
AcDbCircle
10
-181.5483184866255
20
82.079690748373636
30
8.8817841970012523e-15
40
1.0000000000000093
210
-0
220
0
230
1
100
AcDbArc
50
-0.55506557338181672
51
86.311530887721247
0
ARC
5
213
100
AcDbEntity
8
0
100
AcDbCircle
10
-162.99998891915098
20
81.899994069635085
30
0
40
17.54919999999996
210
5.0608389065368941e-16
220
-4.9029533351090307e-18
230
1
100
AcDbArc
50
179.44493442661752
51
180.55506637139578
0
ARC
5
214
100
AcDbEntity
8
0
100
AcDbCircle
10
-181.54831848412266
20
81.720297132556041
30
0
40
1.000000000000006
210
-1.9680671161295214e-31
220
-1.2687149038631672e-32
230
1
100
AcDbArc
50
-86.311530089710388
51
0.55506637139970727
0
LINE
5
215
100
AcDbEntity
8
0
100
AcDbLine
10
-181.48398699574665
20
80.72236854813562
30
-2.6636624699547052e-45
11
-181.75580161138771
21
80.70484601289661
31
8.8817841970012523e-15
0
SPLINE
5
216
100
AcDbEntity
8
0
100
AcDbSpline
70
4
71
5
72
81
73
75
74
0
42
0.000000001
43
0.0000000001
44
0.0000000001
40
0
40
0
40
0
40
0
40
0
40
0
40
0.014285714285714285
40
0.028571428571428571
40
0.042857142857142858
40
0.057142857142857141
40
0.071428571428571425
40
0.085714285714285715
40
0.10000000000000001
40
0.1142857142857143
40
0.12857142857142859
40
0.14285714285714288
40
0.15714285714285717
40
0.17142857142857146
40
0.18571428571428575
40
0.20000000000000004
40
0.21428571428571433
40
0.22857142857142862
40
0.24285714285714291
40
0.25714285714285717
40
0.27142857142857146
40
0.28571428571428575
40
0.30000000000000004
40
0.31428571428571433
40
0.32857142857142863
40
0.34285714285714292
40
0.35714285714285721
40
0.3714285714285715
40
0.38571428571428579
40
0.40000000000000008
40
0.41428571428571437
40
0.42857142857142866
40
0.44285714285714295
40
0.45714285714285724
40
0.47142857142857153
40
0.48571428571428582
40
0.50000000000000011
40
0.51428571428571435
40
0.52857142857142858
40
0.54285714285714282
40
0.55714285714285705
40
0.57142857142857129
40
0.58571428571428552
40
0.59999999999999976
40
0.61428571428571399
40
0.62857142857142823
40
0.64285714285714246
40
0.6571428571428567
40
0.67142857142857093
40
0.68571428571428517
40
0.6999999999999994
40
0.71428571428571364
40
0.72857142857142787
40
0.74285714285714211
40
0.75714285714285634
40
0.77142857142857058
40
0.78571428571428481
40
0.79999999999999905
40
0.81428571428571328
40
0.82857142857142752
40
0.84285714285714175
40
0.85714285714285599
40
0.87142857142857022
40
0.88571428571428445
40
0.89999999999999869
40
0.91428571428571292
40
0.92857142857142716
40
0.94285714285714139
40
0.95714285714285563
40
0.97142857142856986
40
0.9857142857142841
40
1
40
1
40
1
40
1
40
1
40
1
41
1
41
1
41
1
41
1
41
1
41
1
41
1
41
1
41
1
41
1
41
1
41
1
41
1
41
1
41
1
41
1
41
1
41
1
41
1
41
1
41
1
41
1
41
1
41
1
41
1
41
1
41
1
41
1
41
1
41
1
41
1
41
1
41
1
41
1
41
1
41
1
41
1
41
1
41
1
41
1
41
1
41
1
41
1
41
1
41
1
41
1
41
1
41
1
41
1
41
1
41
1
41
1
41
1
41
1
41
1
41
1
41
1
41
1
41
1
41
1
41
1
41
1
41
1
41
1
41
1
41
1
41
1
41
1
41
1
41
1
41
1
41
1
41
1
41
1
41
1
10
-181.75580161138771
20
80.704846012896581
30
-8.8817841970012523e-15
10
-181.76520719397831
20
80.704239681805831
30
-8.8817841970012523e-15
10
-181.78398875294562
20
80.702780837425252
30
-8.8817841970012523e-15
10
-181.8120722738272
20
80.699854032167508
30
-8.8817841970012523e-15
10
-181.84934870455527
20
80.694546406947069
30
-8.8817841970012523e-15
10
-181.89571787226117
20
80.685986935571492
30
-8.8817841970012523e-15
10
-181.94192893880088
20
80.67603357042367
30
-8.8817841970012523e-15
10
-181.98804843034239
20
80.665211488391833
30
-8.8817841970012523e-15
10
-182.03412410023051
20
80.653912188631779
30
-8.8817841970012523e-15
10
-182.08017089407554
20
80.642287739588198
30
-8.8817841970012523e-15
10
-182.12618196549684
20
80.630329618971274
30
-8.8817841970012523e-15
10
-182.17213760827332
20
80.61793213655109
30
0
10
-182.21801459548627
20
80.604959009031603
30
0
10
-182.26379620250066
20
80.591314597641599
30
0
10
-182.3094793053001
20
80.576994678071685
30
0
10
-182.35506911327192
20
80.562050403709904
30
0
10
-182.40057566668577
20
80.546564681685879
30
0
10
-182.44600986500419
20
80.53062519673837
30
0
10
-182.49137919491824
20
80.514295456325385
30
0
10
-182.53668520061811
20
80.497597667514526
30
0
10
-182.58192585172662
20
80.480528968271514
30
0
10
-182.62709702117903
20
80.463071594595235
30
0
10
-182.67219420543438
20
80.44520469448392
30
0
10
-182.71721439912125
20
80.426917201673859
30
0
10
-182.76215703574405
20
80.408214317505582
30
0
10
-182.80702296471179
20
80.389110558556197
30
0
10
-182.8518138363093
20
80.369625594442084
30
0
10
-182.89653137525278
20
80.349779320974733
30
0
10
-182.94117658182714
20
80.329586440771834
30
0
10
-182.98574938649583
20
80.309054132229164
30
8.8817841970012523e-15
10
-183.03024908983826
20
80.288185069227438
30
8.8817841970012523e-15
10
-183.07467462736918
20
80.26697924663037
30
8.8817841970012523e-15
10
-183.11902488232352
20
80.245436131026452
30
8.8817841970012523e-15
10
-183.16329903295201
20
80.223557047135074
30
8.8817841970012523e-15
10
-183.20749669013213
20
80.201346128991105
30
8.8817841970012523e-15
10
-183.25161771050074
20
80.178809051578554
30
0
10
-183.29566208563449
20
80.155952280972386
30
0
10
-183.33962981076263
20
80.132782184084306
30
0
10
-183.38352073978416
20
80.109304041878445
30
0
10
-183.42733452988335
20
80.085521679726043
30
-8.8817841970012523e-15
10
-183.47107072004195
20
80.061438019630003
30
-8.8817841970012523e-15
10
-183.51472877849002
20
80.037055417430366
30
-8.8817841970012523e-15
10
-183.5583081591634
20
80.012376059844797
30
-8.8817841970012523e-15
10
-183.60180836460341
20
79.987402406946089
30
-8.8817841970012523e-15
10
-183.64522897179921
20
79.962137370038363
30
-8.8817841970012523e-15
10
-183.68856959999573
20
79.936584077949973
30
0
10
-183.7318298927417
20
79.910745741071409
30
0
10
-183.77500949599261
20
79.884625489468121
30
0
10
-183.81810803562533
20
79.858226196760057
30
0
10
-183.86112510586355
20
79.831550407423691
30
0
10
-183.90406027735364
20
79.80460044451786
30
0
10
-183.94691310108684
20
79.777378479112329
30
0
10
-183.98968311457213
20
79.749886611232071
30
0
10
-184.03236984762717
20
79.722126961449348
30
0
10
-184.07497282892098
20
79.694101714024768
30
0
10
-184.11749159225553
20
79.665813056741158
30
0
10
-184.15992568407245
20
79.637263143357217
30
0
10
-184.2022746698126
20
79.608454052054213
30
0
10
-184.24453814446605
20
79.579387739917664
30
0
10
-184.28671573227976
20
79.550066024965204
30
0
10
-184.32880705801171
20
79.520490642600095
30
8.8817841970012523e-15
10
-184.37081172302226
20
79.490663291135874
30
8.8817841970012523e-15
10
-184.41272928219161
20
79.460585679885043
30
8.8817841970012523e-15
10
-184.45455921602661
20
79.430259586408425
30
0
10
-184.49630092072971
20
79.399686886228992
30
0
10
-184.53795377165537
20
79.368869461283907
30
0
10
-184.57951717722648
20
79.337809127254559
30
0
10
-184.62099063560632
20
79.306507556364565
30
0
10
-184.66237379479577
20
79.274966201093363
30
0
10
-184.7036665009999
20
79.243186226706413
30
0
10
-184.7448687335625
20
79.211168524029091
30
0
10
-184.77775818724919
20
79.185364677617756
30
0
10
-184.802384626269
20
79.16590525983645
30
0
10
-184.81878419107474
20
79.152884982381465
30
0
10
-184.82697945817506
20
79.146363010587393
30
0
0
ARC
5
217
100
AcDbEntity
8
0
100
AcDbCircle
10
-162.99998891915098
20
81.899994069635085
30
0
40
21.999999999999929
210
1.93965133004345e-31
220
-1.5374881500830191e-30
230
1
100
AcDbArc
50
187.19028719973193
51
190.80971359828166
0
SPLINE
5
218
100
AcDbEntity
8
0
100
AcDbSpline
70
4
71
5
72
81
73
75
74
0
42
0.000000001
43
0.0000000001
44
0.0000000001
40
0
40
0
40
0
40
0
40
0
40
0
40
0.014285714285714285
40
0.028571428571428571
40
0.042857142857142858
40
0.057142857142857141
40
0.071428571428571425
40
0.085714285714285715
40
0.10000000000000001
40
0.1142857142857143
40
0.12857142857142859
40
0.14285714285714288
40
0.15714285714285717
40
0.17142857142857146
40
0.18571428571428575
40
0.20000000000000004
40
0.21428571428571433
40
0.22857142857142862
40
0.24285714285714291
40
0.25714285714285717
40
0.27142857142857146
40
0.28571428571428575
40
0.30000000000000004
40
0.31428571428571433
40
0.32857142857142863
40
0.34285714285714292
40
0.35714285714285721
40
0.3714285714285715
40
0.38571428571428579
40
0.40000000000000008
40
0.41428571428571437
40
0.42857142857142866
40
0.44285714285714295
40
0.45714285714285724
40
0.47142857142857153
40
0.48571428571428582
40
0.50000000000000011
40
0.51428571428571435
40
0.52857142857142858
40
0.54285714285714282
40
0.55714285714285705
40
0.57142857142857129
40
0.58571428571428552
40
0.59999999999999976
40
0.61428571428571399
40
0.62857142857142823
40
0.64285714285714246
40
0.6571428571428567
40
0.67142857142857093
40
0.68571428571428517
40
0.6999999999999994
40
0.71428571428571364
40
0.72857142857142787
40
0.74285714285714211
40
0.75714285714285634
40
0.77142857142857058
40
0.78571428571428481
40
0.79999999999999905
40
0.81428571428571328
40
0.82857142857142752
40
0.84285714285714175
40
0.85714285714285599
40
0.87142857142857022
40
0.88571428571428445
40
0.89999999999999869
40
0.91428571428571292
40
0.92857142857142716
40
0.94285714285714139
40
0.95714285714285563
40
0.97142857142856986
40
0.9857142857142841
40
1
40
1
40
1
40
1
40
1
40
1
41
1
41
1
41
1
41
1
41
1
41
1
41
1
41
1
41
1
41
1
41
1
41
1
41
1
41
1
41
1
41
1
41
1
41
1
41
1
41
1
41
1
41
1
41
1
41
1
41
1
41
1
41
1
41
1
41
1
41
1
41
1
41
1
41
1
41
1
41
1
41
1
41
1
41
1
41
1
41
1
41
1
41
1
41
1
41
1
41
1
41
1
41
1
41
1
41
1
41
1
41
1
41
1
41
1
41
1
41
1
41
1
41
1
41
1
41
1
41
1
41
1
41
1
41
1
41
1
41
1
41
1
41
1
41
1
41
1
41
1
41
1
41
1
41
1
41
1
41
1
10
-181.20714779394714
20
77.24078229813054
30
0
10
-181.21628040113825
20
77.238452468275753
30
0
10
-181.23459353282456
20
77.234036090573341
30
0
10
-181.26220698084126
20
77.228141362186747
30
0
10
-181.29929911949219
20
77.22167016263748
30
0
10
-181.34604384062581
20
77.21548184217805
30
0
10
-181.39306893549818
20
77.210668049417023
30
0
10
-181.44027538566417
20
77.206708753737544
30
0
10
-181.48758762735568
20
77.203216860722307
30
8.8817841970012523e-15
10
-181.53497288295699
20
77.200043126238967
30
8.8817841970012523e-15
10
-181.58242727470571
20
77.197197771114816
30
0
10
-181.62996472095057
20
77.194787402288711
30
0
10
-181.6776052454355
20
77.192948810389822
30
0
10
-181.72536249609448
20
77.19177812149087
30
0
10
-181.77323480719477
20
77.191280318523098
30
0
10
-181.82121132589111
20
77.191405141934396
30
0
10
-181.86927598133434
20
77.192070639745111
30
0
10
-181.91741204345365
20
77.193190050694199
30
0
10
-181.96560700763072
20
77.194700662085268
30
0
10
-182.01385548011615
20
77.196580876561029
30
0
10
-182.06215641432368
20
77.198834043498948
30
0
10
-182.11051137456002
20
77.201478332801102
30
0
10
-182.15892252132642
20
77.204534967570325
30
0
10
-182.20739041600842
20
77.208015401159685
30
0
10
-182.2559129125342
20
77.211914861857167
30
0
10
-182.30448633287037
20
77.216219281095704
30
0
10
-182.35310616828511
20
77.220909441992546
30
0
10
-182.40176791093683
20
77.22596588953995
30
0
10
-182.4504679687941
20
77.2313743316125
30
0
10
-182.49920405747741
20
77.23712796263824
30
0
10
-182.54797468552354
20
77.243224455738257
30
0
10
-182.59677884213406
20
77.249664144741587
30
0
10
-182.64561563003568
20
77.256447882052029
30
0
10
-182.69448385833741
20
77.263574661721123
30
0
10
-182.74338187947467
20
77.27104067229358
30
0
10
-182.79230780343448
20
77.278840560840536
30
0
10
-182.84125962407859
20
77.286968180362237
30
0
10
-182.89023536938578
20
77.295417477040104
30
0
10
-182.93923326849804
20
77.304183473526507
30
0
10
-182.98825181327339
20
77.313262637613079
30
0
10
-183.03728966230889
20
77.322652332772435
30
0
10
-183.08634558186654
20
77.33235048279353
30
0
10
-183.13541837687558
20
77.342355176727352
30
0
10
-183.18450681402044
20
77.352664228628896
30
0
10
-183.23360959135124
20
77.363275000400961
30
-8.8817841970012523e-15
10
-183.28272537988738
20
77.374184634010717
30
-8.8817841970012523e-15
10
-183.33185284855819
20
77.385390186344893
30
-8.8817841970012523e-15
10
-183.38099069340387
20
77.396888789940206
30
-8.8817841970012523e-15
10
-183.4301376706149
20
77.408677827432015
30
-8.8817841970012523e-15
10
-183.47929260798836
20
77.420755004271228
30
-8.8817841970012523e-15
10
-183.52845437932018
20
77.433118243775169
30
-8.8817841970012523e-15
10
-183.57762188668002
20
77.445765619885137
30
-8.8817841970012523e-15
10
-183.62679404126942
20
77.458695278276309
30
-8.8817841970012523e-15
10
-183.67596974062553
20
77.471905347458957
30
-8.8817841970012523e-15
10
-183.72514786151226
20
77.485393895727142
30
-8.8817841970012523e-15
10
-183.77432728448679
20
77.4991589864388
30
-8.8817841970012523e-15
10
-183.82350691264145
20
77.513198711404982
30
-8.8817841970012523e-15
10
-183.87268569049255
20
77.527511228444041
30
-8.8817841970012523e-15
10
-183.92186262808013
20
77.542094801411992
30
-8.8817841970012523e-15
10
-183.97103680624338
20
77.556947817385407
30
0
10
-184.02020733183676
20
77.572068741853869
30
0
10
-184.06937330092381
20
77.587456082811684
30
0
10
-184.11853376196373
20
77.603108352155616
30
0
10
-184.16768767159266
20
77.619024019857136
30
0
10
-184.21683387599654
20
77.635201488771571
30
0
10
-184.26597119955147
20
77.651639162096458
30
0
10
-184.31509851855787
20
77.668335495823541
30
0
10
-184.36421483899508
20
77.685289054649786
30
0
10
-184.41331937725118
20
77.702498565958848
30
0
10
-184.46241162697174
20
77.719962969042697
30
0
10
-184.51149129323119
20
77.737681423059172
30
0
10
-184.55074484973892
20
77.752058938662529
30
0
10
-184.58017927598866
20
77.76295595616871
30
0
10
-184.59979967606853
20
77.770271231387653
30
0
10
-184.60960923841938
20
77.773941518217413
30
0
0
LINE
5
219
100
AcDbEntity
8
0
100
AcDbLine
10
-181.20714779394714
20
77.24078229813054
30
0
11
-180.94322197228183
21
77.308112716037968
31
-2.4651903288156619e-31
0
ARC
5
220
100
AcDbEntity
8
0
100
AcDbCircle
10
-180.69602794825062
20
76.339146713289026
30
0
40
1.0000000000000073
210
0
220
-0
230
1
100
AcDbArc
50
17.444934426617944
51
104.31153088772527
0
ARC
5
221
100
AcDbEntity
8
0
100
AcDbCircle
10
-162.99998891915098
20
81.899994069635085
30
0
40
17.549199999999953
210
4.7289497084297728e-31
220
-1.5048727872654589e-30
230
1
100
AcDbArc
50
197.44493442661766
51
198.55506637139524
0
ARC
5
222
100
AcDbEntity
8
0
100
AcDbCircle
10
-180.58496921091285
20
75.99734307382424
30
0
40
0.99999999999999445
210
-8.8296757284132611e-31
220
-2.0490926010309003e-30
230
1
100
AcDbArc
50
-68.311530089709322
51
18.555066371408621
0
LINE
5
223
100
AcDbEntity
8
0
100
AcDbLine
10
-180.21540943793141
20
75.068136113995635
30
-1.5777218104420094e-30
11
-180.4685057381877
21
74.967475857121968
31
-2.4651903288156619e-31
0
SPLINE
5
224
100
AcDbEntity
8
0
100
AcDbSpline
70
4
71
5
72
81
73
75
74
0
42
0.000000001
43
0.0000000001
44
0.0000000001
40
0
40
0
40
0
40
0
40
0
40
0
40
0.014285714285714285
40
0.028571428571428571
40
0.042857142857142858
40
0.057142857142857141
40
0.071428571428571425
40
0.085714285714285715
40
0.10000000000000001
40
0.1142857142857143
40
0.12857142857142859
40
0.14285714285714288
40
0.15714285714285717
40
0.17142857142857146
40
0.18571428571428575
40
0.20000000000000004
40
0.21428571428571433
40
0.22857142857142862
40
0.24285714285714291
40
0.25714285714285717
40
0.27142857142857146
40
0.28571428571428575
40
0.30000000000000004
40
0.31428571428571433
40
0.32857142857142863
40
0.34285714285714292
40
0.35714285714285721
40
0.3714285714285715
40
0.38571428571428579
40
0.40000000000000008
40
0.41428571428571437
40
0.42857142857142866
40
0.44285714285714295
40
0.45714285714285724
40
0.47142857142857153
40
0.48571428571428582
40
0.50000000000000011
40
0.51428571428571435
40
0.52857142857142858
40
0.54285714285714282
40
0.55714285714285705
40
0.57142857142857129
40
0.58571428571428552
40
0.59999999999999976
40
0.61428571428571399
40
0.62857142857142823
40
0.64285714285714246
40
0.6571428571428567
40
0.67142857142857093
40
0.68571428571428517
40
0.6999999999999994
40
0.71428571428571364
40
0.72857142857142787
40
0.74285714285714211
40
0.75714285714285634
40
0.77142857142857058
40
0.78571428571428481
40
0.79999999999999905
40
0.81428571428571328
40
0.82857142857142752
40
0.84285714285714175
40
0.85714285714285599
40
0.87142857142857022
40
0.88571428571428445
40
0.89999999999999869
40
0.91428571428571292
40
0.92857142857142716
40
0.94285714285714139
40
0.95714285714285563
40
0.97142857142856986
40
0.9857142857142841
40
1
40
1
40
1
40
1
40
1
40
1
41
1
41
1
41
1
41
1
41
1
41
1
41
1
41
1
41
1
41
1
41
1
41
1
41
1
41
1
41
1
41
1
41
1
41
1
41
1
41
1
41
1
41
1
41
1
41
1
41
1
41
1
41
1
41
1
41
1
41
1
41
1
41
1
41
1
41
1
41
1
41
1
41
1
41
1
41
1
41
1
41
1
41
1
41
1
41
1
41
1
41
1
41
1
41
1
41
1
41
1
41
1
41
1
41
1
41
1
41
1
41
1
41
1
41
1
41
1
41
1
41
1
41
1
41
1
41
1
41
1
41
1
41
1
41
1
41
1
41
1
41
1
41
1
41
1
41
1
41
1
10
-180.4685057381877
20
74.967475857121968
30
-8.8817841970012523e-15
10
-180.47726361218878
20
74.963992717124569
30
-8.8817841970012523e-15
10
-180.49467512852505
20
74.956801452768417
30
-8.8817841970012523e-15
10
-180.52047971149614
20
74.945339610341819
30
-8.8817841970012523e-15
10
-180.55429155745142
20
74.928772708205244
30
0
10
-180.59574623443538
20
74.906303306341314
30
0
10
-180.63661981141104
20
74.882557088669444
30
0
10
-180.67713784710742
20
74.858012970374915
30
0
10
-180.71746673754683
20
74.83302853268593
30
0
10
-180.75766768858287
20
74.807743782840106
30
0
10
-180.79773155538842
20
74.782152731306141
30
0
10
-180.83760693615619
20
74.756160950259428
30
0
10
-180.8772296269193
20
74.72964600409577
30
0
10
-180.91655416759909
20
74.702522103135053
30
0
10
-180.95557628169593
20
74.674786195194429
30
0
10
-180.99431673089776
20
74.646485320247777
30
0
10
-181.03281068378055
20
74.617695225046987
30
0
10
-181.07109560242355
20
74.588495934615096
30
0
10
-181.1091982319769
20
74.558945534619056
30
0
10
-181.14712690341406
20
74.529064668054275
30
8.8817841970012523e-15
10
-181.18487880131426
20
74.498851240385392
30
8.8817841970012523e-15
10
-181.22244451122751
20
74.468289632376582
30
8.8817841970012523e-15
10
-181.25981330640897
20
74.437361404266355
30
8.8817841970012523e-15
10
-181.29697890891688
20
74.406056960123379
30
8.8817841970012523e-15
10
-181.33394238728465
20
74.374381421773151
30
0
10
-181.37070903521729
20
74.342348332819142
30
0
10
-181.40728650047461
20
74.309975890212158
30
0
10
-181.44368257150302
20
74.277282483026681
30
0
10
-181.47990274298891
20
74.244281785178103
30
0
10
-181.51594916704511
20
74.21098064521442
30
0
10
-181.55182200475795
20
74.177381822280211
30
0
10
-181.58752024215437
20
74.143485640434562
30
-8.8817841970012523e-15
10
-181.62304265229471
20
74.10929193747242
30
-8.8817841970012523e-15
10
-181.65838886300961
20
74.074802227211222
30
0
10
-181.69355978170859
20
74.040020561597274
30
0
10
-181.72855702571169
20
74.004952382162784
30
0
10
-181.76338258513496
20
73.969603841113369
30
0
10
-181.798038422925
20
73.933980995216174
30
0
10
-181.83252603203925
20
73.898088912114218
30
0
10
-181.86684626854517
20
73.861931335887661
30
0
10
-181.90099959693703
20
73.825511187988852
30
0
10
-181.93498623946607
20
73.788830873280787
30
0
10
-181.96880635252739
20
73.751892640198676
30
-8.8817841970012523e-15
10
-182.00246022321397
20
73.714698982133882
30
-8.8817841970012523e-15
10
-182.03594834886101
20
73.677252798618767
30
-8.8817841970012523e-15
10
-182.06927133421016
20
73.639557183005692
30
-8.8817841970012523e-15
10
-182.10242983232118
20
73.601615298706974
30
0
10
-182.1354244737212
20
73.563430231997515
30
0
10
-182.16825579059545
20
73.525004831462653
30
0
10
-182.2009241833141
20
73.48634164243515
30
0
10
-182.23342996140235
20
73.44744300695281
30
0
10
-182.26577336872484
20
73.408311128577026
30
0
10
-182.29795461436996
20
73.368948147467762
30
0
10
-182.32997390646059
20
73.329356225703478
30
0
10
-182.36183147170789
20
73.289537586288716
30
0
10
-182.39352754279335
20
73.249494453991716
30
0
10
-182.42506235390533
20
73.209229017315977
30
0
10
-182.45643613394685
20
73.168743387015468
30
0
10
-182.4876491025033
20
73.12803954954407
30
8.8817841970012523e-15
10
-182.5187014640106
20
73.087119350053399
30
0
10
-182.54959339786151
20
73.045984554966211
30
0
10
-182.58032504973497
20
73.004636902661048
30
0
10
-182.61089652450346
20
72.963078156340316
30
0
10
-182.64130787739614
20
72.921310167096991
30
0
10
-182.67155911373592
20
72.879334905243155
30
0
10
-182.70165022100014
20
72.837154353633508
30
0
10
-182.7315811976419
20
72.79477042189103
30
0
10
-182.76135208313167
20
72.752184855470944
30
0
10
-182.79096299153932
20
72.709399144537031
30
0
10
-182.82041413668384
20
72.666414444847817
30
0
10
-182.84970577420026
20
72.623231610011715
30
8.8817841970012523e-15
10
-182.87301167638503
20
72.588527293611833
30
8.8817841970012523e-15
10
-182.89041952089289
20
72.562410299359556
30
8.8817841970012523e-15
10
-182.90199294686073
20
72.544959535416709
30
8.8817841970012523e-15
10
-182.90777170891806
20
72.536224294835421
30
8.8817841970012523e-15
0
ARC
5
225
100
AcDbEntity
8
0
100
AcDbCircle
10
-162.99998891915098
20
81.899994069635085
30
0
40
21.999999999999964
210
3.653236168997673e-16
220
1.718326082854832e-16
230
1
100
AcDbArc
50
205.19028719973193
51
208.80971359828166
0
SPLINE
5
226
100
AcDbEntity
8
0
100
AcDbSpline
70
4
71
5
72
81
73
75
74
0
42
0.000000001
43
0.0000000001
44
0.0000000001
40
0
40
0
40
0
40
0
40
0
40
0
40
0.014285714285714285
40
0.028571428571428571
40
0.042857142857142858
40
0.057142857142857141
40
0.071428571428571425
40
0.085714285714285715
40
0.10000000000000001
40
0.1142857142857143
40
0.12857142857142859
40
0.14285714285714288
40
0.15714285714285717
40
0.17142857142857146
40
0.18571428571428575
40
0.20000000000000004
40
0.21428571428571433
40
0.22857142857142862
40
0.24285714285714291
40
0.25714285714285717
40
0.27142857142857146
40
0.28571428571428575
40
0.30000000000000004
40
0.31428571428571433
40
0.32857142857142863
40
0.34285714285714292
40
0.35714285714285721
40
0.3714285714285715
40
0.38571428571428579
40
0.40000000000000008
40
0.41428571428571437
40
0.42857142857142866
40
0.44285714285714295
40
0.45714285714285724
40
0.47142857142857153
40
0.48571428571428582
40
0.50000000000000011
40
0.51428571428571435
40
0.52857142857142858
40
0.54285714285714282
40
0.55714285714285705
40
0.57142857142857129
40
0.58571428571428552
40
0.59999999999999976
40
0.61428571428571399
40
0.62857142857142823
40
0.64285714285714246
40
0.6571428571428567
40
0.67142857142857093
40
0.68571428571428517
40
0.6999999999999994
40
0.71428571428571364
40
0.72857142857142787
40
0.74285714285714211
40
0.75714285714285634
40
0.77142857142857058
40
0.78571428571428481
40
0.79999999999999905
40
0.81428571428571328
40
0.82857142857142752
40
0.84285714285714175
40
0.85714285714285599
40
0.87142857142857022
40
0.88571428571428445
40
0.89999999999999869
40
0.91428571428571292
40
0.92857142857142716
40
0.94285714285714139
40
0.95714285714285563
40
0.97142857142856986
40
0.9857142857142841
40
1
40
1
40
1
40
1
40
1
40
1
41
1
41
1
41
1
41
1
41
1
41
1
41
1
41
1
41
1
41
1
41
1
41
1
41
1
41
1
41
1
41
1
41
1
41
1
41
1
41
1
41
1
41
1
41
1
41
1
41
1
41
1
41
1
41
1
41
1
41
1
41
1
41
1
41
1
41
1
41
1
41
1
41
1
41
1
41
1
41
1
41
1
41
1
41
1
41
1
41
1
41
1
41
1
41
1
41
1
41
1
41
1
41
1
41
1
41
1
41
1
41
1
41
1
41
1
41
1
41
1
41
1
41
1
41
1
41
1
41
1
41
1
41
1
41
1
41
1
41
1
41
1
41
1
41
1
41
1
41
1
10
-178.87625039246029
20
71.842498841949947
30
-8.8817841970012523e-15
10
-178.88421606102105
20
71.837460911259654
30
-8.8817841970012523e-15
10
-178.90026814848142
20
71.827601617556084
30
-8.8817841970012523e-15
10
-178.92470852690644
20
71.813462373001769
30
-8.8817841970012523e-15
10
-178.957985536439
20
71.795845795301346
30
0
10
-179.00053011188689
20
71.775515439575898
30
0
10
-179.04376609102414
20
71.756405697124748
30
0
10
-179.08743860341497
20
71.738052587823461
30
0
10
-179.13135616489197
20
71.720111313492438
30
0
10
-179.17544148311691
20
71.702450063367451
30
0
10
-179.21969402852795
20
71.685079756327383
30
0
10
-179.26415998161715
20
71.668097480589807
30
0
10
-179.30890065672583
20
71.651627144096764
30
0
10
-179.35395873840048
20
71.63575595073263
30
0
10
-179.39933418224558
20
71.620489154286304
30
0
10
-179.4450011355363
20
71.60578230879689
30
0
10
-179.49091898943232
20
71.591562439465605
30
0
10
-179.53704502198661
20
71.577752201305998
30
0
10
-179.58334796131163
20
71.564295815139047
30
0
10
-179.62981600369625
20
71.551174407417648
30
0
10
-179.67644918879242
20
71.538391487001931
30
0
10
-179.72325461915275
20
71.525963851098368
30
0
10
-179.77024090783556
20
71.513911016445576
30
0
10
-179.8174121280309
20
71.502243702351933
30
8.8817841970012523e-15
10
-179.86476476416303
20
71.490958033822366
30
8.8817841970012523e-15
10
-179.91229097078818
20
71.480041767429256
30
0
10
-179.95998052150398
20
71.469478020105782
30
0
10
-180.00782311717049
20
71.459249682039783
30
0
10
-180.05581092505312
20
71.449344270610908
30
0
10
-180.10393966954041
20
71.439756019247824
30
0
10
-180.1522072131215
20
71.430483175844529
30
0
10
-180.2006126976288
20
71.421526370245275
30
0
10
-180.24915553311178
20
71.412886690406935
30
0
10
-180.2978342761109
20
71.404563547621194
30
0
10
-180.34664618189453
20
71.396553826104125
30
0
10
-180.39558779880747
20
71.388853018964028
30
0
10
-180.44465531937161
20
71.381455899987472
30
0
10
-180.49384499735041
20
71.374357321038971
30
0
10
-180.54315361047281
20
71.367553095604819
30
0
10
-180.59257863289818
20
71.361040330396762
30
0
10
-180.64211797414472
20
71.354816932444521
30
0
10
-180.69176981927339
20
71.348881308400095
30
0
10
-180.74153244118864
20
71.343232010140113
30
0
10
-180.79140399144342
20
71.33786733982285
30
0
10
-180.84138241659309
20
71.332785190793359
30
0
10
-180.89146556952119
20
71.327983255578516
30
0
10
-180.94165127483228
20
71.323459146434729
30
0
10
-180.99193740629201
20
71.319210539188049
30
8.8817841970012523e-15
10
-181.04232197215705
20
71.315235328935131
30
8.8817841970012523e-15
10
-181.09280314854158
20
71.311531695660676
30
8.8817841970012523e-15
10
-181.14337922263155
20
71.308098012338306
30
8.8817841970012523e-15
10
-181.19404855504831
20
71.30493278645649
30
8.8817841970012523e-15
10
-181.24480953726521
20
71.302034590904725
30
8.8817841970012523e-15
10
-181.29566054245549
20
71.299401986470286
30
8.8817841970012523e-15
10
-181.34659990542826
20
71.297033483090672
30
8.8817841970012523e-15
10
-181.39762596307486
20
71.294927584836714
30
8.8817841970012523e-15
10
-181.44873708251123
20
71.293082815875962
30
8.8817841970012523e-15
10
-181.49993169064732
20
71.291497750351951
30
8.8817841970012523e-15
10
-181.5512083094772
20
71.290171043008115
30
8.8817841970012523e-15
10
-181.6025655664063
20
71.289101443899398
30
0
10
-181.65400213781299
20
71.288287769616844
30
0
10
-181.70551670294742
20
71.2877288805104
30
0
10
-181.75710789699133
20
71.287423655352114
30
0
10
-181.80877425484186
20
71.287370961415519
30
0
10
-181.86051418561189
20
71.287569636273943
30
0
10
-181.91232607777746
20
71.288018524565729
30
0
10
-181.96420838551205
20
71.288716505094058
30
0
10
-182.01615971991274
20
71.289662519973888
30
0
10
-182.06817894246029
20
71.290855601024546
30
0
10
-182.12026524380607
20
71.292294895924911
30
0
10
-182.1724180836249
20
71.293979696123529
30
0
10
-182.21419333098765
20
71.295523509975695
30
0
10
-182.24555449747331
20
71.296791451552295
30
0
10
-182.26647515118276
20
71.297685654656618
30
0
10
-182.2769387803832
20
71.298144983388951
30
0
0
LINE
5
227
100
AcDbEntity
8
0
100
AcDbLine
10
-178.87625039246029
20
71.842498841949947
30
-8.8817841970012523e-15
11
-178.6460482633187
21
71.98809143879464
31
-8.8817841970012523e-15
0
ARC
5
228
100
AcDbEntity
8
0
100
AcDbCircle
10
-178.11152581415365
20
71.142937162145358
30
0
40
0.99999999999999822
210
0
220
-0
230
1
100
AcDbArc
50
35.444934426616634
51
122.31153088772301
0
ARC
5
229
100
AcDbEntity
8
0
100
AcDbCircle
10
-162.99998891915098
20
81.899994069635085
30
0
40
17.549199999999971
210
1.7726520848470665e-32
220
-2.4902254968567348e-32
230
1
100
AcDbArc
50
215.44493442661766
51
216.55506637139587
0
ARC
5
230
100
AcDbEntity
8
0
100
AcDbCircle
10
-177.90027954498316
20
70.852181620750187
30
0
40
0.99999999999998246
210
-1.0075536145655437e-30
220
1.2141012416270922e-30
230
1
100
AcDbArc
50
-50.311530089709876
51
36.555066371397757
0
LINE
5
231
100
AcDbEntity
8
0
100
AcDbLine
10
-177.26166657285012
20
70.082653536907003
30
1.5777218104420217e-30
11
-177.47126972842696
21
69.908708885682699
31
0
0
SPLINE
5
232
100
AcDbEntity
8
0
100
AcDbSpline
70
4
71
5
72
81
73
75
74
0
42
0.000000001
43
0.0000000001
44
0.0000000001
40
0
40
0
40
0
40
0
40
0
40
0
40
0.014285714285714285
40
0.028571428571428571
40
0.042857142857142858
40
0.057142857142857141
40
0.071428571428571425
40
0.085714285714285715
40
0.10000000000000001
40
0.1142857142857143
40
0.12857142857142859
40
0.14285714285714288
40
0.15714285714285717
40
0.17142857142857146
40
0.18571428571428575
40
0.20000000000000004
40
0.21428571428571433
40
0.22857142857142862
40
0.24285714285714291
40
0.25714285714285717
40
0.27142857142857146
40
0.28571428571428575
40
0.30000000000000004
40
0.31428571428571433
40
0.32857142857142863
40
0.34285714285714292
40
0.35714285714285721
40
0.3714285714285715
40
0.38571428571428579
40
0.40000000000000008
40
0.41428571428571437
40
0.42857142857142866
40
0.44285714285714295
40
0.45714285714285724
40
0.47142857142857153
40
0.48571428571428582
40
0.50000000000000011
40
0.51428571428571435
40
0.52857142857142858
40
0.54285714285714282
40
0.55714285714285705
40
0.57142857142857129
40
0.58571428571428552
40
0.59999999999999976
40
0.61428571428571399
40
0.62857142857142823
40
0.64285714285714246
40
0.6571428571428567
40
0.67142857142857093
40
0.68571428571428517
40
0.6999999999999994
40
0.71428571428571364
40
0.72857142857142787
40
0.74285714285714211
40
0.75714285714285634
40
0.77142857142857058
40
0.78571428571428481
40
0.79999999999999905
40
0.81428571428571328
40
0.82857142857142752
40
0.84285714285714175
40
0.85714285714285599
40
0.87142857142857022
40
0.88571428571428445
40
0.89999999999999869
40
0.91428571428571292
40
0.92857142857142716
40
0.94285714285714139
40
0.95714285714285563
40
0.97142857142856986
40
0.9857142857142841
40
1
40
1
40
1
40
1
40
1
40
1
41
1
41
1
41
1
41
1
41
1
41
1
41
1
41
1
41
1
41
1
41
1
41
1
41
1
41
1
41
1
41
1
41
1
41
1
41
1
41
1
41
1
41
1
41
1
41
1
41
1
41
1
41
1
41
1
41
1
41
1
41
1
41
1
41
1
41
1
41
1
41
1
41
1
41
1
41
1
41
1
41
1
41
1
41
1
41
1
41
1
41
1
41
1
41
1
41
1
41
1
41
1
41
1
41
1
41
1
41
1
41
1
41
1
41
1
41
1
41
1
41
1
41
1
41
1
41
1
41
1
41
1
41
1
41
1
41
1
41
1
41
1
41
1
41
1
41
1
41
1
10
-177.47126972842693
20
69.908708885682714
30
0
10
-177.47852261211159
20
69.9026898907901
30
0
10
-177.49285972528469
20
69.890470137518022
30
0
10
-177.51385943797294
20
69.871595222918629
30
0
10
-177.54089696009234
20
69.845390727675451
30
0
10
-177.57337927373942
20
69.811210856931154
30
0
10
-177.60491437065369
20
69.775996231970581
30
0
10
-177.63586476286525
20
69.740132626720992
30
0
10
-177.66649920107176
20
69.703908701940847
30
0
10
-177.69691916011504
20
69.667438698776905
30
0
10
-177.72711409188051
20
69.6307197467534
30
0
10
-177.75700593054196
20
69.593677923704377
30
0
10
-177.78649577981585
20
69.556216626567547
30
0
10
-177.81551389412908
20
69.518268312445471
30
0
10
-177.84405526311244
20
69.479831400050827
30
8.8817841970012523e-15
10
-177.87215416845581
20
69.440944211342867
30
8.8817841970012523e-15
10
-177.8998674644962
20
69.401667918075958
30
8.8817841970012523e-15
10
-177.92725550888036
20
69.36206705215055
30
8.8817841970012523e-15
10
-177.95436168721568
20
69.322188591612843
30
0
10
-177.98120030176528
20
69.282049594705697
30
0
10
-178.00776802765773
20
69.241648939420543
30
0
10
-178.03405108460987
20
69.200974680206343
30
0
10
-178.06003357268128
20
69.16001259455426
30
0
10
-178.08570655588883
20
69.118755496181961
30
0
10
-178.11107263319926
20
69.077207926039975
30
0
10
-178.13614102442881
20
69.035381129015818
30
0
10
-178.16092462619633
20
68.993290048150385
30
0
10
-178.18543652829112
20
68.950949765730485
30
8.8817841970012523e-15
10
-178.20968618194263
20
68.908371588470999
30
8.8817841970012523e-15
10
-178.23367775024965
20
68.865561364688659
30
8.8817841970012523e-15
10
-178.25741223903674
20
68.822521668707509
30
0
10
-178.28088878409818
20
68.77925312206095
30
0
10
-178.30410616842073
20
68.735755949628029
30
0
10
-178.32706450584567
20
68.692031706141321
30
-8.8817841970012523e-15
10
-178.34976591149109
20
68.648083964825815
30
-8.8817841970012523e-15
10
-178.37221360504554
20
68.603917401106784
30
-8.8817841970012523e-15
10
-178.39441138035801
20
68.559537251099812
30
-8.8817841970012523e-15
10
-178.41636297594565
20
68.514948668548868
30
-8.8817841970012523e-15
10
-178.43807137768317
20
68.470156011719709
30
-8.8817841970012523e-15
10
-178.45953855672354
20
68.425162576904683
30
0
10
-178.48076585760541
20
68.379970999033532
30
0
10
-178.50175423484583
20
68.33458349658747
30
0
10
-178.52250453199008
20
68.289002159626648
30
0
10
-178.54301779258012
20
68.243229270790607
30
0
10
-178.56329538561459
20
68.197267434013497
30
0
10
-178.58333884213539
20
68.151119404372736
30
0
10
-178.60314976078757
20
68.104787988645668
30
0
10
-178.62272969494933
20
68.058275927210559
30
-8.8817841970012523e-15
10
-178.64208003102019
20
68.011585764778772
30
-8.8817841970012523e-15
10
-178.66120193632594
20
67.964719798384451
30
-8.8817841970012523e-15
10
-178.68009642897195
20
67.917680159789299
30
-8.8817841970012523e-15
10
-178.69876442182527
20
67.870468869346496
30
0
10
-178.71720677508651
20
67.823087897857249
30
0
10
-178.73542435481136
20
67.775539237266827
30
0
10
-178.75341806356101
20
67.727824931720605
30
0
10
-178.77118881012001
20
67.679947025196327
30
0
10
-178.78873749349947
20
67.63190752671639
30
0
10
-178.80606498365793
20
67.583708372992163
30
0
10
-178.82317210328154
20
67.535351385397931
30
0
10
-178.84005961698361
20
67.486838255603018
30
0
10
-178.85672824123137
20
67.438170608139842
30
0
10
-178.87317865176232
20
67.389350051287394
30
-8.8817841970012523e-15
10
-178.88941149317563
20
67.340378229543433
30
0
10
-178.90542739001654
20
67.291256886335248
30
0
10
-178.92122695620728
20
67.241987893896123
30
0
10
-178.93681079257394
20
67.192573141902656
30
0
10
-178.95217948775138
20
67.143014446992197
30
0
10
-178.96733361865341
20
67.093313456994309
30
0
10
-178.98227375425284
20
67.043471553889475
30
0
10
-178.99700045505287
20
66.993489770795591
30
0
10
-179.01151422795613
20
66.943368840546981
30
0
10
-179.0229552345514
20
66.903161154446963
30
0
10
-179.03144048343933
20
66.872943097088935
30
0
10
-179.03705488299875
20
66.85277004901954
30
0
10
-179.03985147451991
20
66.842676605861143
30
0
0
ARC
5
233
100
AcDbEntity
8
0
100
AcDbCircle
10
-162.99998891915098
20
81.899994069635085
30
0
40
21.999999999999943
210
1.2140130210903904e-30
220
-1.2932318153991739e-30
230
1
100
AcDbArc
50
223.1902871997319
51
226.80971359828169
0
SPLINE
5
234
100
AcDbEntity
8
0
100
AcDbSpline
70
4
71
5
72
81
73
75
74
0
42
0.000000001
43
0.0000000001
44
0.0000000001
40
0
40
0
40
0
40
0
40
0
40
0
40
0.014285714285714285
40
0.028571428571428571
40
0.042857142857142858
40
0.057142857142857141
40
0.071428571428571425
40
0.085714285714285715
40
0.10000000000000001
40
0.1142857142857143
40
0.12857142857142859
40
0.14285714285714288
40
0.15714285714285717
40
0.17142857142857146
40
0.18571428571428575
40
0.20000000000000004
40
0.21428571428571433
40
0.22857142857142862
40
0.24285714285714291
40
0.25714285714285717
40
0.27142857142857146
40
0.28571428571428575
40
0.30000000000000004
40
0.31428571428571433
40
0.32857142857142863
40
0.34285714285714292
40
0.35714285714285721
40
0.3714285714285715
40
0.38571428571428579
40
0.40000000000000008
40
0.41428571428571437
40
0.42857142857142866
40
0.44285714285714295
40
0.45714285714285724
40
0.47142857142857153
40
0.48571428571428582
40
0.50000000000000011
40
0.51428571428571435
40
0.52857142857142858
40
0.54285714285714282
40
0.55714285714285705
40
0.57142857142857129
40
0.58571428571428552
40
0.59999999999999976
40
0.61428571428571399
40
0.62857142857142823
40
0.64285714285714246
40
0.6571428571428567
40
0.67142857142857093
40
0.68571428571428517
40
0.6999999999999994
40
0.71428571428571364
40
0.72857142857142787
40
0.74285714285714211
40
0.75714285714285634
40
0.77142857142857058
40
0.78571428571428481
40
0.79999999999999905
40
0.81428571428571328
40
0.82857142857142752
40
0.84285714285714175
40
0.85714285714285599
40
0.87142857142857022
40
0.88571428571428445
40
0.89999999999999869
40
0.91428571428571292
40
0.92857142857142716
40
0.94285714285714139
40
0.95714285714285563
40
0.97142857142856986
40
0.9857142857142841
40
1
40
1
40
1
40
1
40
1
40
1
41
1
41
1
41
1
41
1
41
1
41
1
41
1
41
1
41
1
41
1
41
1
41
1
41
1
41
1
41
1
41
1
41
1
41
1
41
1
41
1
41
1
41
1
41
1
41
1
41
1
41
1
41
1
41
1
41
1
41
1
41
1
41
1
41
1
41
1
41
1
41
1
41
1
41
1
41
1
41
1
41
1
41
1
41
1
41
1
41
1
41
1
41
1
41
1
41
1
41
1
41
1
41
1
41
1
41
1
41
1
41
1
41
1
41
1
41
1
41
1
41
1
41
1
41
1
41
1
41
1
41
1
41
1
41
1
41
1
41
1
41
1
41
1
41
1
41
1
41
1
10
-174.99127390154783
20
67.428713093344911
30
0
10
-174.99729289633945
20
67.421460209576438
30
-8.8817841970012523e-15
10
-175.00951264941182
20
67.407123096233136
30
-8.8817841970012523e-15
10
-175.02838756371875
20
67.386123383281983
30
-8.8817841970012523e-15
10
-175.05459205858531
20
67.359085860797649
30
-8.8817841970012523e-15
10
-175.08877192887724
20
67.326603546674477
30
-8.8817841970012523e-15
10
-175.12398655339859
20
67.295068449269735
30
-8.8817841970012523e-15
10
-175.1598501582171
20
67.264118056558672
30
-8.8817841970012523e-15
10
-175.19607408257056
20
67.233483617847611
30
-8.8817841970012523e-15
10
-175.23254408531079
20
67.203063658296401
30
0
10
-175.2692630369138
20
67.172868726019516
30
0
10
-175.30630485954649
20
67.142976886842135
30
0
10
-175.34376615627255
20
67.113487037046482
30
0
10
-175.38171446999047
20
67.084468922204735
30
0
10
-175.42015138198761
20
67.055927552686043
30
0
10
-175.45903857030422
20
67.027828646801026
30
0
10
-175.49831486318513
20
67.000115350213576
30
0
10
-175.53791572872908
20
66.972727305277886
30
0
10
-175.57779418888924
20
66.94562112638711
30
0
10
-175.61793318542257
20
66.918782511278522
30
0
10
-175.65833384033766
20
66.892214784823324
30
0
10
-175.69900809918582
20
66.865931727304698
30
0
10
-175.73997018447602
20
66.839949238662754
30
0
10
-175.78122728249073
20
66.814276254880568
30
0
10
-175.82277485227945
20
66.788910176991493
30
0
10
-175.86460164895442
20
66.763841785179366
30
0
10
-175.90669272947474
20
66.739058182825602
30
0
10
-175.94903301155318
20
66.714546280141093
30
0
10
-175.99161118847493
20
66.690296625896551
30
0
10
-176.03442141192312
20
66.666305056993295
30
0
10
-176.07746110757373
20
66.642570567606725
30
0
10
-176.12072965389328
20
66.619094021942672
30
0
10
-176.16422682600285
20
66.5958766370143
30
0
10
-176.20795106916978
20
66.572918298980341
30
0
10
-176.25189881016908
20
66.550216892722858
30
0
10
-176.29606537357546
20
66.527769198553244
30
0
10
-176.34044552327327
20
66.505571422622623
30
0
10
-176.38503410551849
20
66.483619826413928
30
0
10
-176.42982676204528
20
66.461911424052559
30
0
10
-176.47482019656132
20
66.440444244385532
30
0
10
-176.5200117741368
20
66.419216942874243
30
8.8817841970012523e-15
10
-176.56539927629055
20
66.398228565001673
30
8.8817841970012523e-15
10
-176.61098061296235
20
66.377478267222571
30
0
10
-176.6567535015127
20
66.356965005994994
30
0
10
-176.70271533800735
20
66.336687412320344
30
0
10
-176.74886336736898
20
66.316643955156806
30
0
10
-176.79519478282009
20
66.296833035859351
30
0
10
-176.84170684398251
20
66.277253101049808
30
0
10
-176.8883970061448
20
66.257902764328605
30
0
10
-176.9352629722728
20
66.23878085837012
30
0
10
-176.98230261060476
20
66.21988636506893
30
0
10
-177.02951390078755
20
66.201218371558056
30
0
10
-177.07689487201998
20
66.182776017636854
30
0
10
-177.12444353235665
20
66.164558437249795
30
0
10
-177.17215783765226
20
66.146564727835553
30
-8.8817841970012523e-15
10
-177.220035743929
20
66.128793980609714
30
-8.8817841970012523e-15
10
-177.26807524216454
20
66.111245296561179
30
-8.8817841970012523e-15
10
-177.31627439564738
20
66.093917805731394
30
0
10
-177.36463138300337
20
66.076810685434282
30
0
10
-177.41314451256306
20
66.059923171056553
30
0
10
-177.46181215979414
20
66.043254546130925
30
0
10
-177.51063271641743
20
66.026804134919985
30
0
10
-177.55960453793531
20
66.010571292824594
30
0
10
-177.60872588092042
20
65.994555395299571
30
0
10
-177.6579948731395
20
65.978755828422578
30
0
10
-177.7074096249159
20
65.963171991367659
30
0
10
-177.7569683196123
20
65.947803295499995
30
0
10
-177.80666930939913
20
65.932649163905722
30
0
10
-177.85651121229589
20
65.917709027612062
30
0
10
-177.90649299518464
20
65.902982326115904
30
0
10
-177.95661392523112
20
65.888468552514539
30
0
10
-177.99682161117178
20
65.877027545359283
30
0
10
-178.02703966841165
20
65.868542296050492
30
0
10
-178.04721271640284
20
65.862927896210124
30
0
10
-178.05730615952228
20
65.860131304548361
30
0
0
LINE
5
235
100
AcDbEntity
8
0
100
AcDbLine
10
-174.99127390154783
20
67.428713093344911
30
0
11
-174.81732925324292
21
67.638316251344449
31
0
0
ARC
5
236
100
AcDbEntity
8
0
100
AcDbCircle
10
-174.04780116050514
20
66.999703289929357
30
0
40
0.99999999999999922
210
0
220
-0
230
1
100
AcDbArc
50
53.444934426617479
51
140.31153088772359
0
ARC
5
237
100
AcDbEntity
8
0
100
AcDbCircle
10
-162.99998891915098
20
81.899994069635085
30
0
40
17.549199999999953
210
-1.2671220988971777e-30
220
9.3950696952526708e-31
230
1
100
AcDbArc
50
233.44493442661764
51
234.55506637139553
0
ARC
5
238
100
AcDbEntity
8
0
100
AcDbCircle
10
-173.75704561616772
20
66.788457024808523
30
-8.8817841970012523e-15
40
1.0000000000000151
210
-1.6866554152936283e-30
220
-2.6668366944075344e-30
230
1
100
AcDbArc
50
-32.311530089709926
51
54.555066371405388
0
LINE
5
239
100
AcDbEntity
8
0
100
AcDbLine
10
-172.91189133207359
20
66.253934587414719
30
-8.8817841970012523e-15
11
-173.05748392571212
21
66.023732456245341
31
8.8817841970012523e-15
0
SPLINE
5
240
100
AcDbEntity
8
0
100
AcDbSpline
70
4
71
5
72
81
73
75
74
0
42
0.000000001
43
0.0000000001
44
0.0000000001
40
0
40
0
40
0
40
0
40
0
40
0
40
0.014285714285714285
40
0.028571428571428571
40
0.042857142857142858
40
0.057142857142857141
40
0.071428571428571425
40
0.085714285714285715
40
0.10000000000000001
40
0.1142857142857143
40
0.12857142857142859
40
0.14285714285714288
40
0.15714285714285717
40
0.17142857142857146
40
0.18571428571428575
40
0.20000000000000004
40
0.21428571428571433
40
0.22857142857142862
40
0.24285714285714291
40
0.25714285714285717
40
0.27142857142857146
40
0.28571428571428575
40
0.30000000000000004
40
0.31428571428571433
40
0.32857142857142863
40
0.34285714285714292
40
0.35714285714285721
40
0.3714285714285715
40
0.38571428571428579
40
0.40000000000000008
40
0.41428571428571437
40
0.42857142857142866
40
0.44285714285714295
40
0.45714285714285724
40
0.47142857142857153
40
0.48571428571428582
40
0.50000000000000011
40
0.51428571428571435
40
0.52857142857142858
40
0.54285714285714282
40
0.55714285714285705
40
0.57142857142857129
40
0.58571428571428552
40
0.59999999999999976
40
0.61428571428571399
40
0.62857142857142823
40
0.64285714285714246
40
0.6571428571428567
40
0.67142857142857093
40
0.68571428571428517
40
0.6999999999999994
40
0.71428571428571364
40
0.72857142857142787
40
0.74285714285714211
40
0.75714285714285634
40
0.77142857142857058
40
0.78571428571428481
40
0.79999999999999905
40
0.81428571428571328
40
0.82857142857142752
40
0.84285714285714175
40
0.85714285714285599
40
0.87142857142857022
40
0.88571428571428445
40
0.89999999999999869
40
0.91428571428571292
40
0.92857142857142716
40
0.94285714285714139
40
0.95714285714285563
40
0.97142857142856986
40
0.9857142857142841
40
1
40
1
40
1
40
1
40
1
40
1
41
1
41
1
41
1
41
1
41
1
41
1
41
1
41
1
41
1
41
1
41
1
41
1
41
1
41
1
41
1
41
1
41
1
41
1
41
1
41
1
41
1
41
1
41
1
41
1
41
1
41
1
41
1
41
1
41
1
41
1
41
1
41
1
41
1
41
1
41
1
41
1
41
1
41
1
41
1
41
1
41
1
41
1
41
1
41
1
41
1
41
1
41
1
41
1
41
1
41
1
41
1
41
1
41
1
41
1
41
1
41
1
41
1
41
1
41
1
41
1
41
1
41
1
41
1
41
1
41
1
41
1
41
1
41
1
41
1
41
1
41
1
41
1
41
1
41
1
41
1
10
-173.05748392571212
20
66.023732456245341
30
0
10
-173.06252185629145
20
66.015766787614382
30
0
10
-173.07238114977142
20
65.999714700016696
30
0
10
-173.08652039398535
20
65.975274321394764
30
0
10
-173.10413697122229
20
65.941997311616845
30
0
10
-173.12446732635516
20
65.899452735885774
30
0
10
-173.14357706820417
20
65.856216756482368
30
0
10
-173.16193017689716
20
65.812544243835958
30
0
10
-173.1798714506165
20
65.768626682109073
30
8.8817841970012523e-15
10
-173.19753270012743
20
65.724541363638139
30
8.8817841970012523e-15
10
-173.21490300655117
20
65.680288817985129
30
8.8817841970012523e-15
10
-173.23188528166946
20
65.635822864659417
30
8.8817841970012523e-15
10
-173.24835561753932
20
65.591082189321369
30
8.8817841970012523e-15
10
-173.26422681027589
20
65.546024107425652
30
8.8817841970012523e-15
10
-173.27949360609023
20
65.500648663367883
30
-8.8817841970012523e-15
10
-173.29420045094363
20
65.454981709872328
30
-8.8817841970012523e-15
10
-173.30842031963533
20
65.409063855778285
30
-8.8817841970012523e-15
10
-173.32223055715252
20
65.362937823031615
30
-8.8817841970012523e-15
10
-173.33568694267453
20
65.316634883519228
30
-8.8817841970012523e-15
10
-173.34880834974877
20
65.270166840951845
30
-8.8817841970012523e-15
10
-173.36159126951497
20
65.223533655677628
30
0
10
-173.37401890476661
20
65.17672822514416
30
0
10
-173.386071738765
20
65.129741936293499
30
0
10
-173.39773905220159
20
65.082570715935645
30
0
10
-173.4090247200717
20
65.035218079646327
30
0
10
-173.41994098580287
20
64.987691872869178
30
0
10
-173.43050473246208
20
64.940002322006208
30
0
10
-173.44073306986175
20
64.892159726197264
30
-8.8817841970012523e-15
10
-173.45063848062225
20
64.844171918176613
30
-8.8817841970012523e-15
10
-173.460226731315
20
64.796043173555816
30
-8.8817841970012523e-15
10
-173.46949957404604
20
64.747775629845549
30
-8.8817841970012523e-15
10
-173.47845637897106
20
64.699370145213535
30
-8.8817841970012523e-15
10
-173.48709605813332
20
64.650827309610193
30
0
10
-173.49541920024109
20
64.602148566495174
30
0
10
-173.5034289210783
20
64.553336660599982
30
0
10
-173.51112972753671
20
64.504395043579791
30
0
10
-173.51852684582985
20
64.455327522912626
30
0
10
-173.52562542409328
20
64.406137844834944
30
0
10
-173.53242964884063
20
64.356829231617795
30
0
10
-173.5389424133603
20
64.307404209101705
30
0
10
-173.54516581062256
20
64.25786486776849
30
-8.8817841970012523e-15
10
-173.55110143397542
20
64.208213022557146
30
-8.8817841970012523e-15
10
-173.55675073154231
20
64.158450400563197
30
-8.8817841970012523e-15
10
-173.56211540116502
20
64.10857885023367
30
-8.8817841970012523e-15
10
-173.56719754949839
20
64.058600425013225
30
0
10
-173.57199948401569
20
64.008517272018253
30
0
10
-173.57652359246046
20
63.958331566644155
30
0
10
-173.58077219900676
20
63.908045435125267
30
0
10
-173.58474740855794
20
63.857660869204864
30
0
10
-173.5884510411293
20
63.807179692768756
30
0
10
-173.59188472374723
20
63.756603618630969
30
0
10
-173.59504994892333
20
63.705934286170091
30
0
10
-173.59794814376809
20
63.655173303912846
30
0
10
-173.60058074749432
20
63.604322298685865
30
-8.8817841970012523e-15
10
-173.60294925016444
20
63.553382935680141
30
-8.8817841970012523e-15
10
-173.60505514770767
20
63.502356878004221
30
-8.8817841970012523e-15
10
-173.60689991595655
20
63.451245758542157
30
-8.8817841970012523e-15
10
-173.60848498076757
20
63.400051150383987
30
0
10
-173.60981168739721
20
63.348774531535604
30
0
10
-173.61088128579064
20
63.297417274591609
30
0
10
-173.61169495935678
20
63.245980703173579
30
0
10
-173.61225384774571
20
63.19446613803138
30
0
10
-173.61255907218543
20
63.14287494398323
30
0
10
-173.61261176540242
20
63.091208586131941
30
0
10
-173.61241308982335
20
63.039468655364708
30
0
10
-173.61196420080995
20
62.987656763205358
30
-8.8817841970012523e-15
10
-173.61126621955904
20
62.935774455480498
30
-8.8817841970012523e-15
10
-173.61032020395558
20
62.883823121092981
30
-8.8817841970012523e-15
10
-173.60912712218041
20
62.831803898562065
30
-8.8817841970012523e-15
10
-173.60768782655458
20
62.779717597236306
30
0
10
-173.60600302562958
20
62.727564757440973
30
0
10
-173.6044592111956
20
62.68578951009971
30
0
10
-173.60319126918222
20
62.654428343631707
30
0
10
-173.60229706578647
20
62.633507689934703
30
0
10
-173.60183773690841
20
62.623044060740682
30
0
0
ARC
5
241
100
AcDbEntity
8
0
100
AcDbCircle
10
-162.99998891915098
20
81.899994069635085
30
0
40
21.999999999999979
210
8.7271873997147832e-32
220
-4.7997386190929014e-32
230
1
100
AcDbArc
50
241.19028719973196
51
244.80971359828172
0
SPLINE
5
242
100
AcDbEntity
8
0
100
AcDbSpline
70
4
71
5
72
81
73
75
74
0
42
0.000000001
43
0.0000000001
44
0.0000000001
40
0
40
0
40
0
40
0
40
0
40
0
40
0.014285714285714285
40
0.028571428571428571
40
0.042857142857142858
40
0.057142857142857141
40
0.071428571428571425
40
0.085714285714285715
40
0.10000000000000001
40
0.1142857142857143
40
0.12857142857142859
40
0.14285714285714288
40
0.15714285714285717
40
0.17142857142857146
40
0.18571428571428575
40
0.20000000000000004
40
0.21428571428571433
40
0.22857142857142862
40
0.24285714285714291
40
0.25714285714285717
40
0.27142857142857146
40
0.28571428571428575
40
0.30000000000000004
40
0.31428571428571433
40
0.32857142857142863
40
0.34285714285714292
40
0.35714285714285721
40
0.3714285714285715
40
0.38571428571428579
40
0.40000000000000008
40
0.41428571428571437
40
0.42857142857142866
40
0.44285714285714295
40
0.45714285714285724
40
0.47142857142857153
40
0.48571428571428582
40
0.50000000000000011
40
0.51428571428571435
40
0.52857142857142858
40
0.54285714285714282
40
0.55714285714285705
40
0.57142857142857129
40
0.58571428571428552
40
0.59999999999999976
40
0.61428571428571399
40
0.62857142857142823
40
0.64285714285714246
40
0.6571428571428567
40
0.67142857142857093
40
0.68571428571428517
40
0.6999999999999994
40
0.71428571428571364
40
0.72857142857142787
40
0.74285714285714211
40
0.75714285714285634
40
0.77142857142857058
40
0.78571428571428481
40
0.79999999999999905
40
0.81428571428571328
40
0.82857142857142752
40
0.84285714285714175
40
0.85714285714285599
40
0.87142857142857022
40
0.88571428571428445
40
0.89999999999999869
40
0.91428571428571292
40
0.92857142857142716
40
0.94285714285714139
40
0.95714285714285563
40
0.97142857142856986
40
0.9857142857142841
40
1
40
1
40
1
40
1
40
1
40
1
41
1
41
1
41
1
41
1
41
1
41
1
41
1
41
1
41
1
41
1
41
1
41
1
41
1
41
1
41
1
41
1
41
1
41
1
41
1
41
1
41
1
41
1
41
1
41
1
41
1
41
1
41
1
41
1
41
1
41
1
41
1
41
1
41
1
41
1
41
1
41
1
41
1
41
1
41
1
41
1
41
1
41
1
41
1
41
1
41
1
41
1
41
1
41
1
41
1
41
1
41
1
41
1
41
1
41
1
41
1
41
1
41
1
41
1
41
1
41
1
41
1
41
1
41
1
41
1
41
1
41
1
41
1
41
1
41
1
41
1
41
1
41
1
41
1
41
1
41
1
10
-169.93250688836315
20
64.431477154042497
30
8.8817841970012523e-15
10
-169.93599002823862
20
64.42271927999289
30
8.8817841970012523e-15
10
-169.94318129235225
20
64.405307763556465
30
8.8817841970012523e-15
10
-169.95464313441946
20
64.379503180425729
30
0
10
-169.9712100360851
20
64.345691334239731
30
0
10
-169.99367943737161
20
64.304236656942834
30
0
10
-170.01742565447421
20
64.263363079636406
30
0
10
-170.04196977220437
20
64.222845043598198
30
-8.8817841970012523e-15
10
-170.0669542093317
20
64.18251615281082
30
-8.8817841970012523e-15
10
-170.0922389586176
20
64.142315201422562
30
-8.8817841970012523e-15
10
-170.11783000959355
20
64.102251334260615
30
-8.8817841970012523e-15
10
-170.1438217900849
20
64.062375953130783
30
-8.8817841970012523e-15
10
-170.17033673569668
20
64.022753261998389
30
0
10
-170.1974606361097
20
63.983428720940829
30
0
10
-170.2251965435068
20
63.94440660645769
30
0
10
-170.25349741791391
20
63.905666156861685
30
0
10
-170.28228751257853
20
63.867172203577915
30
0
10
-170.31148680247722
20
63.828887284528207
30
0
10
-170.34103720194253
20
63.790784654563282
30
0
10
-170.37091806797912
20
63.75285598270996
30
0
10
-170.40113149512217
20
63.715104084388933
30
0
10
-170.43169310260771
20
63.67753837405003
30
0
10
-170.46262133019749
20
63.640169578437813
30
0
10
-170.49392577382281
20
63.603003975493884
30
-8.8817841970012523e-15
10
-170.52560131165822
20
63.566040496684941
30
-8.8817841970012523e-15
10
-170.55763440010014
20
63.529273848306147
30
0
10
-170.59000684219768
20
63.49269638259797
30
0
10
-170.62270024887624
20
63.456300311114191
30
0
10
-170.65570094622035
20
63.420080139168689
30
0
10
-170.68900208568198
20
63.384033714648631
30
0
10
-170.72260090811653
20
63.348160876467844
30
0
10
-170.756497089465
20
63.312462638599285
30
0
10
-170.79069079193238
20
63.276940227982728
30
0
10
-170.82518050170131
20
63.241594016787445
30
0
10
-170.85996216682537
20
63.206423097604031
30
0
10
-170.89503034577245
20
63.17142585311251
30
0
10
-170.93037888633677
20
63.136600293196913
30
0
10
-170.96600173175131
20
63.101944454910708
30
0
10
-171.00189381437289
20
63.06745684529659
30
8.8817841970012523e-15
10
-171.03805139012144
20
63.033136608287023
30
8.8817841970012523e-15
10
-171.07447153754458
20
62.998983279387915
30
8.8817841970012523e-15
10
-171.11115185177931
20
62.964996636348005
30
0
10
-171.14809008439036
20
62.931176522772191
30
0
10
-171.18528374198644
20
62.897522651567563
30
0
10
-171.22272992503508
20
62.864034525398978
30
0
10
-171.26042554018409
20
62.830711539524849
30
0
10
-171.29836742402094
20
62.797553040885361
30
0
10
-171.33655249027086
20
62.764558398953518
30
0
10
-171.37497789034842
20
62.731727081544065
30
0
10
-171.41364107892093
20
62.699058688286897
30
0
10
-171.45253971395053
20
62.666552909656879
30
0
10
-171.49167159187584
20
62.634209501789357
30
0
10
-171.5310345725369
20
62.602028255595982
30
8.8817841970012523e-15
10
-171.5706264938552
20
62.570008962953942
30
8.8817841970012523e-15
10
-171.61044513282627
20
62.538151397152049
30
0
10
-171.6504882646818
20
62.506455325508881
30
0
10
-171.69075370091832
20
62.474920513836096
30
0
10
-171.73123933078188
20
62.443546733230676
30
0
10
-171.77194316781851
20
62.412333764107302
30
0
10
-171.81286336687668
20
62.381281402030062
30
0
10
-171.85399816153361
20
62.350389467606242
30
-8.8817841970012523e-15
10
-171.89534581341078
20
62.319657815156887
30
-8.8817841970012523e-15
10
-171.93690455930567
20
62.289086339809572
30
-8.8817841970012523e-15
10
-171.97867254812547
20
62.258674986335151
30
-8.8817841970012523e-15
10
-172.02064780955794
20
62.228423749410723
30
-8.8817841970012523e-15
10
-172.06282836074848
20
62.198332641559034
30
0
10
-172.1052122920741
20
62.168401664326922
30
0
10
-172.14779785807957
20
62.138630778243986
30
0
10
-172.190583568601
20
62.109019869240484
30
0
10
-172.23356826788006
20
62.07956872349726
30
0
10
-172.27675110230817
20
62.050277085379406
30
0
10
-172.31145541838345
20
62.026971182711257
30
0
10
-172.33757241239323
20
62.009563337839637
30
0
10
-172.35502317617491
20
61.997989911628736
30
0
10
-172.36375841667569
20
61.99221114944973
30
0
0
LINE
5
243
100
AcDbEntity
8
0
100
AcDbLine
10
-169.93250688836315
20
64.431477154042497
30
8.8817841970012523e-15
11
-169.83184663501461
21
64.684573455700786
31
8.8817841970012523e-15
0
ARC
5
244
100
AcDbEntity
8
0
100
AcDbCircle
10
-168.90263967003881
20
64.315013695661335
30
0
40
1.0000000000000093
210
7.4785454553870804e-31
220
-2.5102809903117927e-31
230
1
100
AcDbArc
50
71.444934426617678
51
158.31153088772368
0
ARC
5
245
100
AcDbEntity
8
0
100
AcDbCircle
10
-162.99998891915098
20
81.899994069635085
30
0
40
17.54919999999996
210
8.0567064418089744e-31
220
-2.704349013594039e-31
230
1
100
AcDbArc
50
251.44493442661769
51
252.55506637139555
0
ARC
5
246
100
AcDbEntity
8
0
100
AcDbCircle
10
-168.5608360290272
20
64.203954963084158
30
-8.8817841970012523e-15
40
1.0000000000000007
210
-3.9000338183243179e-31
220
-1.5287588015457913e-30
230
1
100
AcDbArc
50
-14.311530089710084
51
72.555066371403683
0
LINE
5
247
100
AcDbEntity
8
0
100
AcDbLine
10
-167.59187002283537
20
63.956760952548699
30
-8.8817841970012523e-15
11
-167.65920043706686
21
63.692835129945607
31
-4.9303806576313238e-31
0
SPLINE
5
248
100
AcDbEntity
8
0
100
AcDbSpline
70
4
71
5
72
81
73
75
74
0
42
0.000000001
43
0.0000000001
44
0.0000000001
40
0
40
0
40
0
40
0
40
0
40
0
40
0.014285714285714285
40
0.028571428571428571
40
0.042857142857142858
40
0.057142857142857141
40
0.071428571428571425
40
0.085714285714285715
40
0.10000000000000001
40
0.1142857142857143
40
0.12857142857142859
40
0.14285714285714288
40
0.15714285714285717
40
0.17142857142857146
40
0.18571428571428575
40
0.20000000000000004
40
0.21428571428571433
40
0.22857142857142862
40
0.24285714285714291
40
0.25714285714285717
40
0.27142857142857146
40
0.28571428571428575
40
0.30000000000000004
40
0.31428571428571433
40
0.32857142857142863
40
0.34285714285714292
40
0.35714285714285721
40
0.3714285714285715
40
0.38571428571428579
40
0.40000000000000008
40
0.41428571428571437
40
0.42857142857142866
40
0.44285714285714295
40
0.45714285714285724
40
0.47142857142857153
40
0.48571428571428582
40
0.50000000000000011
40
0.51428571428571435
40
0.52857142857142858
40
0.54285714285714282
40
0.55714285714285705
40
0.57142857142857129
40
0.58571428571428552
40
0.59999999999999976
40
0.61428571428571399
40
0.62857142857142823
40
0.64285714285714246
40
0.6571428571428567
40
0.67142857142857093
40
0.68571428571428517
40
0.6999999999999994
40
0.71428571428571364
40
0.72857142857142787
40
0.74285714285714211
40
0.75714285714285634
40
0.77142857142857058
40
0.78571428571428481
40
0.79999999999999905
40
0.81428571428571328
40
0.82857142857142752
40
0.84285714285714175
40
0.85714285714285599
40
0.87142857142857022
40
0.88571428571428445
40
0.89999999999999869
40
0.91428571428571292
40
0.92857142857142716
40
0.94285714285714139
40
0.95714285714285563
40
0.97142857142856986
40
0.9857142857142841
40
1
40
1
40
1
40
1
40
1
40
1
41
1
41
1
41
1
41
1
41
1
41
1
41
1
41
1
41
1
41
1
41
1
41
1
41
1
41
1
41
1
41
1
41
1
41
1
41
1
41
1
41
1
41
1
41
1
41
1
41
1
41
1
41
1
41
1
41
1
41
1
41
1
41
1
41
1
41
1
41
1
41
1
41
1
41
1
41
1
41
1
41
1
41
1
41
1
41
1
41
1
41
1
41
1
41
1
41
1
41
1
41
1
41
1
41
1
41
1
41
1
41
1
41
1
41
1
41
1
41
1
41
1
41
1
41
1
41
1
41
1
41
1
41
1
41
1
41
1
41
1
41
1
41
1
41
1
41
1
41
1
10
-167.65920043706686
20
63.692835129945607
30
8.8817841970012523e-15
10
-167.66153026679444
20
63.683702522721994
30
8.8817841970012523e-15
10
-167.66594664424179
20
63.665389390974212
30
8.8817841970012523e-15
10
-167.67184137224376
20
63.6377759428754
30
8.8817841970012523e-15
10
-167.67831257127642
20
63.600683804134363
30
0
10
-167.68450089108478
20
63.553939082914567
30
0
10
-167.68931468319084
20
63.506913987975089
30
0
10
-167.69327397821283
20
63.459707537753999
30
0
10
-167.6967658705691
20
63.412395296013841
30
0
10
-167.69993960439248
20
63.365010040368333
30
0
10
-167.70278495885566
20
63.317555648579962
30
0
10
-167.70519532701968
20
63.27001820230155
30
0
10
-167.70703391825504
20
63.222377677791009
30
0
10
-167.70820460648881
20
63.174620427115741
30
0
10
-167.70870240878986
20
63.126748116008507
30
0
10
-167.70857758471033
20
63.078771597313903
30
8.8817841970012523e-15
10
-167.70791208623018
20
63.030706941879949
30
8.8817841970012523e-15
10
-167.70679267461063
20
62.982570879776212
30
0
10
-167.70528206254829
20
62.934375915620166
30
0
10
-167.70340184740053
20
62.886127443160944
30
0
10
-167.7011486797899
20
62.837826508984804
30
0
10
-167.69850438981425
20
62.789471548785293
30
0
10
-167.69544775437078
20
62.741060402061464
30
0
10
-167.69196732010636
20
62.692592507427918
30
0
10
-167.68806785873306
20
62.64407001095649
30
0
10
-167.68376343881798
20
62.595496590680249
30
0
10
-167.67907327724399
20
62.54687675533085
30
0
10
-167.67401682901877
20
62.498215012749576
30
0
10
-167.66860838626795
20
62.449514954967569
30
0
10
-167.6628547545634
20
62.400778866364462
30
8.8817841970012523e-15
10
-167.65675826078416
20
62.352008238403201
30
0
10
-167.65031857110102
20
62.303204081882356
30
0
10
-167.64353483311044
20
62.254367294075273
30
0
10
-167.63640805276069
20
62.205499065872786
30
0
10
-167.62894204150717
20
62.156601044839483
30
0
10
-167.62114215227879
20
62.10767512098834
30
0
10
-167.61301453207528
20
62.058723300457416
30
0
10
-167.6045652347153
20
62.009747555267893
30
0
10
-167.59579923754643
20
61.960749656277756
30
0
10
-167.58672007277713
20
61.911731111628853
30
0
10
-167.57733037693481
20
61.862693262724136
30
0
10
-167.56763222623044
20
61.813637343301558
30
0
10
-167.55762753161315
20
61.764564548431842
30
8.8817841970012523e-15
10
-167.54731847902789
20
61.715476111430604
30
0
10
-167.53670770657195
20
61.666373334247567
30
0
10
-167.52579807227812
20
61.617257545863382
30
0
10
-167.51459251925965
20
61.568130077348627
30
0
10
-167.50309391497996
20
61.518992232663109
30
0
10
-167.49130487680364
20
61.469845255616285
30
0
10
-167.47922769927982
20
61.420690318411005
30
0
10
-167.46686445909114
20
61.371528547251415
30
0
10
-167.45421708229634
20
61.322361040067733
30
0
10
-167.4412874232203
20
61.273188885658385
30
0
10
-167.42807735335276
20
61.22401318648626
30
0
10
-167.41458880439961
20
61.174835065787448
30
0
10
-167.40082371300298
20
61.12565564300462
30
0
10
-167.38678398735181
20
61.076476015045515
30
-8.8817841970012523e-15
10
-167.37247146962784
20
61.027297237393725
30
0
10
-167.35788789597493
20
60.97812030000928
30
0
10
-167.34303487931663
20
60.928946122052913
30
0
10
-167.32791395416328
20
60.8797755966701
30
0
10
-167.31252661252071
20
60.830609627797365
30
0
10
-167.29687434249206
20
60.781449166975456
30
0
10
-167.28095867410593
20
60.732295257568211
30
0
10
-167.26478120450702
20
60.683149053389663
30
0
10
-167.24834353049775
20
60.634011730063676
30
0
10
-167.23164719608639
20
60.584884411289806
30
0
10
-167.21469363657607
20
60.535768091088713
30
0
10
-167.19748412458307
20
60.486663553072304
30
0
10
-167.18001972081549
20
60.437571303595021
30
-8.8817841970012523e-15
10
-167.16230126611543
20
60.388491637582348
30
-8.8817841970012523e-15
10
-167.14792374996534
20
60.349238081274869
30
-8.8817841970012523e-15
10
-167.13702673204921
20
60.319803655176891
30
0
10
-167.129711456557
20
60.30018325519891
30
0
10
-167.12604116959059
20
60.290373692899159
30
0
0
ARC
5
249
100
AcDbEntity
8
0
100
AcDbCircle
10
-162.99998891915098
20
81.899994069635085
30
0
40
21.999999999999964
210
-7.2676195283099902e-31
220
-1.3958210440516118e-31
230
1
100
AcDbArc
50
259.19028719973193
51
262.80971359828158
0
SPLINE
5
250
100
AcDbEntity
8
0
100
AcDbSpline
70
4
71
5
72
81
73
75
74
0
42
0.000000001
43
0.0000000001
44
0.0000000001
40
0
40
0
40
0
40
0
40
0
40
0
40
0.014285714285714285
40
0.028571428571428571
40
0.042857142857142858
40
0.057142857142857141
40
0.071428571428571425
40
0.085714285714285715
40
0.10000000000000001
40
0.1142857142857143
40
0.12857142857142859
40
0.14285714285714288
40
0.15714285714285717
40
0.17142857142857146
40
0.18571428571428575
40
0.20000000000000004
40
0.21428571428571433
40
0.22857142857142862
40
0.24285714285714291
40
0.25714285714285717
40
0.27142857142857146
40
0.28571428571428575
40
0.30000000000000004
40
0.31428571428571433
40
0.32857142857142863
40
0.34285714285714292
40
0.35714285714285721
40
0.3714285714285715
40
0.38571428571428579
40
0.40000000000000008
40
0.41428571428571437
40
0.42857142857142866
40
0.44285714285714295
40
0.45714285714285724
40
0.47142857142857153
40
0.48571428571428582
40
0.50000000000000011
40
0.51428571428571435
40
0.52857142857142858
40
0.54285714285714282
40
0.55714285714285705
40
0.57142857142857129
40
0.58571428571428552
40
0.59999999999999976
40
0.61428571428571399
40
0.62857142857142823
40
0.64285714285714246
40
0.6571428571428567
40
0.67142857142857093
40
0.68571428571428517
40
0.6999999999999994
40
0.71428571428571364
40
0.72857142857142787
40
0.74285714285714211
40
0.75714285714285634
40
0.77142857142857058
40
0.78571428571428481
40
0.79999999999999905
40
0.81428571428571328
40
0.82857142857142752
40
0.84285714285714175
40
0.85714285714285599
40
0.87142857142857022
40
0.88571428571428445
40
0.89999999999999869
40
0.91428571428571292
40
0.92857142857142716
40
0.94285714285714139
40
0.95714285714285563
40
0.97142857142856986
40
0.9857142857142841
40
1
40
1
40
1
40
1
40
1
40
1
41
1
41
1
41
1
41
1
41
1
41
1
41
1
41
1
41
1
41
1
41
1
41
1
41
1
41
1
41
1
41
1
41
1
41
1
41
1
41
1
41
1
41
1
41
1
41
1
41
1
41
1
41
1
41
1
41
1
41
1
41
1
41
1
41
1
41
1
41
1
41
1
41
1
41
1
41
1
41
1
41
1
41
1
41
1
41
1
41
1
41
1
41
1
41
1
41
1
41
1
41
1
41
1
41
1
41
1
41
1
41
1
41
1
41
1
41
1
41
1
41
1
41
1
41
1
41
1
41
1
41
1
41
1
41
1
41
1
41
1
41
1
41
1
41
1
41
1
41
1
10
-164.19513671465916
20
63.14418136075237
30
0
10
-164.19574304561891
20
63.134775778153312
30
0
10
-164.19720188973787
20
63.1159942191657
30
0
10
-164.20012869460447
20
63.087910698243334
30
0
10
-164.20543631930576
20
63.050634267441353
30
0
10
-164.21399579003551
20
63.004265099616248
30
8.8817841970012523e-15
10
-164.2239491545397
20
62.958054032937874
30
0
10
-164.2347712359292
20
62.911934541245671
30
0
10
-164.24607053504752
20
62.86585887120016
30
0
10
-164.25769498344974
20
62.819812077193248
30
0
10
-164.26965310342581
20
62.773801005605392
30
0
10
-164.28205058520589
20
62.72784536265624
30
0
10
-164.29502371208645
20
62.681968375262628
30
0
10
-164.30866812283881
20
62.636186768058181
30
0
10
-164.32298804177242
20
62.590503665059245
30
0
10
-164.33793231549927
20
62.544913856879319
30
0
10
-164.35341803688945
20
62.499407303249789
30
0
10
-164.36935752120417
20
62.453973104709362
30
0
10
-164.38568726098524
20
62.408603774567872
30
8.8817841970012523e-15
10
-164.4023850491651
20
62.363297768635427
30
8.8817841970012523e-15
10
-164.41945374777802
20
62.318057117289186
30
0
10
-164.43691112082516
20
62.27288594759365
30
0
10
-164.45477802030834
20
62.227788763089428
30
0
10
-164.47306551249136
20
62.182768569147882
30
0
10
-164.49176839603368
20
62.137825932264583
30
0
10
-164.51087215435817
20
62.092960003030733
30
0
10
-164.53035711784844
20
62.048169131161842
30
0
10
-164.55020339069296
20
62.003451591941982
30
0
10
-164.57039627027402
20
61.958806385086326
30
0
10
-164.59092857819593
20
61.914233580131686
30
0
10
-164.61179764057786
20
61.869733876498572
30
8.8817841970012523e-15
10
-164.63300346255619
20
61.825308338672343
30
8.8817841970012523e-15
10
-164.65454657754233
20
61.780958083417936
30
8.8817841970012523e-15
10
-164.67642566081707
20
61.736683932484681
30
8.8817841970012523e-15
10
-164.69863657834549
20
61.692486274995197
30
0
10
-164.7211736551435
20
61.648365254312722
30
0
10
-164.7440304251362
20
61.604320878860634
30
0
10
-164.76720052141192
20
61.560353153409785
30
0
10
-164.79067866300647
20
61.51646222406125
30
0
10
-164.81446102454865
20
61.472648433630809
30
0
10
-164.83854468403553
20
61.42891224313675
30
0
10
-164.86292728562714
20
61.385254184349108
30
0
10
-164.88760664260568
20
61.341674803332005
30
8.8817841970012523e-15
10
-164.91258029489856
20
61.298174597544133
30
8.8817841970012523e-15
10
-164.93784533120152
20
61.254753989996473
30
8.8817841970012523e-15
10
-164.96339862268624
20
61.211413361444016
30
8.8817841970012523e-15
10
-164.98923695896229
20
61.168153068338178
30
0
10
-165.01535720996415
20
61.124973464723524
30
0
10
-165.04175650207196
20
61.081874924723067
30
-8.8817841970012523e-15
10
-165.06843229080917
20
61.038857854113324
30
-8.8817841970012523e-15
10
-165.09538225311701
20
60.995922682247851
30
-8.8817841970012523e-15
10
-165.1226042179257
20
60.953069858135535
30
-8.8817841970012523e-15
10
-165.15009608521027
20
60.910299844267314
30
-8.8817841970012523e-15
10
-165.17785573439841
20
60.867613110825609
30
-8.8817841970012523e-15
10
-165.20588098122965
20
60.825010129141504
30
0
10
-165.23416963792104
20
60.782491365412952
30
0
10
-165.26271955071394
20
60.740057273198389
30
0
10
-165.29152864142713
20
60.69770828705699
30
0
10
-165.32059495297503
20
60.655444811998692
30
0
10
-165.3499166673401
20
60.613267223776589
30
0
10
-165.37949204911888
20
60.571175897632742
30
0
10
-165.40931939999811
20
60.529171232206735
30
0
10
-165.43939701066509
20
60.487253672618458
30
0
10
-165.46972310355912
20
60.445423738361086
30
-8.8817841970012523e-15
10
-165.5002958031572
20
60.403682033232151
30
-8.8817841970012523e-15
10
-165.53111322752213
20
60.362029181877297
30
-8.8817841970012523e-15
10
-165.56217356097255
20
60.320465775873572
30
0
10
-165.59347513128495
20
60.278992317057771
30
0
10
-165.62501648597973
20
60.23760915742902
30
0
10
-165.65679645979156
20
60.196316450782234
30
0
10
-165.68881416189504
20
60.155114217773729
30
0
10
-165.71461800784829
20
60.122224763727623
30
0
10
-165.73407742528659
20
60.097598324436788
30
0
10
-165.74709770251314
20
60.081198759449705
30
0
10
-165.75361967419309
20
60.073003492258536
30
0
0
LINE
5
251
100
AcDbEntity
8
0
100
AcDbLine
10
-164.19513671465916
20
63.14418136075237
30
0
11
-164.17761418320595
21
63.415995976637483
31
4.9303806576313238e-31
0
ARC
5
252
100
AcDbEntity
8
0
100
AcDbCircle
10
-163.17968559788952
20
63.351664502160574
30
0
40
1.0000000000000007
210
2.9580895779067894e-31
220
-2.8658045492912444e-33
230
1
100
AcDbArc
50
89.444934426616641
51
176.31153088772353
0
ARC
5
253
100
AcDbEntity
8
0
100
AcDbCircle
10
-162.99998891915098
20
81.899994069635085
30
0
40
17.549199999999967
210
-5.9150686990076703e-31
220
5.7305332852490386e-33
230
1
100
AcDbArc
50
269.44493442661775
51
270.55506637139604
0
ARC
5
254
100
AcDbEntity
8
0
100
AcDbCircle
10
-162.82029198207195
20
63.35166450466339
30
0
40
0.99999999999998879
210
-4.8892294252981923e-31
220
-1.6125151400195097e-30
230
1
100
AcDbArc
50
3.6884699102900589
51
90.555066371394204
0
LINE
5
255
100
AcDbEntity
8
0
100
AcDbLine
10
-161.82236339765154
20
63.415995993039409
30
5.9164567891576297e-31
11
-161.80484086241248
21
63.144181377398347
31
-8.8817841970012523e-15
0
SPLINE
5
256
100
AcDbEntity
8
0
100
AcDbSpline
70
4
71
5
72
81
73
75
74
0
42
0.000000001
43
0.0000000001
44
0.0000000001
40
0
40
0
40
0
40
0
40
0
40
0
40
0.014285714285714285
40
0.028571428571428571
40
0.042857142857142858
40
0.057142857142857141
40
0.071428571428571425
40
0.085714285714285715
40
0.10000000000000001
40
0.1142857142857143
40
0.12857142857142859
40
0.14285714285714288
40
0.15714285714285717
40
0.17142857142857146
40
0.18571428571428575
40
0.20000000000000004
40
0.21428571428571433
40
0.22857142857142862
40
0.24285714285714291
40
0.25714285714285717
40
0.27142857142857146
40
0.28571428571428575
40
0.30000000000000004
40
0.31428571428571433
40
0.32857142857142863
40
0.34285714285714292
40
0.35714285714285721
40
0.3714285714285715
40
0.38571428571428579
40
0.40000000000000008
40
0.41428571428571437
40
0.42857142857142866
40
0.44285714285714295
40
0.45714285714285724
40
0.47142857142857153
40
0.48571428571428582
40
0.50000000000000011
40
0.51428571428571435
40
0.52857142857142858
40
0.54285714285714282
40
0.55714285714285705
40
0.57142857142857129
40
0.58571428571428552
40
0.59999999999999976
40
0.61428571428571399
40
0.62857142857142823
40
0.64285714285714246
40
0.6571428571428567
40
0.67142857142857093
40
0.68571428571428517
40
0.6999999999999994
40
0.71428571428571364
40
0.72857142857142787
40
0.74285714285714211
40
0.75714285714285634
40
0.77142857142857058
40
0.78571428571428481
40
0.79999999999999905
40
0.81428571428571328
40
0.82857142857142752
40
0.84285714285714175
40
0.85714285714285599
40
0.87142857142857022
40
0.88571428571428445
40
0.89999999999999869
40
0.91428571428571292
40
0.92857142857142716
40
0.94285714285714139
40
0.95714285714285563
40
0.97142857142856986
40
0.9857142857142841
40
1
40
1
40
1
40
1
40
1
40
1
41
1
41
1
41
1
41
1
41
1
41
1
41
1
41
1
41
1
41
1
41
1
41
1
41
1
41
1
41
1
41
1
41
1
41
1
41
1
41
1
41
1
41
1
41
1
41
1
41
1
41
1
41
1
41
1
41
1
41
1
41
1
41
1
41
1
41
1
41
1
41
1
41
1
41
1
41
1
41
1
41
1
41
1
41
1
41
1
41
1
41
1
41
1
41
1
41
1
41
1
41
1
41
1
41
1
41
1
41
1
41
1
41
1
41
1
41
1
41
1
41
1
41
1
41
1
41
1
41
1
41
1
41
1
41
1
41
1
41
1
41
1
41
1
41
1
41
1
41
1
10
-161.80484086241248
20
63.144181377398347
30
0
10
-161.80423453132175
20
63.134775794807744
30
0
10
-161.80277568694112
20
63.115994235840432
30
0
10
-161.79984888168337
20
63.087910714958838
30
0
10
-161.79454125646299
20
63.050634284230789
30
0
10
-161.78598178508739
20
63.004265116524891
30
0
10
-161.77602841993956
20
62.958054049985151
30
-8.8817841970012523e-15
10
-161.76520633790773
20
62.911934558443676
30
-8.8817841970012523e-15
10
-161.75390703814767
20
62.865858888555543
30
-8.8817841970012523e-15
10
-161.74228258910409
20
62.819812094710528
30
-8.8817841970012523e-15
10
-161.73032446848714
20
62.773801023289231
30
-8.8817841970012523e-15
10
-161.71792698606697
20
62.727845380512747
30
-8.8817841970012523e-15
10
-161.7049538585475
20
62.681968393299826
30
0
10
-161.69130944715749
20
62.636186786285407
30
0
10
-161.67698952758755
20
62.590503683485935
30
0
10
-161.66204525322576
20
62.544913875514148
30
0
10
-161.64655953120177
20
62.499407322100296
30
8.8817841970012523e-15
10
-161.63062004625428
20
62.453973123781886
30
8.8817841970012523e-15
10
-161.61429030584128
20
62.40860379386784
30
8.8817841970012523e-15
10
-161.59759251703042
20
62.363297788167955
30
8.8817841970012523e-15
10
-161.58052381778742
20
62.318057137059448
30
0
10
-161.56306644411114
20
62.272885967607053
30
0
10
-161.54519954399979
20
62.22778878335167
30
0
10
-161.52691205118973
20
62.182768589664839
30
0
10
-161.50820916702148
20
62.137825953042039
30
0
10
-161.48910540807208
20
62.092960024074259
30
0
10
-161.46962044395798
20
62.04816915247676
30
0
10
-161.4497741704906
20
62.003451613533301
30
0
10
-161.42958129028773
20
61.9588064069589
30
0
10
-161.40904898174506
20
61.914233602290238
30
8.8817841970012523e-15
10
-161.38817991874333
20
61.869733898947786
30
8.8817841970012523e-15
10
-161.36697409614627
20
61.825308361416916
30
8.8817841970012523e-15
10
-161.34543098054235
20
61.780958106462556
30
8.8817841970012523e-15
10
-161.323551896651
20
61.736683955834025
30
8.8817841970012523e-15
10
-161.301340978507
20
61.69248629865389
30
0
10
-161.27880390109442
20
61.648365278285333
30
0
10
-161.25594713048829
20
61.604320903151581
30
0
10
-161.2327770336002
20
61.560353178023448
30
0
10
-161.20929889139433
20
61.516462249001911
30
0
10
-161.18551652924194
20
61.472648458902711
30
0
10
-161.1614328691459
20
61.428912268744085
30
0
10
-161.13705026694629
20
61.385254210296061
30
0
10
-161.11237090936069
20
61.34167482962269
30
0
10
-161.087397256462
20
61.298174624182636
30
0
10
-161.06213221955429
20
61.254754016986873
30
0
10
-161.03657892746585
20
61.211413388790319
30
0
10
-161.01074059058732
20
61.16815309604435
30
0
10
-160.98462033898403
20
61.124973492793508
30
8.8817841970012523e-15
10
-160.95822104627598
20
61.081874953160728
30
0
10
-160.93154525693959
20
61.038857882922535
30
0
10
-160.90459529403375
20
60.995922711432414
30
0
10
-160.87737332862821
20
60.953069887699243
30
0
10
-160.84988146074801
20
60.910299874213933
30
0
10
-160.82212181096523
20
60.86761314115887
30
0
10
-160.79409656354062
20
60.825010159865094
30
0
10
-160.76580790625707
20
60.782491396530538
30
0
10
-160.73725799287308
20
60.740057304713623
30
0
10
-160.70844890157008
20
60.697708318973469
30
0
10
-160.67938258943354
20
60.655444844320016
30
0
10
-160.65006087448111
20
60.613267256506312
30
0
10
-160.62048549211599
20
60.571175930774373
30
0
10
-160.59065814065178
20
60.529171265763807
30
0
10
-160.56058052940091
20
60.487253706594444
30
0
10
-160.53025443592432
20
60.445423772759462
30
-8.8817841970012523e-15
10
-160.49968173574487
20
60.403682068056341
30
-8.8817841970012523e-15
10
-160.4688643107998
20
60.362029217130704
30
-8.8817841970012523e-15
10
-160.43780397677043
20
60.320465811559593
30
-8.8817841970012523e-15
10
-160.40650240588047
20
60.278992353179746
30
0
10
-160.37496105060924
20
60.237609193990309
30
0
10
-160.34318107622229
20
60.196316487786163
30
0
10
-160.31116337354496
20
60.155114255223594
30
0
10
-160.28535952713361
20
60.122224801536888
30
0
10
-160.26590010935234
20
60.09759836251709
30
0
10
-160.25287983189736
20
60.081198797711338
30
0
10
-160.24635786010327
20
60.073003530611011
30
0
0
ARC
5
257
100
AcDbEntity
8
0
100
AcDbCircle
10
-162.99998891915098
20
81.899994069635085
30
0
40
21.999999999999975
210
-2.917314891336464e-31
220
-3.6804015099763376e-32
230
1
100
AcDbArc
50
277.19028719973187
51
280.80971359828152
0
SPLINE
5
258
100
AcDbEntity
8
0
100
AcDbSpline
70
4
71
5
72
81
73
75
74
0
42
0.000000001
43
0.0000000001
44
0.0000000001
40
0
40
0
40
0
40
0
40
0
40
0
40
0.014285714285714285
40
0.028571428571428571
40
0.042857142857142858
40
0.057142857142857141
40
0.071428571428571425
40
0.085714285714285715
40
0.10000000000000001
40
0.1142857142857143
40
0.12857142857142859
40
0.14285714285714288
40
0.15714285714285717
40
0.17142857142857146
40
0.18571428571428575
40
0.20000000000000004
40
0.21428571428571433
40
0.22857142857142862
40
0.24285714285714291
40
0.25714285714285717
40
0.27142857142857146
40
0.28571428571428575
40
0.30000000000000004
40
0.31428571428571433
40
0.32857142857142863
40
0.34285714285714292
40
0.35714285714285721
40
0.3714285714285715
40
0.38571428571428579
40
0.40000000000000008
40
0.41428571428571437
40
0.42857142857142866
40
0.44285714285714295
40
0.45714285714285724
40
0.47142857142857153
40
0.48571428571428582
40
0.50000000000000011
40
0.51428571428571435
40
0.52857142857142858
40
0.54285714285714282
40
0.55714285714285705
40
0.57142857142857129
40
0.58571428571428552
40
0.59999999999999976
40
0.61428571428571399
40
0.62857142857142823
40
0.64285714285714246
40
0.6571428571428567
40
0.67142857142857093
40
0.68571428571428517
40
0.6999999999999994
40
0.71428571428571364
40
0.72857142857142787
40
0.74285714285714211
40
0.75714285714285634
40
0.77142857142857058
40
0.78571428571428481
40
0.79999999999999905
40
0.81428571428571328
40
0.82857142857142752
40
0.84285714285714175
40
0.85714285714285599
40
0.87142857142857022
40
0.88571428571428445
40
0.89999999999999869
40
0.91428571428571292
40
0.92857142857142716
40
0.94285714285714139
40
0.95714285714285563
40
0.97142857142856986
40
0.9857142857142841
40
1
40
1
40
1
40
1
40
1
40
1
41
1
41
1
41
1
41
1
41
1
41
1
41
1
41
1
41
1
41
1
41
1
41
1
41
1
41
1
41
1
41
1
41
1
41
1
41
1
41
1
41
1
41
1
41
1
41
1
41
1
41
1
41
1
41
1
41
1
41
1
41
1
41
1
41
1
41
1
41
1
41
1
41
1
41
1
41
1
41
1
41
1
41
1
41
1
41
1
41
1
41
1
41
1
41
1
41
1
41
1
41
1
41
1
41
1
41
1
41
1
41
1
41
1
41
1
41
1
41
1
41
1
41
1
41
1
41
1
41
1
41
1
41
1
41
1
41
1
41
1
41
1
41
1
41
1
41
1
41
1
10
-158.34077714764641
20
63.692835194838942
30
8.8817841970012523e-15
10
-158.33844731779163
20
63.683702587647772
30
8.8817841970012523e-15
10
-158.33403094008924
20
63.66538945596151
30
8.8817841970012523e-15
10
-158.32813621170263
20
63.637776007944787
30
8.8817841970012523e-15
10
-158.32166501215335
20
63.600683869293881
30
0
10
-158.31547669169393
20
63.553939148160282
30
0
10
-158.31066289893292
20
63.506914053287872
30
0
10
-158.30670360325345
20
63.459707603121913
30
0
10
-158.3032117102382
20
63.412395361430384
30
0
10
-158.30003797575483
20
63.365010105829079
30
0
10
-158.29719262063071
20
63.317555714080349
30
0
10
-158.29478225180461
20
63.270018267835503
30
8.8817841970012523e-15
10
-158.29294365990569
20
63.22237774335057
30
8.8817841970012523e-15
10
-158.29177297100676
20
63.174620492691595
30
8.8817841970012523e-15
10
-158.29127516803896
20
63.126748181591317
30
8.8817841970012523e-15
10
-158.29139999145028
20
63.078771662894965
30
8.8817841970012523e-15
10
-158.29206548926101
20
63.030707007451731
30
8.8817841970012523e-15
10
-158.29318490021009
20
62.982570945332412
30
0
10
-158.29469551160116
20
62.93437598115532
30
0
10
-158.29657572607692
20
62.886127508669915
30
0
10
-158.29882889301484
20
62.83782657446239
30
0
10
-158.30147318231701
20
62.789471614226045
30
0
10
-158.30452981708621
20
62.741060467459647
30
0
10
-158.30801025067558
20
62.692592572777627
30
0
10
-158.31190971137306
20
62.644070076251886
30
8.8817841970012523e-15
10
-158.3162141306116
20
62.595496655915703
30
8.8817841970012523e-15
10
-158.32090429150844
20
62.546876820500977
30
8.8817841970012523e-15
10
-158.32596073905586
20
62.498215077849281
30
8.8817841970012523e-15
10
-158.33136918112839
20
62.449515019991935
30
8.8817841970012523e-15
10
-158.33712281215415
20
62.400778931308693
30
8.8817841970012523e-15
10
-158.34321930525414
20
62.352008303262529
30
-8.8817841970012523e-15
10
-158.34965899425748
20
62.303204146651993
30
-8.8817841970012523e-15
10
-158.35644273156791
20
62.254367358750422
30
-8.8817841970012523e-15
10
-158.36356951123702
20
62.205499130448665
30
-8.8817841970012523e-15
10
-158.37103552180946
20
62.156601109311381
30
-8.8817841970012523e-15
10
-158.37883541035643
20
62.107675185351603
30
-8.8817841970012523e-15
10
-158.38696302987813
20
62.058723364707468
30
0
10
-158.395412326556
20
62.009747619400272
30
0
10
-158.40417832304237
20
61.960749720288035
30
0
10
-158.41325748712899
20
61.911731175512685
30
0
10
-158.4226471822883
20
61.862693326477199
30
0
10
-158.43234533230941
20
61.81363740691954
30
0
10
-158.44235002624325
20
61.76456461191048
30
0
10
-158.45265907814479
20
61.715476174765655
30
-8.8817841970012523e-15
10
-158.46326984991686
20
61.666373397434839
30
-8.8817841970012523e-15
10
-158.4741794835266
20
61.617257608898683
30
-8.8817841970012523e-15
10
-158.48538503586079
20
61.568130140227872
30
-8.8817841970012523e-15
10
-158.49688363945609
20
61.518992295382198
30
-8.8817841970012523e-15
10
-158.5086726769479
20
61.469845318171181
30
0
10
-158.52074985378712
20
61.420690380797687
30
0
10
-158.53311309329106
20
61.371528609465898
30
0
10
-158.54576046940105
20
61.322361102106072
30
0
10
-158.5586901277922
20
61.273188947516637
30
0
10
-158.57190019697487
20
61.224013248160517
30
0
10
-158.58538874524302
20
61.174835127273852
30
0
10
-158.5991538359547
20
61.125655704299298
30
0
10
-158.61319356092088
20
61.076476076144644
30
-8.8817841970012523e-15
10
-158.62750607795991
20
61.027297298293504
30
-8.8817841970012523e-15
10
-158.64208965092789
20
60.978120360705944
30
-8.8817841970012523e-15
10
-158.6569426669013
20
60.928946182542703
30
-8.8817841970012523e-15
10
-158.67206359136978
20
60.879775656949292
30
0
10
-158.68745093232758
20
60.830609687862243
30
0
10
-158.70310320167152
20
60.781449226822332
30
0
10
-158.71901886937303
20
60.732295317193412
30
0
10
-158.73519633828747
20
60.683149112789543
30
0
10
-158.75163401161234
20
60.634011789234599
30
0
10
-158.76833034533945
20
60.584884470228204
30
0
10
-158.78528390416568
20
60.535768149790982
30
0
10
-158.80249341547477
20
60.486663611534873
30
0
10
-158.81995781855858
20
60.437571361814349
30
-8.8817841970012523e-15
10
-158.83767627257504
20
60.38849169555489
30
-8.8817841970012523e-15
10
-158.85205378817841
20
60.349238139047152
30
-8.8817841970012523e-15
10
-158.86295080568462
20
60.319803712797402
30
0
10
-158.87026608090355
20
60.300183312717536
30
0
10
-158.87393636773334
20
60.290373750366669
30
0
0
LINE
5
259
100
AcDbEntity
8
0
100
AcDbLine
10
-158.34077714764641
20
63.692835194838942
30
8.8817841970012523e-15
11
-158.40810756555385
21
63.956761016504245
31
8.8817841970012523e-15
0
ARC
5
260
100
AcDbEntity
8
0
100
AcDbCircle
10
-157.43914156280491
20
64.203955040535433
30
0
40
1.0000000000000016
210
-1.5051553023658046e-30
220
-4.7298374909140382e-31
230
1
100
AcDbArc
50
107.44493442661798
51
194.31153088772371
0
ARC
5
261
100
AcDbEntity
8
0
100
AcDbCircle
10
-162.99998891915098
20
81.899994069635085
30
0
40
17.549199999999981
210
-6.9411389752990615e-31
220
-2.1812007906034932e-31
230
1
100
AcDbArc
50
287.44493442661769
51
288.55506637139604
0
ENDSEC
0
SECTION
2
OBJECTS
0
DICTIONARY
5
C
100
AcDbDictionary
3
ACAD_GROUP
350
D
3
ACAD_MLINESTYLE
350
17
0
DICTIONARY
5
D
100
AcDbDictionary
0
DICTIONARY
5
1A
330
C
100
AcDbDictionary
0
DICTIONARY
5
17
100
AcDbDictionary
0
ENDSEC
0
EOF
